  0
SECTION
  2
HEADER
  9
$CECOLOR
 62
256
  9
$CELTYPE
  6
CONTINUOUS
  9
$CLAYER
  8
0
  9
$TEXTSTYLE
  7
STANDARD
  9
$DWGCODEPAGE
  3
ANSI_1252
  9
$LTSCALE
 40
1
  0
ENDSEC
  0
SECTION
  2
TABLES
  0
TABLE
  2
LTYPE
 70
5
  0
LTYPE
  2
CONTINUOUS
  3
CONTINUOUS
 70
0
 72
65
 73
0
 40
0
  0
LTYPE
  2
DASHED
  3
DASHED
 70
0
 72
65
 73
2
 40
0.75
 49
0.5
 49
-0.25
  0
LTYPE
  2
DOT
  3
DOT
 70
0
 72
65
 73
2
 40
0.25
 49
0
 49
-0.25
  0
LTYPE
  2
DASHDOT
  3
DASHDOT
 70
0
 72
65
 73
4
 40
1
 49
0.5
 49
-0.25
 49
0
 49
-0.25
  0
LTYPE
  2
DIVIDE
  3
DIVIDE
 70
0
 72
65
 73
6
 40
1.25
 49
0.5
 49
-0.25
 49
0
 49
-0.25
 49
0
 49
-0.25
  0
ENDTAB
  0
TABLE
  2
LAYER
 70
3
  0
LAYER
  2
0
  6
CONTINUOUS
 70
0
 62
7
  0
LAYER
  2
_FLOOR1_W
  6
CONTINUOUS
 70
4
 62
7
  0
LAYER
  2
_FLOOR1_WH
  6
CONTINUOUS
 70
5
 62
1
  0
ENDTAB
  0
TABLE
  2
STYLE
 70
4
  0
STYLE
  2
STANDARD
 70
0
 40
0
 41
1
 50
0
 71
0
 42
1
  3
TXT.SHX
  0
STYLE
  2
ANNOTATIVE
 70
0
 40
0
 41
1
 50
0
 71
0
 42
1
  3
ROMANS.SHX
  0
STYLE
  2
ATTRIBUTI_SCATOLA
 70
0
 40
0
 41
1
 50
0
 71
0
 42
1
  3
ROMANS.SHX
  0
STYLE
  2
ATTRIBUTI_SCATOLA00001
 70
0
 40
0
 41
1
 50
0
 71
0
 42
1
  3
ROMANS.SHX
  0
ENDTAB
  0
ENDSEC
  0
SECTION
  2
BLOCKS
  0
BLOCK
  2
*MODEL_SPACE
 10
0
 20
0
 70
1
  0
ENDBLK
  0
BLOCK
  2
*PAPER_SPACE
 10
0
 20
0
 70
1
  0
ENDBLK
  0
ENDSEC
  0
SECTION
  2
ENTITIES
  0
LINE
  6
BYLAYER
  8
0
 10
-89.0103331589018
 11
-86.5657957757238
 20
-53.7576774704609
 21
-54.7869064424235
 62
7
  0
LINE
  6
BYLAYER
  8
0
 10
-86.5657957757238
 11
-84.1289420374058
 20
-54.7869064424235
 21
-53.7448713956945
 62
7
  0
LINE
  6
BYLAYER
  8
0
 10
-84.1289420374058
 11
-86.5555034860038
 20
-53.7448713956945
 21
-59.5317942928908
 62
7
  0
LINE
  6
BYLAYER
  8
0
 10
-86.5555034860038
 11
-89.0103331589018
 20
-59.5317942928908
 21
-53.7576774704609
 62
7
  0
LINE
  6
BYLAYER
  8
0
 10
-89.0103331589018
 11
-89.0103331589018
 20
-53.7576774704609
 21
-53.7576774704609
 62
7
  0
LINE
  6
BYLAYER
  8
0
 10
-84.3528111962848
 11
-86.7947873645088
 20
42.637915987483
 21
43.6704650529036
 62
7
  0
LINE
  6
BYLAYER
  8
0
 10
-86.7947873645088
 11
-89.2316885327328
 20
43.6704650529036
 21
42.6284300061746
 62
7
  0
LINE
  6
BYLAYER
  8
0
 10
-89.2316885327328
 11
-86.8051270841348
 20
42.6284300061746
 21
48.4153529033709
 62
7
  0
LINE
  6
BYLAYER
  8
0
 10
-86.8051270841348
 11
-84.3528111962848
 20
48.4153529033709
 21
42.637915987483
 62
7
  0
LINE
  6
BYLAYER
  8
0
 10
-84.3528111962848
 11
-84.3528111962848
 20
42.637915987483
 21
42.637915987483
 62
7
  0
LINE
  6
BYLAYER
  8
0
 10
-86.5657957757238
 11
-86.7973960093688
 20
-55.6003293396198
 21
44.4834136510344
 62
7
  0
LINE
  6
BYLAYER
  8
0
 10
-93.9792846308638
 11
-93.6730676682468
 20
-2.9645162555076
 21
-2.19046018074131
 62
7
  0
LINE
  6
BYLAYER
  8
0
 10
-93.6730676682468
 11
-93.0014507056308
 20
-2.19046018074131
 21
-1.95568214335815
 62
7
  0
LINE
  6
BYLAYER
  8
0
 10
-93.0014507056308
 11
-92.3169707523588
 20
-1.95568214335815
 21
-2.22081532092822
 62
7
  0
LINE
  6
BYLAYER
  8
0
 10
-92.3169707523588
 11
-91.9103968504898
 20
-2.22081532092822
 21
-2.87202793775064
 62
7
  0
LINE
  6
BYLAYER
  8
0
 10
-91.9103968504898
 11
-92.3092491635738
 20
-2.87202793775064
 21
-3.71343447980665
 62
7
  0
LINE
  6
BYLAYER
  8
0
 10
-92.3092491635738
 11
-93.0220352850698
 20
-3.71343447980665
 21
-4.02504896578797
 62
7
  0
LINE
  6
BYLAYER
  8
0
 10
-93.0220352850698
 11
-93.6936569906768
 20
-4.02504896578797
 21
-3.75469849849826
 62
7
  0
LINE
  6
BYLAYER
  8
0
 10
-93.6936569906768
 11
-93.9792846308638
 20
-3.75469849849826
 21
-2.97495083494691
 62
7
  0
LINE
  6
BYLAYER
  8
0
 10
-93.9792846308638
 11
-93.9792846308638
 20
-2.97495083494691
 21
-2.9645162555076
 62
7
  0
LINE
  6
BYLAYER
  8
0
 10
-93.9792846308638
 11
-93.9792846308638
 20
-2.9645162555076
 21
-2.9645162555076
 62
7
  0
LINE
  6
BYLAYER
  8
0
 10
-88.9357259159108
 11
-89.2779801215178
 20
-3.00578027419918
 21
-3.89841111532068
 62
7
  0
LINE
  6
BYLAYER
  8
0
 10
-89.2779801215178
 11
-90.0679726448828
 20
-3.89841111532068
 21
-4.19959102186279
 62
7
  0
LINE
  6
BYLAYER
  8
0
 10
-90.0679726448828
 11
-90.8347719439478
 20
-4.19959102186279
 21
-3.92165176952629
 62
7
  0
LINE
  6
BYLAYER
  8
0
 10
-90.8347719439478
 11
-91.3236794205838
 20
-3.92165176952629
 21
-3.1191377508347
 62
7
  0
LINE
  6
BYLAYER
  8
0
 10
-91.3236794205838
 11
-90.8476728785278
 20
-3.1191377508347
 21
-2.14635036765718
 62
7
  0
LINE
  6
BYLAYER
  8
0
 10
-90.8476728785278
 11
-90.0062189065648
 20
-2.14635036765718
 21
-1.79110036765717
 62
7
  0
LINE
  6
BYLAYER
  8
0
 10
-90.0062189065648
 11
-89.2393721775928
 20
-1.79110036765717
 21
-2.1178924237319
 62
7
  0
LINE
  6
BYLAYER
  8
0
 10
-89.2393721775928
 11
-88.9357259159108
 20
-2.1178924237319
 21
-2.99534569475999
 62
7
  0
LINE
  6
BYLAYER
  8
0
 10
-88.9357259159108
 11
-88.9357259159108
 20
-2.99534569475999
 21
-3.00578027419918
 62
7
  0
LINE
  6
BYLAYER
  8
0
 10
-88.9357259159108
 11
-88.9357259159108
 20
-3.00578027419918
 21
-3.00578027419918
 62
7
  0
LINE
  6
BYLAYER
  8
0
 10
-94.5659783458168
 11
-94.1233814299298
 20
-2.95455597513377
 21
-4.28211905924591
 62
7
  0
LINE
  6
BYLAYER
  8
0
 10
-94.1233814299298
 11
-92.9602768037608
 20
-4.28211905924591
 21
-4.81760270410579
 62
7
  0
LINE
  6
BYLAYER
  8
0
 10
-92.9602768037608
 11
-92.2088969673128
 20
-4.81760270410579
 21
-4.58804195644218
 62
7
  0
LINE
  6
BYLAYER
  8
0
 10
-92.2088969673128
 11
-91.6119062196488
 20
-4.58804195644218
 21
-3.86046719008702
 62
7
  0
LINE
  6
BYLAYER
  8
0
 10
-91.6119062196488
 11
-91.5810246074998
 20
-3.86046719008702
 21
-3.86046719008702
 62
7
  0
LINE
  6
BYLAYER
  8
0
 10
-91.5810246074998
 11
-90.9351336261908
 20
-3.86046719008702
 21
-4.72464008728336
 62
7
  0
LINE
  6
BYLAYER
  8
0
 10
-90.9351336261908
 11
-89.9650497476868
 20
-4.72464008728336
 21
-5.04431765737677
 62
7
  0
LINE
  6
BYLAYER
  8
0
 10
-89.9650497476868
 11
-88.8199495140418
 20
-5.04431765737677
 21
-4.50598821812441
 62
7
  0
LINE
  6
BYLAYER
  8
0
 10
-88.8199495140418
 11
-88.3387256822658
 20
-4.50598821812441
 21
-3.02617513401226
 62
7
  0
LINE
  6
BYLAYER
  8
0
 10
-88.3387256822658
 11
-88.8199495140418
 20
-3.02617513401226
 21
-1.57007700317119
 62
7
  0
LINE
  6
BYLAYER
  8
0
 10
-88.8199495140418
 11
-90.0885572243218
 20
-1.57007700317119
 21
-0.978151769526349
 62
7
  0
LINE
  6
BYLAYER
  8
0
 10
-90.0885572243218
 11
-91.0277642336678
 20
-0.978151769526349
 21
-1.30257233027397
 62
7
  0
LINE
  6
BYLAYER
  8
0
 10
-91.0277642336678
 11
-91.6427783458168
 20
-1.30257233027397
 21
-2.19235737700292
 62
7
  0
LINE
  6
BYLAYER
  8
0
 10
-91.6427783458168
 11
-91.6736599579668
 20
-2.19235737700292
 21
-2.19235737700292
 62
7
  0
LINE
  6
BYLAYER
  8
0
 10
-91.6736599579668
 11
-92.3144000514248
 20
-2.19235737700292
 21
-1.41023821812441
 62
7
  0
LINE
  6
BYLAYER
  8
0
 10
-92.3144000514248
 11
-93.0837937663778
 20
-1.41023821812441
 21
-1.18399756391885
 62
7
  0
LINE
  6
BYLAYER
  8
0
 10
-93.0837937663778
 11
-94.1105184392748
 20
-1.18399756391885
 21
-1.62651859195627
 62
7
  0
LINE
  6
BYLAYER
  8
0
 10
-94.1105184392748
 11
-94.5659783458168
 20
-1.62651859195627
 21
-2.94412139569458
 62
7
  0
LINE
  6
BYLAYER
  8
0
 10
-94.5659783458168
 11
-94.5659783458168
 20
-2.94412139569458
 21
-2.95455597513377
 62
7
  0
LINE
  6
BYLAYER
  8
0
 10
-94.5659783458168
 11
-94.5659783458168
 20
-2.95455597513377
 21
-2.95455597513377
 62
7
  0
LINE
  6
BYLAYER
  8
0
 10
-88.9666027850698
 11
-89.6356490467518
 20
-7.75873120877863
 21
-8.64614476018055
 62
7
  0
LINE
  6
BYLAYER
  8
0
 10
-89.6356490467518
 11
-91.4780922243218
 20
-8.64614476018055
 21
-8.96297653588148
 62
7
  0
LINE
  6
BYLAYER
  8
0
 10
-91.4780922243218
 11
-93.2767860560978
 20
-8.96297653588148
 21
-8.6338129844796
 62
7
  0
LINE
  6
BYLAYER
  8
0
 10
-93.2767860560978
 11
-93.9381107289948
 20
-8.6338129844796
 21
-7.74829662933938
 62
7
  0
LINE
  6
BYLAYER
  8
0
 10
-93.9381107289948
 11
-93.2639230654438
 20
-7.74829662933938
 21
-6.81440176952633
 62
7
  0
LINE
  6
BYLAYER
  8
0
 10
-93.2639230654438
 11
-91.4780922243218
 20
-6.81440176952633
 21
-6.52365644242347
 62
7
  0
LINE
  6
BYLAYER
  8
0
 10
-91.4780922243218
 11
-89.6485025514248
 20
-6.52365644242347
 21
-6.82720784429269
 62
7
  0
LINE
  6
BYLAYER
  8
0
 10
-89.6485025514248
 11
-88.9666027850698
 20
-6.82720784429269
 21
-7.74829662933938
 62
7
  0
LINE
  6
BYLAYER
  8
0
 10
-88.9666027850698
 11
-88.9666027850698
 20
-7.74829662933938
 21
-7.75873120877863
 62
7
  0
LINE
  6
BYLAYER
  8
0
 10
-88.9666027850698
 11
-88.9666027850698
 20
-7.75873120877863
 21
-7.75873120877863
 62
7
  0
LINE
  6
BYLAYER
  8
0
 10
-88.3387256822658
 11
-88.5497413364718
 20
-7.76869148915252
 21
-6.89123821812446
 62
7
  0
LINE
  6
BYLAYER
  8
0
 10
-88.5497413364718
 11
-89.1622037196488
 20
-6.89123821812446
 21
-6.2376541059749
 62
7
  0
LINE
  6
BYLAYER
  8
0
 10
-89.1622037196488
 11
-90.1606032523588
 20
-6.2376541059749
 21
-5.82880831158236
 62
7
  0
LINE
  6
BYLAYER
  8
0
 10
-90.1606032523588
 11
-91.5192661261908
 20
-5.82880831158236
 21
-5.68983868541413
 62
7
  0
LINE
  6
BYLAYER
  8
0
 10
-91.5192661261908
 11
-92.8033122710508
 20
-5.68983868541413
 21
-5.82359102186281
 62
7
  0
LINE
  6
BYLAYER
  8
0
 10
-92.8033122710508
 11
-93.7605568738548
 20
-5.82359102186281
 21
-6.21204195644223
 62
7
  0
LINE
  6
BYLAYER
  8
0
 10
-93.7605568738548
 11
-94.3601183224528
 20
-6.21204195644223
 21
-6.83479662933938
 62
7
  0
LINE
  6
BYLAYER
  8
0
 10
-94.3601183224528
 11
-94.5659783458168
 20
-6.83479662933938
 21
-7.67667747046086
 62
7
  0
LINE
  6
BYLAYER
  8
0
 10
-94.5659783458168
 11
-94.3626937663778
 20
-7.67667747046086
 21
-8.52045550784406
 62
7
  0
LINE
  6
BYLAYER
  8
0
 10
-94.3626937663778
 11
-93.7631275747888
 20
-8.52045550784406
 21
-9.18969148915245
 62
7
  0
LINE
  6
BYLAYER
  8
0
 10
-93.7631275747888
 11
-92.7827229486208
 20
-9.18969148915245
 21
-9.62699522747026
 62
7
  0
LINE
  6
BYLAYER
  8
0
 10
-92.7827229486208
 11
-91.4369230654438
 20
-9.62699522747026
 21
-9.78635971345157
 62
7
  0
LINE
  6
BYLAYER
  8
0
 10
-91.4369230654438
 11
-90.1117030187148
 20
-9.78635971345157
 21
-9.62984102186273
 62
7
  0
LINE
  6
BYLAYER
  8
0
 10
-90.1117030187148
 11
-89.1390104953498
 20
-9.62984102186273
 21
-9.2181494330777
 62
7
  0
LINE
  6
BYLAYER
  8
0
 10
-89.1390104953498
 11
-88.5420576916118
 20
-9.2181494330777
 21
-8.58685737700297
 62
7
  0
LINE
  6
BYLAYER
  8
0
 10
-88.5420576916118
 11
-88.3387256822658
 20
-8.58685737700297
 21
-7.77912606859171
 62
7
  0
LINE
  6
BYLAYER
  8
0
 10
-88.3387256822658
 11
-88.3387256822658
 20
-7.77912606859171
 21
-7.76869148915252
 62
7
  0
LINE
  6
BYLAYER
  8
0
 10
-88.3387256822658
 11
-88.3387256822658
 20
-7.76869148915252
 21
-7.76869148915252
 62
7
  0
LINE
  6
BYLAYER
  8
0
 10
-88.4416485794618
 11
-88.4416485794618
 20
-12.6629835452273
 21
-11.8709041059749
 62
7
  0
LINE
  6
BYLAYER
  8
0
 10
-88.4416485794618
 11
-94.4630459626398
 20
-11.8709041059749
 21
-11.8709041059749
 62
7
  0
LINE
  6
BYLAYER
  8
0
 10
-94.4630459626398
 11
-94.4630459626398
 20
-11.8709041059749
 21
-12.5704952274703
 62
7
  0
LINE
  6
BYLAYER
  8
0
 10
-94.4630459626398
 11
-93.7631275747888
 20
-12.5704952274703
 21
-13.8781377508347
 62
7
  0
LINE
  6
BYLAYER
  8
0
 10
-93.7631275747888
 11
-93.1352599579668
 20
-13.8781377508347
 21
-13.7230419564422
 62
7
  0
LINE
  6
BYLAYER
  8
0
 10
-93.1352599579668
 11
-93.7013690934808
 20
-13.7230419564422
 21
-12.6738924237319
 62
7
  0
LINE
  6
BYLAYER
  8
0
 10
-93.7013690934808
 11
-93.7013690934808
 20
-12.6738924237319
 21
-12.6629835452273
 62
7
  0
LINE
  6
BYLAYER
  8
0
 10
-93.7013690934808
 11
-88.4416485794618
 20
-12.6629835452273
 21
-12.6629835452273
 62
7
  0
LINE
  6
BYLAYER
  8
0
 10
-88.4416485794618
 11
-88.4416485794618
 20
-12.6629835452273
 21
-12.6629835452273
 62
7
  0
LINE
  6
BYLAYER
  8
0
 10
-39.8563969439481
 11
-86.5348714766588
 20
48.772974398698
 21
48.772974398698
 62
7
  0
LINE
  6
BYLAYER
  8
0
 10
-39.8563969439481
 11
-86.6970343271258
 20
-59.2642896199936
 21
-59.2642896199936
 62
7
  0
LINE
  6
BYLAYER
  8
0
 10
176.789698083847
 11
175.752406027772
 20
88.8583599127166
 21
86.4166683239316
 62
7
  0
LINE
  6
BYLAYER
  8
0
 10
175.752406027772
 11
176.789698083847
 20
86.4166683239316
 21
83.9773482304736
 62
7
  0
LINE
  6
BYLAYER
  8
0
 10
176.789698083847
 11
171.007518177305
 20
83.9773482304736
 21
86.4166683239316
 62
7
  0
LINE
  6
BYLAYER
  8
0
 10
171.007518177305
 11
176.789698083847
 20
86.4166683239316
 21
88.8583599127166
 62
7
  0
LINE
  6
BYLAYER
  8
0
 10
176.789698083847
 11
176.789698083847
 20
88.8583599127166
 21
88.8583599127166
 62
7
  0
LINE
  6
BYLAYER
  8
0
 10
195.380798551137
 11
196.418090607212
 20
83.9849370155203
 21
86.4242571089783
 62
7
  0
LINE
  6
BYLAYER
  8
0
 10
196.418090607212
 11
195.380798551137
 20
86.4242571089783
 21
88.8640515015017
 62
7
  0
LINE
  6
BYLAYER
  8
0
 10
195.380798551137
 11
201.163452756744
 20
88.8640515015017
 21
86.4271029033709
 62
7
  0
LINE
  6
BYLAYER
  8
0
 10
201.163452756744
 11
195.380798551137
 20
86.4271029033709
 21
83.9849370155203
 62
7
  0
LINE
  6
BYLAYER
  8
0
 10
195.380798551137
 11
195.380798551137
 20
83.9849370155203
 21
83.9849370155203
 62
7
  0
LINE
  6
BYLAYER
  8
0
 10
174.939457429641
 11
197.231513504408
 20
86.4166683239316
 21
86.4242571089783
 62
7
  0
LINE
  6
BYLAYER
  8
0
 10
-32.8581841591436
 11
-33.8874131311062
 20
88.7378879500998
 21
86.2961963613148
 62
7
  0
LINE
  6
BYLAYER
  8
0
 10
-33.8874131311062
 11
-32.8482238787698
 20
86.2961963613148
 21
83.8587734641186
 62
7
  0
LINE
  6
BYLAYER
  8
0
 10
-32.8482238787698
 11
-38.6352416357791
 20
83.8587734641186
 21
86.28528748281
 62
7
  0
LINE
  6
BYLAYER
  8
0
 10
-38.6352416357791
 11
-32.8581841591436
 20
86.28528748281
 21
88.7378879500998
 62
7
  0
LINE
  6
BYLAYER
  8
0
 10
-32.8581841591436
 11
-32.8581841591436
 20
88.7378879500998
 21
88.7378879500998
 62
7
  0
LINE
  6
BYLAYER
  8
0
 10
117.844284532445
 11
118.873987803473
 20
83.8510424186056
 21
86.2955798017831
 62
7
  0
LINE
  6
BYLAYER
  8
0
 10
118.873987803473
 11
117.833849953006
 20
86.2955798017831
 21
88.7330026989794
 62
7
  0
LINE
  6
BYLAYER
  8
0
 10
117.833849953006
 11
123.621721448333
 20
88.7330026989794
 21
86.3060143812224
 62
7
  0
LINE
  6
BYLAYER
  8
0
 10
123.621721448333
 11
117.844284532445
 20
86.3060143812224
 21
83.8510424186056
 62
7
  0
LINE
  6
BYLAYER
  8
0
 10
117.844284532445
 11
117.844284532445
 20
83.8510424186056
 21
83.8510424186056
 62
7
  0
LINE
  6
BYLAYER
  8
0
 10
188.376349953006
 11
189.169852289454
 20
88.0714977631839
 21
88.0714977631839
 62
7
  0
LINE
  6
BYLAYER
  8
0
 10
189.169852289454
 11
189.169852289454
 20
88.0714977631839
 21
94.0927243986979
 62
7
  0
LINE
  6
BYLAYER
  8
0
 10
189.169852289454
 11
188.469312569828
 20
94.0927243986979
 21
94.0927243986979
 62
7
  0
LINE
  6
BYLAYER
  8
0
 10
188.469312569828
 11
187.162618644595
 20
94.0927243986979
 21
93.3926589781372
 62
7
  0
LINE
  6
BYLAYER
  8
0
 10
187.162618644595
 11
187.316765840856
 20
93.3926589781372
 21
92.7651613145858
 62
7
  0
LINE
  6
BYLAYER
  8
0
 10
187.316765840856
 11
188.366863971698
 20
92.7651613145858
 21
93.3310000996325
 62
7
  0
LINE
  6
BYLAYER
  8
0
 10
188.366863971698
 11
188.376349953006
 20
93.3310000996325
 21
93.3310000996325
 62
7
  0
LINE
  6
BYLAYER
  8
0
 10
188.376349953006
 11
188.376349953006
 20
93.3310000996325
 21
88.0714977631839
 62
7
  0
LINE
  6
BYLAYER
  8
0
 10
188.376349953006
 11
188.376349953006
 20
88.0714977631839
 21
88.0714977631839
 62
7
  0
LINE
  6
BYLAYER
  8
0
 10
181.856160700669
 11
182.494567242726
 20
88.3802664547727
 21
88.1023272024362
 62
7
  0
LINE
  6
BYLAYER
  8
0
 10
182.494567242726
 11
183.420873317492
 20
88.1023272024362
 21
87.9685748659876
 62
7
  0
LINE
  6
BYLAYER
  8
0
 10
183.420873317492
 11
185.052462102539
 20
87.9685748659876
 21
88.5111729968288
 62
7
  0
LINE
  6
BYLAYER
  8
0
 10
185.052462102539
 11
185.613083597866
 20
88.5111729968288
 21
89.7799229968288
 62
7
  0
LINE
  6
BYLAYER
  8
0
 10
185.613083597866
 11
185.221786868894
 20
89.7799229968288
 21
90.8063061743989
 62
7
  0
LINE
  6
BYLAYER
  8
0
 10
185.221786868894
 11
184.275085934314
 20
90.8063061743989
 21
91.3138061743989
 62
7
  0
LINE
  6
BYLAYER
  8
0
 10
184.275085934314
 11
184.275085934314
 20
91.3138061743989
 21
91.3342010342119
 62
7
  0
LINE
  6
BYLAYER
  8
0
 10
184.275085934314
 11
185.103686401604
 20
91.3342010342119
 21
91.9104743986979
 62
7
  0
LINE
  6
BYLAYER
  8
0
 10
185.103686401604
 11
185.386368644595
 20
91.9104743986979
 21
92.7542524360811
 62
7
  0
LINE
  6
BYLAYER
  8
0
 10
185.386368644595
 11
184.964716775436
 20
92.7542524360811
 21
93.7502804734643
 62
7
  0
LINE
  6
BYLAYER
  8
0
 10
184.964716775436
 11
183.657074252071
 20
93.7502804734643
 21
94.1956472958942
 62
7
  0
LINE
  6
BYLAYER
  8
0
 10
183.657074252071
 11
182.744048551137
 20
94.1956472958942
 21
94.0486145856139
 62
7
  0
LINE
  6
BYLAYER
  8
0
 10
182.744048551137
 11
182.072441074501
 20
94.0486145856139
 21
93.7327314080437
 62
7
  0
LINE
  6
BYLAYER
  8
0
 10
182.072441074501
 11
182.298681728707
 20
93.7327314080437
 21
93.1351145856138
 62
7
  0
LINE
  6
BYLAYER
  8
0
 10
182.298681728707
 11
183.50292705581
 20
93.1351145856138
 21
93.536845894025
 62
7
  0
LINE
  6
BYLAYER
  8
0
 10
183.50292705581
 11
184.313504158613
 20
93.536845894025
 21
93.2669697258007
 62
7
  0
LINE
  6
BYLAYER
  8
0
 10
184.313504158613
 11
184.562985467025
 20
93.2669697258007
 21
92.6314089781372
 62
7
  0
LINE
  6
BYLAYER
  8
0
 10
184.562985467025
 11
184.11287565394
 20
92.6314089781372
 21
91.8511870155204
 62
7
  0
LINE
  6
BYLAYER
  8
0
 10
184.11287565394
 11
183.214553224034
 20
91.8511870155204
 21
91.6121402865484
 62
7
  0
LINE
  6
BYLAYER
  8
0
 10
183.214553224034
 11
182.762071915623
 20
91.6121402865484
 21
91.6121402865484
 62
7
  0
LINE
  6
BYLAYER
  8
0
 10
182.762071915623
 11
182.762071915623
 20
91.6121402865484
 21
90.9941286043054
 62
7
  0
LINE
  6
BYLAYER
  8
0
 10
182.762071915623
 11
183.214553224034
 20
90.9941286043054
 21
90.9941286043054
 62
7
  0
LINE
  6
BYLAYER
  8
0
 10
183.214553224034
 11
184.285046214688
 20
90.9941286043054
 21
90.7090748659877
 62
7
  0
LINE
  6
BYLAYER
  8
0
 10
184.285046214688
 11
184.769305560483
 20
90.7090748659877
 21
89.7898832772027
 62
7
  0
LINE
  6
BYLAYER
  8
0
 10
184.769305560483
 11
184.483303224034
 20
89.7898832772027
 21
89.0205701930905
 62
7
  0
LINE
  6
BYLAYER
  8
0
 10
184.483303224034
 11
183.410438738053
 20
89.0205701930905
 21
88.6273762678568
 62
7
  0
LINE
  6
BYLAYER
  8
0
 10
183.410438738053
 11
182.612667710015
 20
88.6273762678568
 21
88.7582828099129
 62
7
  0
LINE
  6
BYLAYER
  8
0
 10
182.612667710015
 11
182.072441074501
 20
88.7582828099129
 21
88.9973295388849
 62
7
  0
LINE
  6
BYLAYER
  8
0
 10
182.072441074501
 11
181.856160700669
 20
88.9973295388849
 21
88.3802664547727
 62
7
  0
LINE
  6
BYLAYER
  8
0
 10
181.856160700669
 11
181.856160700669
 20
88.3802664547727
 21
88.3802664547727
 62
7
  0
LINE
  6
BYLAYER
  8
0
 10
124.130644345529
 11
124.130644345529
 20
50.5255094454269
 21
87.1347571089783
 62
7
  0
LINE
  6
BYLAYER
  8
0
 10
-38.78967341148
 11
-38.78967341148
 20
50.0365071089783
 21
87.2993388846793
 62
7
  0
LINE
  6
BYLAYER
  8
0
 10
201.212305560482
 11
201.212305560482
 20
48.5723458940251
 21
87.2993388846793
 62
7
  0
LINE
  6
BYLAYER
  8
0
 10
170.909812569828
 11
170.909812569828
 20
35.873462716455
 21
87.2993388846793
 62
7
  0
LINE
  6
BYLAYER
  8
0
 10
192.311134999735
 11
192.311134999735
 20
43.8450071089783
 21
46.3255912211278
 62
7
  0
LINE
  6
BYLAYER
  8
0
 10
196.490184065155
 11
196.490184065155
 20
41.0893295388849
 21
47.5530772024363
 62
7
  0
LINE
  6
BYLAYER
  8
0
 10
196.490184065155
 11
196.274377990389
 20
47.5530772024363
 21
47.9595515015017
 62
7
  0
LINE
  6
BYLAYER
  8
0
 10
196.274377990389
 11
195.820948083847
 20
47.9595515015017
 21
48.0188388846792
 62
7
  0
LINE
  6
BYLAYER
  8
0
 10
192.620377990389
 11
192.311134999735
 20
46.7889814080437
 21
46.3255912211278
 62
7
  0
LINE
  6
BYLAYER
  8
0
 10
195.820948083847
 11
192.620377990389
 20
48.0188388846792
 21
46.7889814080437
 62
7
  0
LINE
  6
BYLAYER
  8
0
 10
196.490184065155
 11
196.274377990389
 20
47.5502314080437
 21
47.9567057071091
 62
7
  0
LINE
  6
BYLAYER
  8
0
 10
196.274377990389
 11
195.820948083847
 20
47.9567057071091
 21
48.0188388846792
 62
7
  0
LINE
  6
BYLAYER
  8
0
 10
195.921973784782
 11
196.302361635249
 20
41.2301963613148
 21
41.3487711276699
 62
7
  0
LINE
  6
BYLAYER
  8
0
 10
196.302361635249
 11
196.490184065155
 20
41.3487711276699
 21
41.6988038379502
 62
7
  0
LINE
  6
BYLAYER
  8
0
 10
196.490184065155
 11
196.490184065155
 20
41.6988038379502
 21
47.5502314080437
 62
7
  0
LINE
  6
BYLAYER
  8
0
 10
192.311134999735
 11
192.566307896931
 20
45.1678272024362
 21
43.8165491650531
 62
7
  0
LINE
  6
BYLAYER
  8
0
 10
195.921973784782
 11
193.891499485716
 20
41.2301963613148
 21
42.0720772024362
 62
7
  0
LINE
  6
BYLAYER
  8
0
 10
193.891499485716
 11
192.566307896931
 20
42.0720772024362
 21
43.8165491650531
 62
7
  0
LINE
  6
BYLAYER
  8
0
 10
192.311134999735
 11
192.311134999735
 20
45.1678272024362
 21
46.3255912211278
 62
7
  0
LINE
  6
BYLAYER
  8
0
 10
200.21106023338
 11
200.411688738053
 20
39.2727641183241
 21
39.0204370155204
 62
7
  0
LINE
  6
BYLAYER
  8
0
 10
200.65642705581
 11
200.491370981043
 20
35.4537080435577
 21
35.1757687912213
 62
7
  0
LINE
  6
BYLAYER
  8
0
 10
200.579116308146
 11
200.777373317492
 20
33.7965071089783
 21
33.5422828099129
 62
7
  0
LINE
  6
BYLAYER
  8
0
 10
200.980373317492
 11
200.818163037118
 20
29.977451034212
 21
29.7004603800063
 62
7
  0
LINE
  6
BYLAYER
  8
0
 10
200.805831261417
 11
200.784962102539
 20
37.3115374828101
 21
37.6795935575764
 62
7
  0
LINE
  6
BYLAYER
  8
0
 10
200.897845280109
 11
200.810574252071
 20
35.7956776697259
 21
37.2370725295391
 62
7
  0
LINE
  6
BYLAYER
  8
0
 10
200.810574252071
 11
200.782116308146
 20
37.2546215949597
 21
37.7080515015016
 62
7
  0
LINE
  6
BYLAYER
  8
0
 10
200.808202756744
 11
200.777373317492
 20
37.2859253332774
 21
37.8057571089783
 62
7
  0
LINE
  6
BYLAYER
  8
0
 10
201.446134999735
 11
201.428111635249
 20
26.2959416884175
 21
26.7512687912213
 62
7
  0
LINE
  6
BYLAYER
  8
0
 10
201.440917710015
 11
201.428111635249
 20
26.3262968286045
 21
26.7280281370157
 62
7
  0
LINE
  6
BYLAYER
  8
0
 10
201.420522850202
 11
201.405345280109
 20
26.8228879500998
 21
27.2194019687914
 62
7
  0
LINE
  6
BYLAYER
  8
0
 10
201.153018177305
 11
201.134994812819
 20
31.8333832772026
 21
32.1990678566418
 62
7
  0
LINE
  6
BYLAYER
  8
0
 10
201.229854625903
 11
201.158235467025
 20
30.314677669726
 21
31.7608155201933
 62
7
  0
LINE
  6
BYLAYER
  8
0
 10
201.155389672632
 11
201.127406027772
 20
31.774095894025
 21
32.293927669726
 62
7
  0
LINE
  6
BYLAYER
  8
0
 10
201.155389672632
 11
201.132623317492
 20
31.7845304734643
 21
32.2574066416886
 62
7
  0
LINE
  6
BYLAYER
  8
0
 10
201.446134999735
 11
201.425740139922
 20
26.2959416884175
 21
26.7640748659876
 62
7
  0
LINE
  6
BYLAYER
  8
0
 10
201.446134999735
 11
201.405345280109
 20
26.3030561743989
 21
27.2037500996325
 62
7
  0
LINE
  6
BYLAYER
  8
0
 10
201.229854625903
 11
201.158235467025
 20
30.314677669726
 21
31.7608155201933
 62
7
  0
LINE
  6
BYLAYER
  8
0
 10
201.155389672632
 11
201.132623317492
 20
31.774095894025
 21
32.2294229968288
 62
7
  0
LINE
  6
BYLAYER
  8
0
 10
201.155389672632
 11
201.132623317492
 20
31.8077711276699
 21
32.2574066416886
 62
7
  0
LINE
  6
BYLAYER
  8
0
 10
201.232700420296
 11
201.158235467025
 20
30.2838482304736
 21
31.7608155201933
 62
7
  0
LINE
  6
BYLAYER
  8
0
 10
201.155389672632
 11
201.127406027772
 20
31.774095894025
 21
32.293927669726
 62
7
  0
LINE
  6
BYLAYER
  8
0
 10
201.155389672632
 11
201.075707429641
 20
31.774095894025
 21
33.2482173893521
 62
7
  0
LINE
  6
BYLAYER
  8
0
 10
200.897845280109
 11
200.810574252071
 20
35.7629510342119
 21
37.2370725295391
 62
7
  0
LINE
  6
BYLAYER
  8
0
 10
200.897845280109
 11
200.810574252071
 20
35.7629510342119
 21
37.2370725295391
 62
7
  0
LINE
  6
BYLAYER
  8
0
 10
200.810574252071
 11
200.777373317492
 20
37.2546215949597
 21
37.7744533706606
 62
7
  0
LINE
  6
BYLAYER
  8
0
 10
200.810574252071
 11
200.715714438987
 20
37.2546215949597
 21
38.7273201930904
 62
7
  0
LINE
  6
BYLAYER
  8
0
 10
200.810574252071
 11
200.777373317492
 20
37.2546215949597
 21
37.7744533706606
 62
7
  0
LINE
  6
BYLAYER
  8
0
 10
200.810574252071
 11
200.780219111884
 20
37.2546215949597
 21
37.738880940754
 62
7
  0
LINE
  6
BYLAYER
  8
0
 10
200.897845280109
 11
200.810574252071
 20
35.7629510342119
 21
37.2370725295391
 62
7
  0
LINE
  6
BYLAYER
  8
0
 10
200.897845280109
 11
200.810574252071
 20
35.7956776697259
 21
37.2370725295391
 62
7
  0
LINE
  6
BYLAYER
  8
0
 10
200.689627990389
 11
200.414534532445
 20
38.8017851463615
 21
39.0175912211278
 62
7
  0
LINE
  6
BYLAYER
  8
0
 10
201.050095280109
 11
200.782116308146
 20
33.3255281370157
 21
33.5422828099129
 62
7
  0
LINE
  6
BYLAYER
  8
0
 10
201.050095280109
 11
200.782116308146
 20
33.3255281370157
 21
33.5422828099129
 62
7
  0
LINE
  6
BYLAYER
  8
0
 10
200.689627990389
 11
200.414534532445
 20
38.8017851463615
 21
39.0175912211278
 62
7
  0
LINE
  6
BYLAYER
  8
0
 10
200.689627990389
 11
200.414534532445
 20
38.8017851463615
 21
39.0175912211278
 62
7
  0
LINE
  6
BYLAYER
  8
0
 10
201.050095280109
 11
200.782116308146
 20
33.3255281370157
 21
33.5422828099129
 62
7
  0
LINE
  6
BYLAYER
  8
0
 10
201.675221448333
 11
201.647237803473
 20
20.8144673893521
 21
21.7127898192587
 62
7
  0
LINE
  6
BYLAYER
  8
0
 10
201.639174719361
 11
201.629214438987
 20
21.8465421557073
 21
22.1548365482307
 62
7
  0
LINE
  6
BYLAYER
  8
0
 10
201.675221448333
 11
201.623997149268
 20
20.8144673893521
 21
22.28953748281
 62
7
  0
LINE
  6
BYLAYER
  8
0
 10
201.721702756744
 11
201.678067242726
 20
19.3294370155204
 21
20.8045071089783
 62
7
  0
LINE
  6
BYLAYER
  8
0
 10
201.446134999735
 11
201.405345280109
 20
26.2959416884175
 21
27.1909440248662
 62
7
  0
LINE
  6
BYLAYER
  8
0
 10
201.446134999735
 11
201.379733130576
 20
26.2959416884175
 21
27.7700631837446
 62
7
  0
LINE
  6
BYLAYER
  8
0
 10
201.505422382912
 11
201.446134999735
 20
24.8056940248661
 21
26.2826613145858
 62
7
  0
LINE
  6
BYLAYER
  8
0
 10
201.675221448333
 11
201.659569579174
 20
20.8144673893521
 21
21.2826005669222
 62
7
  0
LINE
  6
BYLAYER
  8
0
 10
201.675221448333
 11
201.659569579174
 20
20.8225304734643
 21
21.2470281370157
 62
7
  0
LINE
  6
BYLAYER
  8
0
 10
201.659569579174
 11
201.647237803473
 20
21.3342991650531
 21
21.725595894025
 62
7
  0
LINE
  6
BYLAYER
  8
0
 10
201.675221448333
 11
201.659569579174
 20
20.848142622997
 21
21.2470281370157
 62
7
  0
LINE
  6
BYLAYER
  8
0
 10
201.659569579174
 11
201.647237803473
 20
21.3447337444924
 21
21.7412477631839
 62
7
  0
LINE
  6
BYLAYER
  8
0
 10
201.598384999735
 11
201.337994812819
 20
22.376334211782
 21
22.585025800567
 62
7
  0
LINE
  6
BYLAYER
  8
0
 10
201.353646681978
 11
201.088513504408
 20
27.8525912211278
 21
28.0631800061745
 62
7
  0
LINE
  6
BYLAYER
  8
0
 10
201.598384999735
 11
201.337994812819
 20
22.376334211782
 21
22.585025800567
 62
7
  0
LINE
  6
BYLAYER
  8
0
 10
201.142583597866
 11
201.330406027772
 20
22.8473131837447
 21
22.5878715949596
 62
7
  0
LINE
  6
BYLAYER
  8
0
 10
201.464632663286
 11
201.291987803473
 20
19.021142622997
 21
18.7484206603802
 62
7
  0
LINE
  6
BYLAYER
  8
0
 10
200.890730794127
 11
201.083296214688
 20
28.3235701930904
 21
28.0660258005671
 62
7
  0
LINE
  6
BYLAYER
  8
0
 10
201.253095280109
 11
201.083296214688
 20
24.4992968286045
 21
24.2265748659877
 62
7
  0
LINE
  6
BYLAYER
  8
0
 10
185.464153691324
 11
185.775293878239
 20
-59.0845302741992
 21
-58.9711727975638
 62
7
  0
LINE
  6
BYLAYER
  8
0
 10
199.318429392258
 11
199.428941074501
 20
-45.3198970966292
 21
-45.052392423732
 62
7
  0
LINE
  6
BYLAYER
  8
0
 10
199.474948083847
 11
198.988791541791
 20
48.3019954267354
 21
48.7544767351465
 62
7
  0
LINE
  6
BYLAYER
  8
0
 10
199.436055560482
 11
199.4673592988
 20
-44.9594298069096
 21
-44.6255232648534
 62
7
  0
LINE
  6
BYLAYER
  8
0
 10
199.469730794127
 11
201.567555560483
 20
-44.5894765358815
 21
1.75760523981948
 62
7
  0
LINE
  6
BYLAYER
  8
0
 10
201.567555560483
 11
199.492971448333
 20
1.75760523981948
 21
48.1037384173896
 62
7
  0
LINE
  6
BYLAYER
  8
0
 10
198.988791541791
 11
197.931104625903
 20
48.7544767351465
 21
48.772974398698
 62
7
  0
LINE
  6
BYLAYER
  8
0
 10
185.365973784782
 11
185.849758831511
 20
-59.0925933583114
 21
-58.9066681246666
 62
7
  0
LINE
  6
BYLAYER
  8
0
 10
185.849758831511
 11
192.867013504408
 20
-58.9066681246666
 21
-52.4580980312087
 62
7
  0
LINE
  6
BYLAYER
  8
0
 10
192.867013504408
 11
199.259142009081
 20
-52.4580980312087
 21
-45.3924648536385
 62
7
  0
LINE
  6
BYLAYER
  8
0
 10
199.259142009081
 11
199.436055560482
 20
-45.3924648536385
 21
-44.9594298069096
 62
7
  0
LINE
  6
BYLAYER
  8
0
 10
185.139258831511
 11
185.139258831511
 20
-58.8658784050404
 21
-57.5511213956946
 62
7
  0
LINE
  6
BYLAYER
  8
0
 10
197.9956092988
 11
197.931104625903
 20
48.0752804734643
 21
48.772974398698
 62
7
  0
LINE
  6
BYLAYER
  8
0
 10
185.139258831511
 11
197.91592705581
 20
-57.5511213956946
 21
-44.6743760685918
 62
7
  0
LINE
  6
BYLAYER
  8
0
 10
185.139258831511
 11
197.969997149268
 20
-57.5511213956946
 21
-44.6098713956946
 62
7
  0
LINE
  6
BYLAYER
  8
0
 10
197.969997149268
 11
200.074462102539
 20
-44.6098713956946
 21
1.74432486598762
 62
7
  0
LINE
  6
BYLAYER
  8
0
 10
200.074462102539
 11
197.9956092988
 20
1.74432486598762
 21
48.0985211276699
 62
7
  0
LINE
  6
BYLAYER
  8
0
 10
197.9956092988
 11
197.931104625903
 20
48.0985211276699
 21
48.772974398698
 62
7
  0
LINE
  6
BYLAYER
  8
0
 10
197.931104625903
 11
196.964008831511
 20
48.772974398698
 21
48.4329019687914
 62
7
  0
LINE
  6
BYLAYER
  8
0
 10
196.477377990389
 11
196.964008831511
 20
48.2607314080437
 21
48.4329019687914
 62
7
  0
LINE
  6
BYLAYER
  8
0
 10
185.139258831511
 11
185.139258831511
 20
-57.5511213956946
 21
-56.2458503676572
 62
7
  0
LINE
  6
BYLAYER
  8
0
 10
185.139258831511
 11
197.004798551137
 20
-56.2458503676572
 21
-44.2114601807413
 62
7
  0
LINE
  6
BYLAYER
  8
0
 10
197.004798551137
 11
199.076536868894
 20
-44.2114601807413
 21
1.77515430523995
 62
7
  0
LINE
  6
BYLAYER
  8
0
 10
199.076536868894
 11
197.022821915623
 20
1.77515430523995
 21
47.7617687912213
 62
7
  0
LINE
  6
BYLAYER
  8
0
 10
197.022821915623
 11
196.964008831511
 20
47.7617687912213
 21
48.4329019687914
 62
7
  0
LINE
  6
BYLAYER
  8
0
 10
185.139258831511
 11
185.139258831511
 20
-56.2458503676572
 21
-55.5898947601805
 62
7
  0
LINE
  6
BYLAYER
  8
0
 10
196.552317242726
 11
198.579945747398
 20
-43.7015886854143
 21
1.92693000617457
 62
7
  0
LINE
  6
BYLAYER
  8
0
 10
198.579945747398
 11
196.544254158613
 20
1.92693000617457
 21
47.5554486977634
 62
7
  0
LINE
  6
BYLAYER
  8
0
 10
172.312314906277
 11
174.440020513754
 20
-45.6936447601805
 21
-47.7160559751339
 62
7
  0
LINE
  6
BYLAYER
  8
0
 10
195.952328924968
 11
197.0821092988
 20
41.1097243986979
 21
41.0684603800063
 62
7
  0
LINE
  6
BYLAYER
  8
0
 10
197.421707429641
 11
197.0821092988
 20
36.3515561743989
 21
41.0684603800063
 62
7
  0
LINE
  6
BYLAYER
  8
0
 10
172.057142009081
 11
172.312314906277
 20
-45.4512779377507
 21
-45.6936447601805
 62
7
  0
LINE
  6
BYLAYER
  8
0
 10
197.0821092988
 11
197.02519341095
 20
41.0684603800063
 21
41.7713715949596
 62
7
  0
LINE
  6
BYLAYER
  8
0
 10
197.02519341095
 11
196.479749485716
 20
41.7713715949596
 21
48.2607314080437
 62
7
  0
LINE
  6
BYLAYER
  8
0
 10
192.123312569828
 11
192.509392009081
 20
44.7532898192586
 21
43.348415987483
 62
7
  0
LINE
  6
BYLAYER
  8
0
 10
192.509392009081
 11
193.345581261417
 20
43.348415987483
 21
42.2058295388848
 62
7
  0
LINE
  6
BYLAYER
  8
0
 10
193.345581261417
 11
194.526585934314
 20
42.2058295388848
 21
41.4260818753334
 62
7
  0
LINE
  6
BYLAYER
  8
0
 10
194.526585934314
 11
195.952328924968
 20
41.4260818753334
 21
41.1097243986979
 62
7
  0
LINE
  6
BYLAYER
  8
0
 10
192.110506495062
 11
192.110506495062
 20
45.3608669220624
 21
46.5826613145858
 62
7
  0
LINE
  6
BYLAYER
  8
0
 10
172.12449247637
 11
171.900623317492
 20
36.0532220622493
 21
35.6386846790718
 62
7
  0
LINE
  6
BYLAYER
  8
0
 10
170.904595280109
 11
171.900623317492
 20
34.8926122491652
 21
34.9111099127167
 62
7
  0
LINE
  6
BYLAYER
  8
0
 10
171.900623317492
 11
171.900623317492
 20
-44.8109741994329
 21
-45.0912849470965
 62
7
  0
LINE
  6
BYLAYER
  8
0
 10
195.82379387824
 11
196.479749485716
 20
48.0188388846792
 21
48.2607314080437
 62
7
  0
LINE
  6
BYLAYER
  8
0
 10
192.110506495062
 11
192.615160700669
 20
46.5826613145858
 21
46.7861356136512
 62
7
  0
LINE
  6
BYLAYER
  8
0
 10
192.110506495062
 11
181.859006495062
 20
46.5826613145858
 21
41.8093155201933
 62
7
  0
LINE
  6
BYLAYER
  8
0
 10
181.859006495062
 11
172.12449247637
 20
41.8093155201933
 21
36.0532220622493
 62
7
  0
LINE
  6
BYLAYER
  8
0
 10
192.110506495062
 11
192.110506495062
 20
45.0881449594456
 21
45.3608669220624
 62
7
  0
LINE
  6
BYLAYER
  8
0
 10
192.110506495062
 11
192.123312569828
 20
45.0881449594456
 21
44.7532898192586
 62
7
  0
LINE
  6
BYLAYER
  8
0
 10
192.468127990389
 11
192.123312569828
 20
40.4661005669222
 21
44.7532898192586
 62
7
  0
LINE
  6
BYLAYER
  8
0
 10
192.468127990389
 11
192.972782195997
 20
40.4661005669222
 21
38.7368061743989
 62
7
  0
LINE
  6
BYLAYER
  8
0
 10
192.972782195997
 11
194.084064906277
 20
38.7368061743989
 21
37.3760421557073
 62
7
  0
LINE
  6
BYLAYER
  8
0
 10
194.084064906277
 11
195.625536868894
 20
37.3760421557073
 21
36.5322641183241
 62
7
  0
LINE
  6
BYLAYER
  8
0
 10
195.625536868894
 11
197.421707429641
 20
36.5322641183241
 21
36.3515561743989
 62
7
  0
LINE
  6
BYLAYER
  8
0
 10
196.552317242726
 11
198.549116308146
 20
-43.7015886854143
 21
-3.6901938256011
 62
7
  0
LINE
  6
BYLAYER
  8
0
 10
198.549116308146
 11
197.421707429641
 20
-3.6901938256011
 21
36.3515561743989
 62
7
  0
LINE
  6
BYLAYER
  8
0
 10
196.323230794127
 11
196.552317242726
 20
-44.2546213956946
 21
-43.7015886854143
 62
7
  0
LINE
  6
BYLAYER
  8
0
 10
185.139258831511
 11
196.323230794127
 20
-55.5898947601805
 21
-44.2546213956946
 62
7
  0
LINE
  6
BYLAYER
  8
0
 10
184.825747149268
 11
185.139258831511
 20
-57.4093059751338
 21
-57.4244835452273
 62
7
  0
LINE
  6
BYLAYER
  8
0
 10
170.904595280109
 11
170.904595280109
 20
-44.2935139190591
 21
-42.816072330274
 62
7
  0
LINE
  6
BYLAYER
  8
0
 10
170.904595280109
 11
170.904595280109
 20
33.4184907538381
 21
-42.816072330274
 62
7
  0
LINE
  6
BYLAYER
  8
0
 10
170.904595280109
 11
170.904595280109
 20
33.4184907538381
 21
34.8926122491652
 62
7
  0
LINE
  6
BYLAYER
  8
0
 10
170.904595280109
 11
171.900623317492
 20
-44.2935139190591
 21
-44.3086914891525
 62
7
  0
LINE
  6
BYLAYER
  8
0
 10
171.900623317492
 11
171.900623317492
 20
34.0104159874829
 21
35.6386846790718
 62
7
  0
LINE
  6
BYLAYER
  8
0
 10
171.900623317492
 11
171.900623317492
 20
-43.470130741489
 21
34.0104159874829
 62
7
  0
LINE
  6
BYLAYER
  8
0
 10
171.900623317492
 11
171.900623317492
 20
-45.0912849470965
 21
-43.470130741489
 62
7
  0
LINE
  6
BYLAYER
  8
0
 10
169.41197612123
 11
169.71031023338
 20
-43.5313153209282
 21
-43.3544017695264
 62
7
  0
LINE
  6
BYLAYER
  8
0
 10
171.900623317492
 11
169.41197612123
 20
-44.8109741994329
 21
-44.7644928910217
 62
7
  0
LINE
  6
BYLAYER
  8
0
 10
169.41197612123
 11
169.41197612123
 20
-44.7644928910217
 21
-43.5313153209282
 62
7
  0
LINE
  6
BYLAYER
  8
0
 10
184.511761167959
 11
184.825747149268
 20
-57.2731821433582
 21
-57.4093059751338
 62
7
  0
LINE
  6
BYLAYER
  8
0
 10
171.900623317492
 11
172.057142009081
 20
-45.0912849470965
 21
-45.4512779377507
 62
7
  0
LINE
  6
BYLAYER
  8
0
 10
185.139258831511
 11
185.139258831511
 20
-56.2486961620498
 21
-55.5898947601805
 62
7
  0
LINE
  6
BYLAYER
  8
0
 10
185.139258831511
 11
185.139258831511
 20
-57.0853597134516
 21
-56.2486961620498
 62
7
  0
LINE
  6
BYLAYER
  8
0
 10
185.139258831511
 11
185.139258831511
 20
-57.4244835452273
 21
-57.0853597134516
 62
7
  0
LINE
  6
BYLAYER
  8
0
 10
170.904595280109
 11
170.904595280109
 20
-0.931670461115104
 21
10.1327781370157
 62
7
  0
LINE
  6
BYLAYER
  8
0
 10
170.904595280109
 11
169.71031023338
 20
-43.3340069097133
 21
-43.3544017695264
 62
7
  0
LINE
  6
BYLAYER
  8
0
 10
183.647588270763
 11
184.511761167959
 20
-56.4550162555077
 21
-57.2731821433582
 62
7
  0
LINE
  6
BYLAYER
  8
0
 10
172.057142009081
 11
184.511761167959
 20
-45.4512779377507
 21
-57.2731821433582
 62
7
  0
LINE
  6
BYLAYER
  8
0
 10
171.900623317492
 11
171.900623317492
 20
-44.3086914891525
 21
-45.0912849470965
 62
7
  0
LINE
  6
BYLAYER
  8
0
 10
170.904595280109
 11
170.904595280109
 20
-29.9606704611152
 21
-27.4724975639189
 62
7
  0
LINE
  6
BYLAYER
  8
0
 10
170.904595280109
 11
170.904595280109
 20
-27.4724975639189
 21
-18.4992335452273
 62
7
  0
LINE
  6
BYLAYER
  8
0
 10
170.904595280109
 11
170.904595280109
 20
-17.0815536386853
 21
-18.4992335452273
 62
7
  0
LINE
  6
BYLAYER
  8
0
 10
170.904595280109
 11
170.904595280109
 20
8.64063327720258
 21
7.70673841738956
 62
7
  0
LINE
  6
BYLAYER
  8
0
 10
170.904595280109
 11
170.904595280109
 20
8.64063327720258
 21
9.63666131458577
 62
7
  0
LINE
  6
BYLAYER
  8
0
 10
170.904595280109
 11
170.904595280109
 20
10.1327781370157
 21
9.63666131458577
 62
7
  0
LINE
  6
BYLAYER
  8
0
 10
-4.59839654232112
 11
-4.59839654232112
 20
-24.9269344798067
 21
28.6911519687914
 62
7
  0
LINE
  6
BYLAYER
  8
0
 10
-4.59839654232112
 11
90.0190497193611
 20
28.6911519687914
 21
28.6911519687914
 62
7
  0
LINE
  6
BYLAYER
  8
0
 10
90.0190497193611
 11
90.0190497193611
 20
28.6911519687914
 21
-24.9269344798067
 62
7
  0
LINE
  6
BYLAYER
  8
0
 10
90.0190497193611
 11
-4.59839654232112
 20
-24.9269344798067
 21
-24.9269344798067
 62
7
  0
LINE
  6
BYLAYER
  8
0
 10
-4.59839654232112
 11
-4.59839654232112
 20
-24.9269344798067
 21
-24.9269344798067
 62
7
  0
LINE
  6
BYLAYER
  8
0
 10
-4.59839654232112
 11
-4.59839654232112
 20
-24.9269344798067
 21
28.6911519687914
 62
7
  0
LINE
  6
BYLAYER
  8
0
 10
-4.59839654232112
 11
90.0190497193611
 20
28.6911519687914
 21
28.6911519687914
 62
7
  0
LINE
  6
BYLAYER
  8
0
 10
90.0190497193611
 11
90.0190497193611
 20
28.6911519687914
 21
-24.9269344798067
 62
7
  0
LINE
  6
BYLAYER
  8
0
 10
90.0190497193611
 11
-4.59839654232112
 20
-24.9269344798067
 21
-24.9269344798067
 62
7
  0
LINE
  6
BYLAYER
  8
0
 10
-4.59839654232112
 11
-4.59839654232112
 20
-24.9269344798067
 21
-24.9269344798067
 62
7
  0
LINE
  6
BYLAYER
  8
0
 10
-33.9675222432558
 11
-33.5453960750315
 20
-58.7861961620497
 21
-58.9066681246666
 62
7
  0
LINE
  6
BYLAYER
  8
0
 10
-33.9675222432558
 11
-36.8929988787698
 20
-58.7861961620497
 21
-52.1801587788722
 62
7
  0
LINE
  6
BYLAYER
  8
0
 10
-38.7125049535361
 11
-38.7768673367137
 20
-45.0063854143861
 21
-44.6691587788721
 62
7
  0
LINE
  6
BYLAYER
  8
0
 10
-33.9262582245642
 11
-33.5041320563398
 20
-58.8658784050404
 21
-59.0997078442928
 62
7
  0
LINE
  6
BYLAYER
  8
0
 10
-34.7036343927884
 11
-33.9262582245642
 20
-57.5511213956946
 21
-58.8658784050404
 62
7
  0
LINE
  6
BYLAYER
  8
0
 10
-34.7036343927884
 11
-37.2098306544707
 20
-57.5511213956946
 21
-51.2590699938255
 62
7
  0
LINE
  6
BYLAYER
  8
0
 10
-37.2098306544707
 11
-38.78967341148
 20
-51.2590699938255
 21
-44.6958534651401
 62
7
  0
LINE
  6
BYLAYER
  8
0
 10
118.968847616557
 11
119.390973784782
 20
-58.9066681246666
 21
-58.7861961620497
 62
7
  0
LINE
  6
BYLAYER
  8
0
 10
118.930429392258
 11
119.34970976609
 20
-59.0925933583114
 21
-58.8578153209283
 62
7
  0
LINE
  6
BYLAYER
  8
0
 10
124.228824252071
 11
124.228824252071
 20
-44.5453667227974
 21
48.0752804734643
 62
7
  0
LINE
  6
BYLAYER
  8
0
 10
124.21032658852
 11
124.21032658852
 20
-44.5434695265357
 21
48.0601029033708
 62
7
  0
LINE
  6
BYLAYER
  8
0
 10
124.133490139922
 11
124.197994812819
 20
-45.0063854143861
 21
-44.6691587788721
 62
7
  0
LINE
  6
BYLAYER
  8
0
 10
119.390973784782
 11
122.311233130576
 20
-58.7861961620497
 21
-52.1801587788722
 62
7
  0
LINE
  6
BYLAYER
  8
0
 10
122.311233130576
 11
124.105032195997
 20
-52.1801587788722
 21
-45.1738129844796
 62
7
  0
LINE
  6
BYLAYER
  8
0
 10
-33.5453960750315
 11
118.968847616557
 20
-58.9066681246666
 21
-58.9066681246666
 62
7
  0
LINE
  6
BYLAYER
  8
0
 10
123.616029859548
 11
-37.9341615900423
 20
-45.3924648536385
 21
-45.3924648536385
 62
7
  0
LINE
  6
BYLAYER
  8
0
 10
118.930429392258
 11
119.34970976609
 20
-59.0997078442928
 21
-58.8658784050404
 62
7
  0
LINE
  6
BYLAYER
  8
0
 10
119.34970976609
 11
120.124240139922
 20
-58.8658784050404
 21
-57.5511213956946
 62
7
  0
LINE
  6
BYLAYER
  8
0
 10
120.124240139922
 11
122.630910700669
 20
-57.5511213956946
 21
-51.2590699938255
 62
7
  0
LINE
  6
BYLAYER
  8
0
 10
122.630910700669
 11
124.218389672632
 20
-51.2590699938255
 21
-44.6743760685918
 62
7
  0
LINE
  6
BYLAYER
  8
0
 10
96.634573083847
 11
98.292248317492
 20
-32.31746251719
 21
-32.1324858816759
 62
7
  0
LINE
  6
BYLAYER
  8
0
 10
98.292248317492
 11
99.810479625903
 20
-32.1324858816759
 21
-31.5377148536385
 62
7
  0
LINE
  6
BYLAYER
  8
0
 10
99.810479625903
 11
100.916545046464
 20
-31.5377148536385
 21
-30.4572615826105
 62
7
  0
LINE
  6
BYLAYER
  8
0
 10
100.916545046464
 11
101.3467342988
 20
-30.4572615826105
 21
-28.8256727975637
 62
7
  0
LINE
  6
BYLAYER
  8
0
 10
101.3467342988
 11
101.3467342988
 20
32.589415987483
 21
-28.8228270031712
 62
7
  0
LINE
  6
BYLAYER
  8
0
 10
-15.9289269161529
 11
-15.9289269161529
 20
-28.8256727975637
 21
32.5922617818755
 62
7
  0
LINE
  6
BYLAYER
  8
0
 10
-15.9289269161529
 11
-15.5039549535361
 20
-28.8256727975637
 21
-30.4468270031713
 62
7
  0
LINE
  6
BYLAYER
  8
0
 10
-15.5039549535361
 11
-14.3945694395174
 20
-30.4468270031713
 21
-31.5429321433582
 62
7
  0
LINE
  6
BYLAYER
  8
0
 10
-14.3945694395174
 11
-12.8768124301716
 20
-31.5429321433582
 21
-32.152880741489
 62
7
  0
LINE
  6
BYLAYER
  8
0
 10
-12.8768124301716
 11
-11.2167657011996
 20
-32.152880741489
 21
-32.31746251719
 62
7
  0
LINE
  6
BYLAYER
  8
0
 10
-11.2167657011996
 11
-12.8768124301716
 20
36.0816800061746
 21
35.9019206603802
 62
7
  0
LINE
  6
BYLAYER
  8
0
 10
-12.8768124301716
 11
-14.3945694395174
 20
35.9019206603802
 21
35.3066753332773
 62
7
  0
LINE
  6
BYLAYER
  8
0
 10
-14.3945694395174
 11
-15.5039549535361
 20
35.3066753332773
 21
34.2266963613147
 62
7
  0
LINE
  6
BYLAYER
  8
0
 10
-15.5039549535361
 11
-15.9289269161529
 20
34.2266963613147
 21
32.5922617818755
 62
7
  0
LINE
  6
BYLAYER
  8
0
 10
101.3467342988
 11
100.916545046464
 20
32.5922617818755
 21
34.2157874828101
 62
7
  0
LINE
  6
BYLAYER
  8
0
 10
100.916545046464
 11
99.807633831511
 20
34.2157874828101
 21
35.3147384173895
 62
7
  0
LINE
  6
BYLAYER
  8
0
 10
99.807633831511
 11
98.292248317492
 20
35.3147384173895
 21
35.9246870155203
 62
7
  0
LINE
  6
BYLAYER
  8
0
 10
98.292248317492
 11
96.63220158852
 20
35.9246870155203
 21
36.0816800061746
 62
7
  0
LINE
  6
BYLAYER
  8
0
 10
-11.2167657011996
 11
96.63220158852
 20
36.0816800061746
 21
36.0816800061746
 62
7
  0
LINE
  6
BYLAYER
  8
0
 10
-11.2167657011996
 11
96.634573083847
 20
-32.31746251719
 21
-32.31746251719
 62
7
  0
LINE
  6
BYLAYER
  8
0
 10
89.6230099997349
 11
90.0783371025387
 20
-26.0391657882179
 21
-25.9746611153208
 62
7
  0
LINE
  6
BYLAYER
  8
0
 10
90.0783371025387
 11
90.749944579174
 20
-25.9746611153208
 21
-25.6345886854142
 62
7
  0
LINE
  6
BYLAYER
  8
0
 10
90.749944579174
 11
91.141241308146
 20
-25.6345886854142
 21
-24.9890676573768
 62
7
  0
LINE
  6
BYLAYER
  8
0
 10
91.141241308146
 11
91.205271681978
 20
-24.9890676573768
 21
-24.5152428910217
 62
7
  0
LINE
  6
BYLAYER
  8
0
 10
91.202425887585
 11
91.205271681978
 20
28.2794603800064
 21
-24.5152428910217
 62
7
  0
LINE
  6
BYLAYER
  8
0
 10
91.205271681978
 11
91.141241308146
 20
28.2818318753334
 21
28.752810847296
 62
7
  0
LINE
  6
BYLAYER
  8
0
 10
91.141241308146
 11
90.749944579174
 20
28.752810847296
 21
29.401177669726
 62
7
  0
LINE
  6
BYLAYER
  8
0
 10
90.749944579174
 11
90.0783371025387
 20
29.401177669726
 21
29.7412500996326
 62
7
  0
LINE
  6
BYLAYER
  8
0
 10
90.0783371025387
 11
89.6230099997349
 20
29.7412500996326
 21
29.8057547725297
 62
7
  0
LINE
  6
BYLAYER
  8
0
 10
-4.20520261708745
 11
89.6230099997349
 20
29.8057547725297
 21
29.8057547725297
 62
7
  0
LINE
  6
BYLAYER
  8
0
 10
-4.20520261708745
 11
-4.6605297198912
 20
29.8057547725297
 21
29.7412500996326
 62
7
  0
LINE
  6
BYLAYER
  8
0
 10
-4.6605297198912
 11
-5.33498299091925
 20
29.7412500996326
 21
29.401177669726
 62
7
  0
LINE
  6
BYLAYER
  8
0
 10
-5.33498299091925
 11
-5.72295962643323
 20
29.401177669726
 21
28.7556566416886
 62
7
  0
LINE
  6
BYLAYER
  8
0
 10
-5.72295962643323
 11
-5.78746429933042
 20
28.752810847296
 21
28.2818318753334
 62
7
  0
LINE
  6
BYLAYER
  8
0
 10
-5.78746429933042
 11
-5.78746429933042
 20
-24.5152428910217
 21
28.2818318753334
 62
7
  0
LINE
  6
BYLAYER
  8
0
 10
-5.78746429933042
 11
-5.72295962643323
 20
-24.5152428910217
 21
-24.9890676573768
 62
7
  0
LINE
  6
BYLAYER
  8
0
 10
-5.72295962643323
 11
-5.33498299091925
 20
-24.9890676573768
 21
-25.6345886854142
 62
7
  0
LINE
  6
BYLAYER
  8
0
 10
-5.33498299091925
 11
-4.6605297198912
 20
-25.6345886854142
 21
-25.9746611153208
 62
7
  0
LINE
  6
BYLAYER
  8
0
 10
-4.6605297198912
 11
-4.20520261708745
 20
-25.9746611153208
 21
-26.0391657882179
 62
7
  0
LINE
  6
BYLAYER
  8
0
 10
-4.20520261708745
 11
89.6230099997349
 20
-26.0391657882179
 21
-26.0391657882179
 62
7
  0
LINE
  6
BYLAYER
  8
0
 10
120.124240139922
 11
122.646088270763
 20
-57.5511213956946
 21
-51.2310863489656
 62
7
  0
LINE
  6
BYLAYER
  8
0
 10
122.646088270763
 11
124.228824252071
 20
-51.2310863489656
 21
-44.6098713956946
 62
7
  0
LINE
  6
BYLAYER
  8
0
 10
124.228824252071
 11
124.030567242726
 20
48.0985211276699
 21
48.5775631837447
 62
7
  0
LINE
  6
BYLAYER
  8
0
 10
124.030567242726
 11
123.551525186651
 20
48.5775631837447
 21
48.772974398698
 62
7
  0
LINE
  6
BYLAYER
  8
0
 10
124.228824252071
 11
124.228824252071
 20
-44.6098713956946
 21
48.0985211276699
 62
7
  0
LINE
  6
BYLAYER
  8
0
 10
-34.7036343927884
 11
-37.2302255142838
 20
-57.5511213956946
 21
-51.2334578442927
 62
7
  0
LINE
  6
BYLAYER
  8
0
 10
-38.11237434606
 11
123.551525186651
 20
48.772974398698
 21
48.772974398698
 62
7
  0
LINE
  6
CONTINUOUS
  8
0
 10
-38.78967341148
 11
-38.78967341148
 20
48.0985211276698
 21
-44.6958534651401
 62
256
  0
LINE
  6
BYLAYER
  8
0
 10
118.930429392258
 11
-33.5041320563398
 20
-59.0997078442928
 21
-59.0997078442928
 62
7
  0
LINE
  6
BYLAYER
  8
0
 10
-38.78967341148
 11
-38.5914164021349
 20
48.0985211276699
 21
48.5775631837447
 62
7
  0
LINE
  6
BYLAYER
  8
0
 10
-38.5914164021349
 11
-38.11237434606
 20
48.5775631837447
 21
48.772974398698
 62
7
  0
LINE
  6
CONTINUOUS
  8
0
 10
-34.7032075236296
 11
119.875551357699
 20
86.2933505669223
 21
86.2933505669223
 62
256
  0
LINE
  6
BYLAYER
  8
0
 10
44.5165289893196
 11
45.3100313257676
 20
88.0714977631839
 21
88.0714977631839
 62
7
  0
LINE
  6
BYLAYER
  8
0
 10
45.3100313257676
 11
45.3100313257676
 20
88.0714977631839
 21
94.0927243986979
 62
7
  0
LINE
  6
BYLAYER
  8
0
 10
45.3100313257676
 11
44.6094916061415
 20
94.0927243986979
 21
94.0927243986979
 62
7
  0
LINE
  6
BYLAYER
  8
0
 10
44.6094916061415
 11
43.3027976809086
 20
94.0927243986979
 21
93.3926589781372
 62
7
  0
LINE
  6
BYLAYER
  8
0
 10
43.3027976809086
 11
43.4569448771695
 20
93.3926589781372
 21
92.7651613145858
 62
7
  0
LINE
  6
BYLAYER
  8
0
 10
43.4569448771695
 11
44.5070430080116
 20
92.7651613145858
 21
93.3310000996325
 62
7
  0
LINE
  6
BYLAYER
  8
0
 10
44.5070430080116
 11
44.5165289893196
 20
93.3310000996325
 21
93.3310000996325
 62
7
  0
LINE
  6
BYLAYER
  8
0
 10
44.5165289893196
 11
44.5165289893196
 20
93.3310000996325
 21
88.0714977631839
 62
7
  0
LINE
  6
BYLAYER
  8
0
 10
44.5165289893196
 11
44.5165289893196
 20
88.0714977631839
 21
88.0714977631839
 62
7
  0
LINE
  6
BYLAYER
  8
0
 10
51.4742637224136
 11
52.1126702644706
 20
88.3802664547727
 21
88.1023272024362
 62
7
  0
LINE
  6
BYLAYER
  8
0
 10
52.1126702644706
 11
53.0389763392366
 20
88.1023272024362
 21
87.9685748659876
 62
7
  0
LINE
  6
BYLAYER
  8
0
 10
53.0389763392366
 11
54.6705651242836
 20
87.9685748659876
 21
88.5111729968288
 62
7
  0
LINE
  6
BYLAYER
  8
0
 10
54.6705651242836
 11
55.2311866196106
 20
88.5111729968288
 21
89.7799229968288
 62
7
  0
LINE
  6
BYLAYER
  8
0
 10
55.2311866196106
 11
54.8398898906386
 20
89.7799229968288
 21
90.8063061743989
 62
7
  0
LINE
  6
BYLAYER
  8
0
 10
54.8398898906386
 11
53.8931889560586
 20
90.8063061743989
 21
91.3138061743989
 62
7
  0
LINE
  6
BYLAYER
  8
0
 10
53.8931889560586
 11
53.8931889560586
 20
91.3138061743989
 21
91.3342010342119
 62
7
  0
LINE
  6
BYLAYER
  8
0
 10
53.8931889560586
 11
54.7217894233486
 20
91.3342010342119
 21
91.9104743986979
 62
7
  0
LINE
  6
BYLAYER
  8
0
 10
54.7217894233486
 11
55.0044716663396
 20
91.9104743986979
 21
92.7542524360811
 62
7
  0
LINE
  6
BYLAYER
  8
0
 10
55.0044716663396
 11
54.5828197971806
 20
92.7542524360811
 21
93.7502804734643
 62
7
  0
LINE
  6
BYLAYER
  8
0
 10
54.5828197971806
 11
53.2751772738156
 20
93.7502804734643
 21
94.1956472958942
 62
7
  0
LINE
  6
BYLAYER
  8
0
 10
53.2751772738156
 11
52.3621515728816
 20
94.1956472958942
 21
94.0486145856139
 62
7
  0
LINE
  6
BYLAYER
  8
0
 10
52.3621515728816
 11
51.6905440962456
 20
94.0486145856139
 21
93.7327314080437
 62
7
  0
LINE
  6
BYLAYER
  8
0
 10
51.6905440962456
 11
51.9167847504516
 20
93.7327314080437
 21
93.1351145856138
 62
7
  0
LINE
  6
BYLAYER
  8
0
 10
51.9167847504516
 11
53.1210300775546
 20
93.1351145856138
 21
93.536845894025
 62
7
  0
LINE
  6
BYLAYER
  8
0
 10
53.1210300775546
 11
53.9316071803576
 20
93.536845894025
 21
93.2669697258007
 62
7
  0
LINE
  6
BYLAYER
  8
0
 10
53.9316071803576
 11
54.1810884887696
 20
93.2669697258007
 21
92.6314089781372
 62
7
  0
LINE
  6
BYLAYER
  8
0
 10
54.1810884887696
 11
53.7309786756846
 20
92.6314089781372
 21
91.8511870155204
 62
7
  0
LINE
  6
BYLAYER
  8
0
 10
53.7309786756846
 11
52.8326562457786
 20
91.8511870155204
 21
91.6121402865484
 62
7
  0
LINE
  6
BYLAYER
  8
0
 10
52.8326562457786
 11
52.3801749373676
 20
91.6121402865484
 21
91.6121402865484
 62
7
  0
LINE
  6
BYLAYER
  8
0
 10
52.3801749373676
 11
52.3801749373676
 20
91.6121402865484
 21
90.9941286043054
 62
7
  0
LINE
  6
BYLAYER
  8
0
 10
52.3801749373676
 11
52.8326562457786
 20
90.9941286043054
 21
90.9941286043054
 62
7
  0
LINE
  6
BYLAYER
  8
0
 10
52.8326562457786
 11
53.9031492364326
 20
90.9941286043054
 21
90.7090748659877
 62
7
  0
LINE
  6
BYLAYER
  8
0
 10
53.9031492364326
 11
54.3874085822276
 20
90.7090748659877
 21
89.7898832772027
 62
7
  0
LINE
  6
BYLAYER
  8
0
 10
54.3874085822276
 11
54.1014062457786
 20
89.7898832772027
 21
89.0205701930905
 62
7
  0
LINE
  6
BYLAYER
  8
0
 10
54.1014062457786
 11
53.0285417597976
 20
89.0205701930905
 21
88.6273762678568
 62
7
  0
LINE
  6
BYLAYER
  8
0
 10
53.0285417597976
 11
52.2307707317596
 20
88.6273762678568
 21
88.7582828099129
 62
7
  0
LINE
  6
BYLAYER
  8
0
 10
52.2307707317596
 11
51.6905440962456
 20
88.7582828099129
 21
88.9973295388849
 62
7
  0
LINE
  6
BYLAYER
  8
0
 10
51.6905440962456
 11
51.4742637224136
 20
88.9973295388849
 21
88.3802664547727
 62
7
  0
LINE
  6
BYLAYER
  8
0
 10
51.4742637224136
 11
51.4742637224136
 20
88.3802664547727
 21
88.3802664547727
 62
7
  0
LINE
  6
BYLAYER
  8
0
 10
48.7610260804432
 11
48.5297465293625
 20
91.4393344059187
 21
91.4393344059187
 62
7
  0
LINE
  6
BYLAYER
  8
0
 10
48.5297465293625
 11
47.9049030363167
 20
91.4393344059187
 21
91.1915348869036
 62
7
  0
LINE
  6
BYLAYER
  8
0
 10
47.9049030363167
 11
47.8334784690712
 20
91.1915348869036
 21
91.1439185087399
 62
7
  0
LINE
  6
BYLAYER
  8
0
 10
47.8334784690712
 11
47.7858620909075
 20
91.1439185087399
 21
91.1176809126089
 62
7
  0
LINE
  6
BYLAYER
  8
0
 10
47.7858620909075
 11
47.5511813699578
 20
91.1176809126089
 21
90.7620157206108
 62
7
  0
LINE
  6
BYLAYER
  8
0
 10
47.5511813699578
 11
47.4112475239259
 20
90.7620157206108
 21
90.2474673075971
 62
7
  0
LINE
  6
BYLAYER
  8
0
 10
47.4112475239259
 11
47.4112475239259
 20
90.2474673075971
 21
90.0788664583849
 62
7
  0
LINE
  6
BYLAYER
  8
0
 10
47.4112475239259
 11
47.4112475239259
 20
90.0788664583849
 21
89.2776480135695
 62
7
  0
LINE
  6
BYLAYER
  8
0
 10
47.4112475239259
 11
47.9491182446115
 20
89.2776480135695
 21
88.7402631742937
 62
7
  0
LINE
  6
BYLAYER
  8
0
 10
47.9491182446115
 11
48.7508225708367
 20
88.7402631742937
 21
88.7402631742937
 62
7
  0
LINE
  6
BYLAYER
  8
0
 10
48.7508225708367
 11
49.572933916275
 20
88.7402631742937
 21
88.7402631742937
 62
7
  0
LINE
  6
BYLAYER
  8
0
 10
49.572933916275
 11
50.1108046369606
 20
88.7402631742937
 21
89.2776480135695
 62
7
  0
LINE
  6
BYLAYER
  8
0
 10
50.1108046369606
 11
50.1108046369606
 20
89.2776480135695
 21
90.131341650647
 62
7
  0
LINE
  6
BYLAYER
  8
0
 10
50.1108046369606
 11
50.1108046369606
 20
90.131341650647
 21
90.901463685233
 62
7
  0
LINE
  6
BYLAYER
  8
0
 10
50.1108046369606
 11
49.572933916275
 20
90.901463685233
 21
91.4393344059187
 62
7
  0
LINE
  6
BYLAYER
  8
0
 10
49.572933916275
 11
48.7610260804432
 20
91.4393344059187
 21
91.4393344059187
 62
7
  0
LINE
  6
BYLAYER
  8
0
 10
48.7610260804432
 11
48.7610260804432
 20
91.4393344059187
 21
91.4393344059187
 62
7
  0
LINE
  6
BYLAYER
  8
0
 10
50.1108046369606
 11
50.0792223453214
 20
92.7891129624362
 21
92.9261315200092
 62
7
  0
LINE
  6
BYLAYER
  8
0
 10
50.0792223453214
 11
50.0792223453214
 20
92.9261315200092
 21
92.9261315200092
 62
7
  0
LINE
  6
BYLAYER
  8
0
 10
50.0792223453214
 11
49.572933916275
 20
92.9261315200092
 21
93.4640022406947
 62
7
  0
LINE
  6
BYLAYER
  8
0
 10
49.572933916275
 11
49.0141702949665
 20
93.4640022406947
 21
93.4640022406947
 62
7
  0
LINE
  6
BYLAYER
  8
0
 10
49.0141702949665
 11
48.7537378592957
 20
93.4640022406947
 21
93.4640022406947
 62
7
  0
LINE
  6
BYLAYER
  8
0
 10
48.7537378592957
 11
48.0472662893979
 20
93.4640022406947
 21
93.1209699653523
 62
7
  0
LINE
  6
BYLAYER
  8
0
 10
48.0472662893979
 11
47.9700111452344
 20
93.1209699653523
 21
93.0529465679756
 62
7
  0
LINE
  6
BYLAYER
  8
0
 10
47.9700111452344
 11
47.9049030363167
 20
93.0529465679756
 21
93.0184489878775
 62
7
  0
LINE
  6
BYLAYER
  8
0
 10
47.9049030363167
 11
47.6148318346461
 20
93.0184489878775
 21
92.4781488601427
 62
7
  0
LINE
  6
BYLAYER
  8
0
 10
47.6148318346461
 11
47.4277674918602
 20
92.4781488601427
 21
91.5870423545081
 62
7
  0
LINE
  6
BYLAYER
  8
0
 10
47.4277674918602
 11
47.4112475239259
 20
91.5870423545081
 21
91.3756839412305
 62
7
  0
LINE
  6
BYLAYER
  8
0
 10
47.4112475239259
 11
47.4540050879912
 20
91.3756839412305
 21
91.4500237969351
 62
7
  0
LINE
  6
BYLAYER
  8
0
 10
47.4540050879912
 11
47.9811864176604
 20
91.4500237969351
 21
91.9271593413915
 62
7
  0
LINE
  6
BYLAYER
  8
0
 10
47.9811864176604
 11
48.0443510009388
 20
91.9271593413915
 21
91.9563122259815
 62
7
  0
LINE
  6
BYLAYER
  8
0
 10
48.0443510009388
 11
48.1123743983155
 20
91.9563122259815
 21
91.9951827387682
 62
7
  0
LINE
  6
BYLAYER
  8
0
 10
48.1123743983155
 11
48.6793980035912
 20
91.9951827387682
 21
92.1142236841773
 62
7
  0
LINE
  6
BYLAYER
  8
0
 10
48.6793980035912
 11
48.866948227787
 20
92.1142236841773
 21
92.1142236841773
 62
7
  0
LINE
  6
BYLAYER
  8
0
 10
48.866948227787
 11
49.9737860793876
 20
92.1142236841773
 21
92.1142236841773
 62
7
  0
LINE
  6
BYLAYER
  8
0
 10
49.9737860793876
 11
50.7856939152193
 20
92.1142236841773
 21
91.3023158483456
 62
7
  0
LINE
  6
BYLAYER
  8
0
 10
50.7856939152193
 11
50.7856939152193
 20
91.3023158483456
 21
90.1532063140895
 62
7
  0
LINE
  6
BYLAYER
  8
0
 10
50.7856939152193
 11
50.7856939152193
 20
90.1532063140895
 21
88.8767958504568
 62
7
  0
LINE
  6
BYLAYER
  8
0
 10
50.7856939152193
 11
49.9737860793876
 20
88.8767958504568
 21
88.0653738960349
 62
7
  0
LINE
  6
BYLAYER
  8
0
 10
49.9737860793876
 11
48.8246765451314
 20
88.0653738960349
 21
88.0653738960349
 62
7
  0
LINE
  6
BYLAYER
  8
0
 10
48.8246765451314
 11
47.5482660814989
 20
88.0653738960349
 21
88.0653738960349
 62
7
  0
LINE
  6
BYLAYER
  8
0
 10
47.5482660814989
 11
46.7368441270769
 20
88.0653738960349
 21
88.8767958504568
 62
7
  0
LINE
  6
BYLAYER
  8
0
 10
46.7368441270769
 11
46.7368441270769
 20
88.8767958504568
 21
88.8767958504568
 62
7
  0
LINE
  6
BYLAYER
  8
0
 10
46.7368441270769
 11
46.7368441270769
 20
88.8767958504568
 21
90.8280955923481
 62
7
  0
LINE
  6
BYLAYER
  8
0
 10
46.7368441270769
 11
46.7368441270769
 20
90.8280955923481
 21
91.1021327074942
 62
7
  0
LINE
  6
BYLAYER
  8
0
 10
46.7368441270769
 11
46.8238168994371
 20
91.1021327074942
 21
91.9271593413915
 62
7
  0
LINE
  6
BYLAYER
  8
0
 10
46.8238168994371
 11
47.0186553447804
 20
91.9271593413915
 21
92.6069074337485
 62
7
  0
LINE
  6
BYLAYER
  8
0
 10
47.0186553447804
 11
47.0740458255014
 20
92.6069074337485
 21
92.7463553983707
 62
7
  0
LINE
  6
BYLAYER
  8
0
 10
47.0740458255014
 11
47.1955161779597
 20
92.7463553983707
 21
92.9815220007301
 62
7
  0
LINE
  6
BYLAYER
  8
0
 10
47.1955161779597
 11
47.8674901677595
 20
92.9815220007301
 21
93.7958592436111
 62
7
  0
LINE
  6
BYLAYER
  8
0
 10
47.8674901677595
 11
48.6900873946075
 20
93.7958592436111
 21
94.1388915189535
 62
7
  0
LINE
  6
BYLAYER
  8
0
 10
48.6900873946075
 11
48.9616951027044
 20
94.1388915189535
 21
94.1388915189535
 62
7
  0
LINE
  6
BYLAYER
  8
0
 10
48.9616951027044
 11
49.9737860793876
 20
94.1388915189535
 21
94.1388915189535
 62
7
  0
LINE
  6
BYLAYER
  8
0
 10
49.9737860793876
 11
50.7856939152193
 20
94.1388915189535
 21
93.3269836831217
 62
7
  0
LINE
  6
BYLAYER
  8
0
 10
50.7856939152193
 11
50.7856939152193
 20
93.3269836831217
 21
92.7891129624362
 62
7
  0
LINE
  6
BYLAYER
  8
0
 10
50.7856939152193
 11
50.1108046369606
 20
92.7891129624362
 21
92.7891129624362
 62
7
  0
LINE
  6
BYLAYER
  8
0
 10
50.1108046369606
 11
50.1108046369606
 20
92.7891129624362
 21
92.7891129624362
 62
7
  0
ENDSEC
  0
EOF
