  0
SECTION
  2
HEADER
  9
$CECOLOR
 62
256
  9
$CELTYPE
  6
CONTINUOUS
  9
$CLAYER
  8
0
  9
$TEXTSTYLE
  7
STANDARD
  9
$DWGCODEPAGE
  3
ANSI_1252
  9
$LTSCALE
 40
1
  0
ENDSEC
  0
SECTION
  2
TABLES
  0
TABLE
  2
LTYPE
 70
5
  0
LTYPE
  2
CONTINUOUS
  3
CONTINUOUS
 70
0
 72
65
 73
0
 40
0
  0
LTYPE
  2
DASHED
  3
DASHED
 70
0
 72
65
 73
2
 40
0.75
 49
0.5
 49
-0.25
  0
LTYPE
  2
DOT
  3
DOT
 70
0
 72
65
 73
2
 40
0.25
 49
0
 49
-0.25
  0
LTYPE
  2
DASHDOT
  3
DASHDOT
 70
0
 72
65
 73
4
 40
1
 49
0.5
 49
-0.25
 49
0
 49
-0.25
  0
LTYPE
  2
DIVIDE
  3
DIVIDE
 70
0
 72
65
 73
6
 40
1.25
 49
0.5
 49
-0.25
 49
0
 49
-0.25
 49
0
 49
-0.25
  0
ENDTAB
  0
TABLE
  2
LAYER
 70
3
  0
LAYER
  2
0
  6
CONTINUOUS
 70
0
 62
7
  0
LAYER
  2
_FLOOR1_W
  6
CONTINUOUS
 70
4
 62
7
  0
LAYER
  2
_FLOOR1_WH
  6
CONTINUOUS
 70
5
 62
1
  0
ENDTAB
  0
TABLE
  2
STYLE
 70
3
  0
STYLE
  2
STANDARD
 70
0
 40
0
 41
1
 50
0
 71
0
 42
1
  3
TXT.SHX
  0
STYLE
  2
ANNOTATIVE
 70
0
 40
0
 41
1
 50
0
 71
0
 42
1
  3
ROMANS.SHX
  0
STYLE
  2
ATTRIBUTI_SCATOLA
 70
0
 40
0
 41
1
 50
0
 71
0
 42
1
  3
ROMANS.SHX
  0
ENDTAB
  0
ENDSEC
  0
SECTION
  2
BLOCKS
  0
BLOCK
  2
*MODEL_SPACE
 10
0
 20
0
 70
1
  0
ENDBLK
  0
BLOCK
  2
*PAPER_SPACE
 10
0
 20
0
 70
1
  0
ENDBLK
  0
ENDSEC
  0
SECTION
  2
ENTITIES
  0
LINE
  6
BYLAYER
  8
0
 10
-49.3869087488076
 11
-49.3869087488076
 20
-11.7301639897634
 21
-12.9252242307273
 62
7
  0
LINE
  6
BYLAYER
  8
0
 10
-49.3869087488076
 11
-36.3829328451931
 20
-12.9252242307273
 21
-12.9252242307273
 62
7
  0
LINE
  6
BYLAYER
  8
0
 10
-36.3829328451931
 11
-36.3829328451931
 20
-12.9252242307273
 21
-11.7445013391609
 62
7
  0
LINE
  6
BYLAYER
  8
0
 10
-36.3829328451931
 11
-49.3869087488076
 20
-11.7445013391609
 21
-11.7301639897634
 62
7
  0
LINE
  6
BYLAYER
  8
0
 10
-49.3869087488076
 11
-49.3869087488076
 20
-11.7301639897634
 21
-11.7301639897634
 62
7
  0
LINE
  6
BYLAYER
  8
0
 10
-49.3869087488076
 11
-49.3869087488076
 20
-11.7301639897634
 21
-12.9252242307273
 62
7
  0
LINE
  6
BYLAYER
  8
0
 10
-49.3869087488076
 11
-36.3829328451931
 20
-12.9252242307273
 21
-12.9252242307273
 62
7
  0
LINE
  6
BYLAYER
  8
0
 10
-36.3829328451931
 11
-36.3829328451931
 20
-12.9252242307273
 21
-11.7445013391609
 62
7
  0
LINE
  6
BYLAYER
  8
0
 10
-36.3829328451931
 11
-49.3869087488076
 20
-11.7445013391609
 21
-11.7301639897634
 62
7
  0
LINE
  6
BYLAYER
  8
0
 10
-49.3869087488076
 11
-49.3869087488076
 20
-11.7301639897634
 21
-11.7301639897634
 62
7
  0
LINE
  6
BYLAYER
  8
0
 10
-72.736041278928
 11
-21.0731738090486
 20
93.8694745644535
 21
93.8694745644535
 62
7
  0
LINE
  6
BYLAYER
  8
0
 10
-64.7422099536269
 11
-13.0746195921811
 20
-9.90088688132948
 21
-9.90088688132948
 62
7
  0
LINE
  6
BYLAYER
  8
0
 10
-70.9242220018196
 11
-70.3522460982052
 20
-0.735103748799474
 21
-0.15907965241388
 62
7
  0
LINE
  6
BYLAYER
  8
0
 10
-70.3522460982052
 11
-69.3409569415787
 20
-0.15907965241388
 21
-1.13823627891986
 62
7
  0
LINE
  6
BYLAYER
  8
0
 10
-69.3409569415787
 11
-68.3480533271208
 20
-1.13823627891986
 21
-0.177633869281408
 62
7
  0
LINE
  6
BYLAYER
  8
0
 10
-68.3480533271208
 11
-67.7258123632653
 20
-0.177633869281408
 21
-0.799200134341618
 62
7
  0
LINE
  6
BYLAYER
  8
0
 10
-67.7258123632653
 11
-68.7186316403739
 20
-0.799200134341618
 21
-1.7598025439803
 62
7
  0
LINE
  6
BYLAYER
  8
0
 10
-68.7186316403739
 11
-67.7715232066388
 20
-1.7598025439803
 21
-2.70775435120913
 62
7
  0
LINE
  6
BYLAYER
  8
0
 10
-67.7715232066388
 11
-68.3480533271208
 20
-2.70775435120913
 21
-3.28377844759473
 62
7
  0
LINE
  6
BYLAYER
  8
0
 10
-68.3480533271208
 11
-69.2951617608557
 20
-3.28377844759473
 21
-2.33751338735374
 62
7
  0
LINE
  6
BYLAYER
  8
0
 10
-69.2951617608557
 11
-70.2560171825425
 20
-2.33751338735374
 21
-3.32932061626934
 62
7
  0
LINE
  6
BYLAYER
  8
0
 10
-70.2560171825425
 11
-70.8784268210968
 20
-3.32932061626934
 21
-2.70775435120913
 62
7
  0
LINE
  6
BYLAYER
  8
0
 10
-70.8784268210968
 11
-69.9174870620605
 20
-2.70775435120913
 21
-1.71426037530546
 62
7
  0
LINE
  6
BYLAYER
  8
0
 10
-69.9174870620605
 11
-70.9242220018196
 20
-1.71426037530546
 21
-0.735103748799474
 62
7
  0
LINE
  6
BYLAYER
  8
0
 10
-70.9242220018196
 11
-70.9242220018196
 20
-0.735103748799474
 21
-0.735103748799474
 62
7
  0
LINE
  6
BYLAYER
  8
0
 10
-67.5472701945907
 11
-66.8197762186871
 20
-3.49040495361874
 21
-1.72859772470304
 62
7
  0
LINE
  6
BYLAYER
  8
0
 10
-66.8197762186871
 11
-67.5472701945907
 20
-1.72859772470304
 21
0.0332095042125502
 62
7
  0
LINE
  6
BYLAYER
  8
0
 10
-67.5472701945907
 11
-69.3135473030245
 20
0.0332095042125502
 21
0.761040829513718
 62
7
  0
LINE
  6
BYLAYER
  8
0
 10
-69.3135473030245
 11
-71.0706316403738
 20
0.761040829513718
 21
0.0332095042125502
 62
7
  0
LINE
  6
BYLAYER
  8
0
 10
-71.0706316403738
 11
-71.8026798331449
 20
0.0332095042125502
 21
-1.72859772470304
 62
7
  0
LINE
  6
BYLAYER
  8
0
 10
-71.8026798331449
 11
-71.0706316403738
 20
-1.72859772470304
 21
-3.49040495361874
 62
7
  0
LINE
  6
BYLAYER
  8
0
 10
-71.0706316403738
 11
-69.3135473030245
 20
-3.49040495361874
 21
-4.21739290542598
 62
7
  0
LINE
  6
BYLAYER
  8
0
 10
-69.3135473030245
 11
-67.5472701945907
 20
-4.21739290542598
 21
-3.49040495361874
 62
7
  0
LINE
  6
BYLAYER
  8
0
 10
-67.5472701945907
 11
-67.5472701945907
 20
-3.49040495361874
 21
-3.49040495361874
 62
7
  0
LINE
  6
BYLAYER
  8
0
 10
-69.3089087488076
 11
-67.9545352548317
 20
-5.21510374879949
 21
-4.94016398976339
 62
7
  0
LINE
  6
BYLAYER
  8
0
 10
-67.9545352548317
 11
-66.8472701945906
 20
-4.94016398976339
 21
-4.19040495361878
 62
7
  0
LINE
  6
BYLAYER
  8
0
 10
-66.8472701945906
 11
-66.0969207970003
 20
-4.19040495361878
 21
-3.08221218253448
 62
7
  0
LINE
  6
BYLAYER
  8
0
 10
-66.0969207970003
 11
-65.82257139941
 20
-3.08221218253448
 21
-1.72859772470304
 62
7
  0
LINE
  6
BYLAYER
  8
0
 10
-65.82257139941
 11
-66.0969207970003
 20
-1.72859772470304
 21
-0.369923025907838
 62
7
  0
LINE
  6
BYLAYER
  8
0
 10
-66.0969207970003
 11
-66.8472701945906
 20
-0.369923025907838
 21
0.737426371682432
 62
7
  0
LINE
  6
BYLAYER
  8
0
 10
-66.8472701945906
 11
-67.9545352548317
 20
0.737426371682432
 21
1.48802878132108
 62
7
  0
LINE
  6
BYLAYER
  8
0
 10
-67.9545352548317
 11
-69.3089087488076
 20
1.48802878132108
 21
1.75790829939331
 62
7
  0
LINE
  6
BYLAYER
  8
0
 10
-69.3089087488076
 11
-70.6679207970002
 20
1.75790829939331
 21
1.48802878132108
 62
7
  0
LINE
  6
BYLAYER
  8
0
 10
-70.6679207970002
 11
-71.7797400741087
 20
1.48802878132108
 21
0.737426371682432
 62
7
  0
LINE
  6
BYLAYER
  8
0
 10
-71.7797400741087
 11
-72.5255352548316
 20
0.737426371682432
 21
-0.369923025907838
 62
7
  0
LINE
  6
BYLAYER
  8
0
 10
-72.5255352548316
 11
-72.8001376644702
 20
-0.369923025907838
 21
-1.72859772470304
 62
7
  0
LINE
  6
BYLAYER
  8
0
 10
-72.8001376644702
 11
-72.5255352548316
 20
-1.72859772470304
 21
-3.08221218253448
 62
7
  0
LINE
  6
BYLAYER
  8
0
 10
-72.5255352548316
 11
-71.7797400741087
 20
-3.08221218253448
 21
-4.19040495361878
 62
7
  0
LINE
  6
BYLAYER
  8
0
 10
-71.7797400741087
 11
-70.6679207970002
 20
-4.19040495361878
 21
-4.94016398976339
 62
7
  0
LINE
  6
BYLAYER
  8
0
 10
-70.6679207970002
 11
-69.3089087488076
 20
-4.94016398976339
 21
-5.21510374879949
 62
7
  0
LINE
  6
BYLAYER
  8
0
 10
-69.3089087488076
 11
-69.3089087488076
 20
-5.21510374879949
 21
-5.21510374879949
 62
7
  0
LINE
  6
BYLAYER
  8
0
 10
-18.117149712663
 11
-17.5453424837473
 20
86.6898360102367
 21
87.2667034801161
 62
7
  0
LINE
  6
BYLAYER
  8
0
 10
-17.5453424837473
 11
-16.5341376644703
 20
87.2667034801161
 21
86.2883902271042
 62
7
  0
LINE
  6
BYLAYER
  8
0
 10
-16.5341376644703
 11
-15.5414870620606
 20
86.2883902271042
 21
87.2489926367426
 62
7
  0
LINE
  6
BYLAYER
  8
0
 10
-15.5414870620606
 11
-14.9190774235064
 20
87.2489926367426
 21
86.6316432391524
 62
7
  0
LINE
  6
BYLAYER
  8
0
 10
-14.9190774235064
 11
-15.911728025916
 20
86.6316432391524
 21
85.665137215056
 62
7
  0
LINE
  6
BYLAYER
  8
0
 10
-15.911728025916
 11
-14.9646195921811
 20
85.665137215056
 21
84.718872154815
 62
7
  0
LINE
  6
BYLAYER
  8
0
 10
-14.9646195921811
 11
-15.5414870620606
 20
84.718872154815
 21
84.1420046849354
 62
7
  0
LINE
  6
BYLAYER
  8
0
 10
-15.5414870620606
 11
-16.4877521223016
 20
84.1420046849354
 21
85.0933299861404
 62
7
  0
LINE
  6
BYLAYER
  8
0
 10
-16.4877521223016
 11
-17.4491979054341
 20
85.0933299861404
 21
84.0956191427669
 62
7
  0
LINE
  6
BYLAYER
  8
0
 10
-17.4491979054341
 11
-18.0716075439883
 20
84.0956191427669
 21
84.718872154815
 62
7
  0
LINE
  6
BYLAYER
  8
0
 10
-18.0716075439883
 11
-17.1110051343498
 20
84.718872154815
 21
85.7106793837307
 62
7
  0
LINE
  6
BYLAYER
  8
0
 10
-17.1110051343498
 11
-18.117149712663
 20
85.7106793837307
 21
86.6898360102367
 62
7
  0
LINE
  6
BYLAYER
  8
0
 10
-18.117149712663
 11
-18.117149712663
 20
86.6898360102367
 21
86.6898360102367
 62
7
  0
LINE
  6
BYLAYER
  8
0
 10
-14.7402822427834
 11
-14.0124509174823
 20
83.9362215524053
 21
85.698028781321
 62
7
  0
LINE
  6
BYLAYER
  8
0
 10
-14.0124509174823
 11
-14.7402822427834
 20
85.698028781321
 21
87.4598360102367
 62
7
  0
LINE
  6
BYLAYER
  8
0
 10
-14.7402822427834
 11
-16.5063063391689
 20
87.4598360102367
 21
88.1868239620438
 62
7
  0
LINE
  6
BYLAYER
  8
0
 10
-16.5063063391689
 11
-18.2638967006148
 20
88.1868239620438
 21
87.4598360102367
 62
7
  0
LINE
  6
BYLAYER
  8
0
 10
-18.2638967006148
 11
-18.9959448933859
 20
87.4598360102367
 21
85.698028781321
 62
7
  0
LINE
  6
BYLAYER
  8
0
 10
-18.9959448933859
 11
-18.2638967006148
 20
85.698028781321
 21
83.9362215524053
 62
7
  0
LINE
  6
BYLAYER
  8
0
 10
-18.2638967006148
 11
-16.5063063391689
 20
83.9362215524053
 21
83.2083902271041
 62
7
  0
LINE
  6
BYLAYER
  8
0
 10
-16.5063063391689
 11
-14.7402822427834
 20
83.2083902271041
 21
83.9362215524053
 62
7
  0
LINE
  6
BYLAYER
  8
0
 10
-14.7402822427834
 11
-14.7402822427834
 20
83.9362215524053
 21
83.9362215524053
 62
7
  0
LINE
  6
BYLAYER
  8
0
 10
-16.5020894716992
 11
-15.1476316403738
 20
82.2106793837306
 21
82.4847757692728
 62
7
  0
LINE
  6
BYLAYER
  8
0
 10
-15.1476316403738
 11
-14.0411256162774
 20
82.4847757692728
 21
83.2353781789114
 62
7
  0
LINE
  6
BYLAYER
  8
0
 10
-14.0411256162774
 11
-13.2896798331449
 20
83.2353781789114
 21
84.3427275765018
 62
7
  0
LINE
  6
BYLAYER
  8
0
 10
-13.2896798331449
 11
-13.0155834476029
 20
84.3427275765018
 21
85.698028781321
 62
7
  0
LINE
  6
BYLAYER
  8
0
 10
-13.0155834476029
 11
-13.2896798331449
 20
85.698028781321
 21
87.0567034801162
 62
7
  0
LINE
  6
BYLAYER
  8
0
 10
-13.2896798331449
 11
-14.0411256162774
 20
87.0567034801162
 21
88.1632095042125
 62
7
  0
LINE
  6
BYLAYER
  8
0
 10
-14.0411256162774
 11
-15.1476316403738
 20
88.1632095042125
 21
88.9146552873451
 62
7
  0
LINE
  6
BYLAYER
  8
0
 10
-15.1476316403738
 11
-16.5020894716992
 20
88.9146552873451
 21
89.1836914319234
 62
7
  0
LINE
  6
BYLAYER
  8
0
 10
-16.5020894716992
 11
-18.9689569415787
 20
89.1836914319234
 21
88.1632095042125
 62
7
  0
LINE
  6
BYLAYER
  8
0
 10
-18.9689569415787
 11
-19.9885954957956
 20
88.1632095042125
 21
85.698028781321
 62
7
  0
LINE
  6
BYLAYER
  8
0
 10
-19.9885954957956
 11
-18.9689569415787
 20
85.698028781321
 21
83.2353781789114
 62
7
  0
LINE
  6
BYLAYER
  8
0
 10
-18.9689569415787
 11
-16.5020894716992
 20
83.2353781789114
 21
82.2106793837306
 62
7
  0
LINE
  6
BYLAYER
  8
0
 10
-16.5020894716992
 11
-16.5020894716992
 20
82.2106793837306
 21
82.2106793837306
 62
7
  0
LINE
  6
BYLAYER
  8
0
 10
-72.736041278928
 11
-72.736041278928
 20
95.9787516728873
 21
84.0728480584294
 62
7
  0
LINE
  6
BYLAYER
  8
0
 10
-72.736041278928
 11
-21.0731738090486
 20
84.0728480584294
 21
84.0728480584294
 62
7
  0
LINE
  6
BYLAYER
  8
0
 10
-21.0731738090486
 11
-21.0731738090486
 20
84.0728480584294
 21
95.8007998656583
 62
7
  0
LINE
  6
BYLAYER
  8
0
 10
-64.7422099536269
 11
-64.7422099536269
 20
-11.5699230259079
 21
0.0289926367426006
 62
7
  0
LINE
  6
BYLAYER
  8
0
 10
-64.7422099536269
 11
-13.0746195921811
 20
0.0289926367426006
 21
0.0289926367426006
 62
7
  0
LINE
  6
BYLAYER
  8
0
 10
-13.0746195921811
 11
-13.0746195921811
 20
0.0289926367426006
 21
-11.8355856765104
 62
7
  0
LINE
  6
BYLAYER
  8
0
 10
-71.7248364596509
 11
-69.7070653753136
 20
4.98802878132096
 21
4.98802878132096
 62
7
  0
LINE
  6
BYLAYER
  8
0
 10
-71.6927882668799
 11
-71.6927882668799
 20
3.14441432348963
 21
9.00586010662221
 62
7
  0
LINE
  6
BYLAYER
  8
0
 10
-71.6927882668799
 11
-71.3999689897714
 20
9.00586010662221
 21
9.71092034758601
 62
7
  0
LINE
  6
BYLAYER
  8
0
 10
-71.3999689897714
 11
-70.6953304355546
 20
9.71092034758601
 21
9.99935408252588
 62
7
  0
LINE
  6
BYLAYER
  8
0
 10
-70.6953304355546
 11
-70.6953304355546
 20
9.99935408252588
 21
9.99935408252588
 62
7
  0
LINE
  6
BYLAYER
  8
0
 10
-70.6953304355546
 11
-69.9906918813377
 20
9.99935408252588
 21
9.71092034758601
 62
7
  0
LINE
  6
BYLAYER
  8
0
 10
-69.9906918813377
 11
-69.6978726042292
 20
9.71092034758601
 21
9.00586010662221
 62
7
  0
LINE
  6
BYLAYER
  8
0
 10
-69.6978726042292
 11
-69.6978726042292
 20
9.00586010662221
 21
3.09887215481501
 62
7
  0
LINE
  6
BYLAYER
  8
0
 10
-66.7604027247111
 11
-64.7422099536269
 20
4.98802878132096
 21
4.98802878132096
 62
7
  0
LINE
  6
BYLAYER
  8
0
 10
-66.7282701945907
 11
-66.7282701945907
 20
3.14441432348963
 21
9.00586010662221
 62
7
  0
LINE
  6
BYLAYER
  8
0
 10
-66.7282701945907
 11
-66.4354509174822
 20
9.00586010662221
 21
9.71092034758601
 62
7
  0
LINE
  6
BYLAYER
  8
0
 10
-66.4354509174822
 11
-65.7306436885665
 20
9.71092034758601
 21
9.99935408252588
 62
7
  0
LINE
  6
BYLAYER
  8
0
 10
-65.7306436885665
 11
-65.7306436885665
 20
9.99935408252588
 21
9.99935408252588
 62
7
  0
LINE
  6
BYLAYER
  8
0
 10
-65.7306436885665
 11
-65.0264268210967
 20
9.99935408252588
 21
9.71092034758601
 62
7
  0
LINE
  6
BYLAYER
  8
0
 10
-65.0264268210967
 11
-64.732932845193
 20
9.71092034758601
 21
9.00586010662221
 62
7
  0
LINE
  6
BYLAYER
  8
0
 10
-64.732932845193
 11
-64.732932845193
 20
9.00586010662221
 21
3.09887215481501
 62
7
  0
LINE
  6
BYLAYER
  8
0
 10
-61.7954629656751
 11
-59.7781135680847
 20
4.98802878132096
 21
4.98802878132096
 62
7
  0
LINE
  6
BYLAYER
  8
0
 10
-61.763414772904
 11
-61.763414772904
 20
3.14441432348963
 21
9.00586010662221
 62
7
  0
LINE
  6
BYLAYER
  8
0
 10
-61.763414772904
 11
-61.4707641704943
 20
9.00586010662221
 21
9.71092034758601
 62
7
  0
LINE
  6
BYLAYER
  8
0
 10
-61.4707641704943
 11
-60.7665473030244
 20
9.71092034758601
 21
9.99935408252588
 62
7
  0
LINE
  6
BYLAYER
  8
0
 10
-60.7665473030244
 11
-60.7665473030244
 20
9.99935408252588
 21
9.99935408252588
 62
7
  0
LINE
  6
BYLAYER
  8
0
 10
-60.7665473030244
 11
-60.0614870620605
 20
9.99935408252588
 21
9.71092034758601
 62
7
  0
LINE
  6
BYLAYER
  8
0
 10
-60.0614870620605
 11
-59.768836459651
 20
9.71092034758601
 21
9.00586010662221
 62
7
  0
LINE
  6
BYLAYER
  8
0
 10
-59.768836459651
 11
-59.768836459651
 20
9.00586010662221
 21
3.09887215481501
 62
7
  0
LINE
  6
BYLAYER
  8
0
 10
-56.8355834476028
 11
-54.8131738090485
 20
4.98802878132096
 21
4.98802878132096
 62
7
  0
LINE
  6
BYLAYER
  8
0
 10
-56.7993183873618
 11
-56.7993183873618
 20
3.14441432348963
 21
9.00586010662221
 62
7
  0
LINE
  6
BYLAYER
  8
0
 10
-56.7993183873618
 11
-56.5066677849522
 20
9.00586010662221
 21
9.71092034758601
 62
7
  0
LINE
  6
BYLAYER
  8
0
 10
-56.5066677849522
 11
-55.8016075439884
 20
9.71092034758601
 21
9.99935408252588
 62
7
  0
LINE
  6
BYLAYER
  8
0
 10
-55.8016075439884
 11
-55.8016075439884
 20
9.99935408252588
 21
9.99935408252588
 62
7
  0
LINE
  6
BYLAYER
  8
0
 10
-55.8016075439884
 11
-55.0973906765185
 20
9.99935408252588
 21
9.71092034758601
 62
7
  0
LINE
  6
BYLAYER
  8
0
 10
-55.0973906765185
 11
-54.8038967006148
 20
9.71092034758601
 21
9.00586010662221
 62
7
  0
LINE
  6
BYLAYER
  8
0
 10
-54.8038967006148
 11
-54.8038967006148
 20
9.00586010662221
 21
3.09887215481501
 62
7
  0
LINE
  6
BYLAYER
  8
0
 10
-51.8259448933858
 11
-49.8035352548317
 20
4.98802878132096
 21
4.98802878132096
 62
7
  0
LINE
  6
BYLAYER
  8
0
 10
-51.7888364596509
 11
-51.7888364596509
 20
3.14441432348963
 21
9.00586010662221
 62
7
  0
LINE
  6
BYLAYER
  8
0
 10
-51.7888364596509
 11
-51.5004027247113
 20
9.00586010662221
 21
9.71092034758601
 62
7
  0
LINE
  6
BYLAYER
  8
0
 10
-51.5004027247113
 11
-50.7919689897714
 20
9.71092034758601
 21
9.99935408252588
 62
7
  0
LINE
  6
BYLAYER
  8
0
 10
-50.7919689897714
 11
-50.7919689897714
 20
9.99935408252588
 21
9.99935408252588
 62
7
  0
LINE
  6
BYLAYER
  8
0
 10
-50.7919689897714
 11
-50.0911256162776
 20
9.99935408252588
 21
9.71092034758601
 62
7
  0
LINE
  6
BYLAYER
  8
0
 10
-50.0911256162776
 11
-49.7984750138679
 20
9.71092034758601
 21
9.00586010662221
 62
7
  0
LINE
  6
BYLAYER
  8
0
 10
-49.7984750138679
 11
-49.7984750138679
 20
9.00586010662221
 21
3.09887215481501
 62
7
  0
LINE
  6
BYLAYER
  8
0
 10
-46.8154629656751
 11
-44.7972701945907
 20
4.96610107047775
 21
4.96610107047775
 62
7
  0
LINE
  6
BYLAYER
  8
0
 10
-46.77835453194
 11
-46.77835453194
 20
3.11742637168243
 21
8.97887215481501
 62
7
  0
LINE
  6
BYLAYER
  8
0
 10
-46.77835453194
 11
-46.4907641704944
 20
8.97887215481501
 21
9.68730588975484
 62
7
  0
LINE
  6
BYLAYER
  8
0
 10
-46.4907641704944
 11
-45.7857039295305
 20
9.68730588975484
 21
9.97573962469448
 62
7
  0
LINE
  6
BYLAYER
  8
0
 10
-45.7857039295305
 11
-45.7857039295305
 20
9.97573962469448
 21
9.97573962469448
 62
7
  0
LINE
  6
BYLAYER
  8
0
 10
-45.7857039295305
 11
-45.0814870620606
 20
9.97573962469448
 21
9.68730588975484
 62
7
  0
LINE
  6
BYLAYER
  8
0
 10
-45.0814870620606
 11
-44.787993086157
 20
9.68730588975484
 21
8.97887215481501
 62
7
  0
LINE
  6
BYLAYER
  8
0
 10
-44.787993086157
 11
-44.787993086157
 20
8.97887215481501
 21
3.07525769698361
 62
7
  0
LINE
  6
BYLAYER
  8
0
 10
-41.8969087488076
 11
-39.8744991102535
 20
4.96610107047775
 21
4.96610107047775
 62
7
  0
LINE
  6
BYLAYER
  8
0
 10
-41.8598003150727
 11
-41.8598003150727
 20
3.11742637168243
 21
8.97887215481501
 62
7
  0
LINE
  6
BYLAYER
  8
0
 10
-41.8598003150727
 11
-41.5713665801329
 20
8.97887215481501
 21
9.68730588975484
 62
7
  0
LINE
  6
BYLAYER
  8
0
 10
-41.5713665801329
 11
-40.8620894716992
 20
9.68730588975484
 21
9.97573962469448
 62
7
  0
LINE
  6
BYLAYER
  8
0
 10
-40.8620894716992
 11
-40.8620894716992
 20
9.97573962469448
 21
9.97573962469448
 62
7
  0
LINE
  6
BYLAYER
  8
0
 10
-40.8620894716992
 11
-40.1620894716992
 20
9.97573962469448
 21
9.68730588975484
 62
7
  0
LINE
  6
BYLAYER
  8
0
 10
-40.1620894716992
 11
-39.8694388692895
 20
9.68730588975484
 21
8.97887215481501
 62
7
  0
LINE
  6
BYLAYER
  8
0
 10
-39.8694388692895
 11
-39.8694388692895
 20
8.97887215481501
 21
3.07525769698361
 62
7
  0
LINE
  6
BYLAYER
  8
0
 10
-36.9319689897715
 11
-34.9095593512172
 20
4.96610107047775
 21
4.96610107047775
 62
7
  0
LINE
  6
BYLAYER
  8
0
 10
-36.8957039295305
 11
-36.8957039295305
 20
3.11742637168243
 21
8.97887215481501
 62
7
  0
LINE
  6
BYLAYER
  8
0
 10
-36.8957039295305
 11
-36.6072701945906
 20
8.97887215481501
 21
9.68730588975484
 62
7
  0
LINE
  6
BYLAYER
  8
0
 10
-36.6072701945906
 11
-35.897993086157
 20
9.68730588975484
 21
9.97573962469448
 62
7
  0
LINE
  6
BYLAYER
  8
0
 10
-35.897993086157
 11
-35.897993086157
 20
9.97573962469448
 21
9.97573962469448
 62
7
  0
LINE
  6
BYLAYER
  8
0
 10
-35.897993086157
 11
-35.1979930861571
 20
9.97573962469448
 21
9.68730588975484
 62
7
  0
LINE
  6
BYLAYER
  8
0
 10
-35.1979930861571
 11
-34.9053424837473
 20
9.68730588975484
 21
8.97887215481501
 62
7
  0
LINE
  6
BYLAYER
  8
0
 10
-34.9053424837473
 11
-34.9053424837473
 20
8.97887215481501
 21
3.07525769698361
 62
7
  0
LINE
  6
BYLAYER
  8
0
 10
-31.9214870620606
 11
-29.9041376644702
 20
4.96610107047775
 21
4.96610107047775
 62
7
  0
LINE
  6
BYLAYER
  8
0
 10
-31.8894388692896
 11
-31.8894388692896
 20
3.11742637168243
 21
8.97887215481501
 62
7
  0
LINE
  6
BYLAYER
  8
0
 10
-31.8894388692896
 11
-31.5967882668799
 20
8.97887215481501
 21
9.68730588975484
 62
7
  0
LINE
  6
BYLAYER
  8
0
 10
-31.5967882668799
 11
-30.8917280259161
 20
9.68730588975484
 21
9.97573962469448
 62
7
  0
LINE
  6
BYLAYER
  8
0
 10
-30.8917280259161
 11
-30.8917280259161
 20
9.97573962469448
 21
9.97573962469448
 62
7
  0
LINE
  6
BYLAYER
  8
0
 10
-30.8917280259161
 11
-30.1875111584461
 20
9.97573962469448
 21
9.68730588975484
 62
7
  0
LINE
  6
BYLAYER
  8
0
 10
-30.1875111584461
 11
-29.8948605560365
 20
9.68730588975484
 21
8.97887215481501
 62
7
  0
LINE
  6
BYLAYER
  8
0
 10
-29.8948605560365
 11
-29.8948605560365
 20
8.97887215481501
 21
3.07525769698361
 62
7
  0
LINE
  6
BYLAYER
  8
0
 10
-26.9616075439882
 11
-24.939197905434
 20
4.96610107047775
 21
4.96610107047775
 62
7
  0
LINE
  6
BYLAYER
  8
0
 10
-26.9253424837473
 11
-26.9253424837473
 20
3.11742637168243
 21
8.97887215481501
 62
7
  0
LINE
  6
BYLAYER
  8
0
 10
-26.9253424837473
 11
-26.6326918813377
 20
8.97887215481501
 21
9.68730588975484
 62
7
  0
LINE
  6
BYLAYER
  8
0
 10
-26.6326918813377
 11
-25.9276316403739
 20
9.68730588975484
 21
9.97573962469448
 62
7
  0
LINE
  6
BYLAYER
  8
0
 10
-25.9276316403739
 11
-25.9276316403739
 20
9.97573962469448
 21
9.97573962469448
 62
7
  0
LINE
  6
BYLAYER
  8
0
 10
-25.9276316403739
 11
-25.2234147729041
 20
9.97573962469448
 21
9.68730588975484
 62
7
  0
LINE
  6
BYLAYER
  8
0
 10
-25.2234147729041
 11
-24.9307641704942
 20
9.68730588975484
 21
8.97887215481501
 62
7
  0
LINE
  6
BYLAYER
  8
0
 10
-24.9307641704942
 11
-24.9307641704942
 20
8.97887215481501
 21
3.07525769698361
 62
7
  0
LINE
  6
BYLAYER
  8
0
 10
-21.9747400741088
 11
-19.9523304355546
 20
5.01164323915236
 21
5.01164323915236
 62
7
  0
LINE
  6
BYLAYER
  8
0
 10
-21.9376316403738
 11
-21.9376316403738
 20
3.16802878132103
 21
9.02947456445361
 62
7
  0
LINE
  6
BYLAYER
  8
0
 10
-21.9376316403738
 11
-21.6449810379642
 20
9.02947456445361
 21
9.73369143192338
 62
7
  0
LINE
  6
BYLAYER
  8
0
 10
-21.6449810379642
 11
-20.9399207970004
 20
9.73369143192338
 21
10.026342034333
 62
7
  0
LINE
  6
BYLAYER
  8
0
 10
-20.9399207970004
 11
-20.9399207970004
 20
10.026342034333
 21
10.026342034333
 62
7
  0
LINE
  6
BYLAYER
  8
0
 10
-20.9399207970004
 11
-20.2357039295305
 20
10.026342034333
 21
9.73369143192338
 62
7
  0
LINE
  6
BYLAYER
  8
0
 10
-20.2357039295305
 11
-19.9430533271208
 20
9.73369143192338
 21
9.02947456445361
 62
7
  0
LINE
  6
BYLAYER
  8
0
 10
-19.9430533271208
 11
-19.9430533271208
 20
9.02947456445361
 21
3.12248661264641
 62
7
  0
LINE
  6
BYLAYER
  8
0
 10
-16.964258146398
 11
-14.9418485078438
 20
5.01164323915236
 21
5.01164323915236
 62
7
  0
LINE
  6
BYLAYER
  8
0
 10
-16.927149712663
 11
-16.927149712663
 20
3.16802878132103
 21
9.02947456445361
 62
7
  0
LINE
  6
BYLAYER
  8
0
 10
-16.927149712663
 11
-16.6387159777232
 20
9.02947456445361
 21
9.73369143192338
 62
7
  0
LINE
  6
BYLAYER
  8
0
 10
-16.6387159777232
 11
-15.9344991102534
 20
9.73369143192338
 21
10.026342034333
 62
7
  0
LINE
  6
BYLAYER
  8
0
 10
-15.9344991102534
 11
-15.9344991102534
 20
10.026342034333
 21
10.026342034333
 62
7
  0
LINE
  6
BYLAYER
  8
0
 10
-15.9344991102534
 11
-15.2294388692896
 20
10.026342034333
 21
9.73369143192338
 62
7
  0
LINE
  6
BYLAYER
  8
0
 10
-15.2294388692896
 11
-14.9367882668798
 20
9.73369143192338
 21
9.02947456445361
 62
7
  0
LINE
  6
BYLAYER
  8
0
 10
-14.9367882668798
 11
-14.9367882668798
 20
9.02947456445361
 21
3.12248661264641
 62
7
  0
LINE
  6
BYLAYER
  8
0
 10
-71.7065352548316
 11
-69.6842099536269
 20
78.9991131186705
 21
78.9991131186705
 62
7
  0
LINE
  6
BYLAYER
  8
0
 10
-71.6700171825425
 11
-71.6700171825425
 20
80.8427275765018
 21
74.9812817933691
 62
7
  0
LINE
  6
BYLAYER
  8
0
 10
-71.6700171825425
 11
-71.3771135680847
 20
74.9812817933691
 21
74.2821251668632
 62
7
  0
LINE
  6
BYLAYER
  8
0
 10
-71.3771135680847
 11
-70.6724750138678
 20
74.2821251668632
 21
73.9886311909596
 62
7
  0
LINE
  6
BYLAYER
  8
0
 10
-70.6724750138678
 11
-70.6724750138678
 20
73.9886311909596
 21
73.9886311909596
 62
7
  0
LINE
  6
BYLAYER
  8
0
 10
-70.6724750138678
 11
-69.9677521223015
 20
73.9886311909596
 21
74.2821251668632
 62
7
  0
LINE
  6
BYLAYER
  8
0
 10
-69.9677521223015
 11
-69.674932845193
 20
74.2821251668632
 21
74.9812817933691
 62
7
  0
LINE
  6
BYLAYER
  8
0
 10
-69.674932845193
 11
-69.674932845193
 20
74.9812817933691
 21
80.8882697451766
 62
7
  0
LINE
  6
BYLAYER
  8
0
 10
-66.7420171825425
 11
-64.7194388692896
 20
78.9991131186705
 21
78.9991131186705
 62
7
  0
LINE
  6
BYLAYER
  8
0
 10
-66.7054147729039
 11
-66.7054147729039
 20
80.8427275765018
 21
74.9812817933691
 62
7
  0
LINE
  6
BYLAYER
  8
0
 10
-66.7054147729039
 11
-66.4125954957955
 20
74.9812817933691
 21
74.2821251668632
 62
7
  0
LINE
  6
BYLAYER
  8
0
 10
-66.4125954957955
 11
-65.7078726042292
 20
74.2821251668632
 21
73.9886311909596
 62
7
  0
LINE
  6
BYLAYER
  8
0
 10
-65.7078726042292
 11
-65.7078726042292
 20
73.9886311909596
 21
73.9886311909596
 62
7
  0
LINE
  6
BYLAYER
  8
0
 10
-65.7078726042292
 11
-65.0036557367593
 20
73.9886311909596
 21
74.2821251668632
 62
7
  0
LINE
  6
BYLAYER
  8
0
 10
-65.0036557367593
 11
-64.7101617608557
 20
74.2821251668632
 21
74.9812817933691
 62
7
  0
LINE
  6
BYLAYER
  8
0
 10
-64.7101617608557
 11
-64.7101617608557
 20
74.9812817933691
 21
80.8882697451766
 62
7
  0
LINE
  6
BYLAYER
  8
0
 10
-61.7777521223016
 11
-59.7553424837473
 20
78.9991131186705
 21
78.9991131186705
 62
7
  0
LINE
  6
BYLAYER
  8
0
 10
-61.7406436885666
 11
-61.7406436885666
 20
80.8427275765018
 21
74.9812817933691
 62
7
  0
LINE
  6
BYLAYER
  8
0
 10
-61.7406436885666
 11
-61.4479930861571
 20
74.9812817933691
 21
74.2821251668632
 62
7
  0
LINE
  6
BYLAYER
  8
0
 10
-61.4479930861571
 11
-60.7437762186872
 20
74.2821251668632
 21
73.9886311909596
 62
7
  0
LINE
  6
BYLAYER
  8
0
 10
-60.7437762186872
 11
-60.7437762186872
 20
73.9886311909596
 21
73.9886311909596
 62
7
  0
LINE
  6
BYLAYER
  8
0
 10
-60.7437762186872
 11
-60.0387159777233
 20
73.9886311909596
 21
74.2821251668632
 62
7
  0
LINE
  6
BYLAYER
  8
0
 10
-60.0387159777233
 11
-59.7460653753137
 20
74.2821251668632
 21
74.9812817933691
 62
7
  0
LINE
  6
BYLAYER
  8
0
 10
-59.7460653753137
 11
-59.7460653753137
 20
74.9812817933691
 21
80.8882697451766
 62
7
  0
LINE
  6
BYLAYER
  8
0
 10
-56.8128123632654
 11
-54.7904027247111
 20
78.9991131186705
 21
78.9991131186705
 62
7
  0
LINE
  6
BYLAYER
  8
0
 10
-56.7765473030244
 11
-56.7765473030244
 20
80.8427275765018
 21
74.9812817933691
 62
7
  0
LINE
  6
BYLAYER
  8
0
 10
-56.7765473030244
 11
-56.4838967006148
 20
74.9812817933691
 21
74.2821251668632
 62
7
  0
LINE
  6
BYLAYER
  8
0
 10
-56.4838967006148
 11
-55.778836459651
 20
74.2821251668632
 21
73.9886311909596
 62
7
  0
LINE
  6
BYLAYER
  8
0
 10
-55.778836459651
 11
-55.778836459651
 20
73.9886311909596
 21
73.9886311909596
 62
7
  0
LINE
  6
BYLAYER
  8
0
 10
-55.778836459651
 11
-55.0746195921811
 20
73.9886311909596
 21
74.2821251668632
 62
7
  0
LINE
  6
BYLAYER
  8
0
 10
-55.0746195921811
 11
-54.7811256162775
 20
74.2821251668632
 21
74.9812817933691
 62
7
  0
LINE
  6
BYLAYER
  8
0
 10
-54.7811256162775
 11
-54.7811256162775
 20
74.9812817933691
 21
80.8882697451766
 62
7
  0
LINE
  6
BYLAYER
  8
0
 10
-51.8023304355547
 11
-49.7799207970004
 20
78.9991131186705
 21
78.9991131186705
 62
7
  0
LINE
  6
BYLAYER
  8
0
 10
-51.7660653753136
 11
-51.7660653753136
 20
80.8427275765018
 21
74.9812817933691
 62
7
  0
LINE
  6
BYLAYER
  8
0
 10
-51.7660653753136
 11
-51.4776316403738
 20
74.9812817933691
 21
74.2821251668632
 62
7
  0
LINE
  6
BYLAYER
  8
0
 10
-51.4776316403738
 11
-50.773414772904
 20
74.2821251668632
 21
73.9886311909596
 62
7
  0
LINE
  6
BYLAYER
  8
0
 10
-50.773414772904
 11
-50.773414772904
 20
73.9886311909596
 21
73.9886311909596
 62
7
  0
LINE
  6
BYLAYER
  8
0
 10
-50.773414772904
 11
-50.0683545319401
 20
73.9886311909596
 21
74.2821251668632
 62
7
  0
LINE
  6
BYLAYER
  8
0
 10
-50.0683545319401
 11
-49.7757039295305
 20
74.2821251668632
 21
74.9812817933691
 62
7
  0
LINE
  6
BYLAYER
  8
0
 10
-49.7757039295305
 11
-49.7757039295305
 20
74.9812817933691
 21
80.8882697451766
 62
7
  0
LINE
  6
BYLAYER
  8
0
 10
-46.7969087488077
 11
-44.7744991102534
 20
79.0210408295137
 21
79.0210408295137
 62
7
  0
LINE
  6
BYLAYER
  8
0
 10
-46.7606436885666
 11
-46.7606436885666
 20
80.870558901803
 21
75.0091131186704
 62
7
  0
LINE
  6
BYLAYER
  8
0
 10
-46.7606436885666
 11
-46.467149712663
 20
75.0091131186704
 21
74.3040528777066
 62
7
  0
LINE
  6
BYLAYER
  8
0
 10
-46.467149712663
 11
-45.7629328451931
 20
74.3040528777066
 21
74.0114022752969
 62
7
  0
LINE
  6
BYLAYER
  8
0
 10
-45.7629328451931
 11
-45.7629328451931
 20
74.0114022752969
 21
74.0114022752969
 62
7
  0
LINE
  6
BYLAYER
  8
0
 10
-45.7629328451931
 11
-45.0578726042292
 20
74.0114022752969
 21
74.3040528777066
 62
7
  0
LINE
  6
BYLAYER
  8
0
 10
-45.0578726042292
 11
-44.7652220018196
 20
74.3040528777066
 21
75.0091131186704
 62
7
  0
LINE
  6
BYLAYER
  8
0
 10
-44.7652220018196
 11
-44.7652220018196
 20
75.0091131186704
 21
80.9118842030077
 62
7
  0
LINE
  6
BYLAYER
  8
0
 10
-41.8732942909763
 11
-39.8559448933859
 20
79.0210408295137
 21
79.0210408295137
 62
7
  0
LINE
  6
BYLAYER
  8
0
 10
-41.8370292307354
 11
-41.8370292307354
 20
80.870558901803
 21
75.0091131186704
 62
7
  0
LINE
  6
BYLAYER
  8
0
 10
-41.8370292307354
 11
-41.5485954957956
 20
75.0091131186704
 21
74.3040528777066
 62
7
  0
LINE
  6
BYLAYER
  8
0
 10
-41.5485954957956
 11
-40.8443786283256
 20
74.3040528777066
 21
74.0114022752969
 62
7
  0
LINE
  6
BYLAYER
  8
0
 10
-40.8443786283256
 11
-40.8443786283256
 20
74.0114022752969
 21
74.0114022752969
 62
7
  0
LINE
  6
BYLAYER
  8
0
 10
-40.8443786283256
 11
-40.1393183873618
 20
74.0114022752969
 21
74.3040528777066
 62
7
  0
LINE
  6
BYLAYER
  8
0
 10
-40.1393183873618
 11
-39.8466677849521
 20
74.3040528777066
 21
75.0091131186704
 62
7
  0
LINE
  6
BYLAYER
  8
0
 10
-39.8466677849521
 11
-39.8466677849521
 20
75.0091131186704
 21
80.9118842030077
 62
7
  0
LINE
  6
BYLAYER
  8
0
 10
-36.9091979054342
 11
-34.8910051343498
 20
79.0210408295137
 21
79.0210408295137
 62
7
  0
LINE
  6
BYLAYER
  8
0
 10
-36.8720894716992
 11
-36.8720894716992
 20
80.870558901803
 21
75.0091131186704
 62
7
  0
LINE
  6
BYLAYER
  8
0
 10
-36.8720894716992
 11
-36.5844991102534
 20
75.0091131186704
 21
74.3040528777066
 62
7
  0
LINE
  6
BYLAYER
  8
0
 10
-36.5844991102534
 11
-35.8794388692895
 20
74.3040528777066
 21
74.0114022752969
 62
7
  0
LINE
  6
BYLAYER
  8
0
 10
-35.8794388692895
 11
-35.8794388692895
 20
74.0114022752969
 21
74.0114022752969
 62
7
  0
LINE
  6
BYLAYER
  8
0
 10
-35.8794388692895
 11
-35.1752220018196
 20
74.0114022752969
 21
74.3040528777066
 62
7
  0
LINE
  6
BYLAYER
  8
0
 10
-35.1752220018196
 11
-34.88257139941
 20
74.3040528777066
 21
75.0091131186704
 62
7
  0
LINE
  6
BYLAYER
  8
0
 10
-34.88257139941
 11
-34.88257139941
 20
75.0091131186704
 21
80.9118842030077
 62
7
  0
LINE
  6
BYLAYER
  8
0
 10
-31.9037762186871
 11
-29.8813665801328
 20
79.0210408295137
 21
79.0210408295137
 62
7
  0
LINE
  6
BYLAYER
  8
0
 10
-31.8666677849521
 11
-31.8666677849521
 20
80.870558901803
 21
75.0091131186704
 62
7
  0
LINE
  6
BYLAYER
  8
0
 10
-31.8666677849521
 11
-31.5731738090485
 20
75.0091131186704
 21
74.3040528777066
 62
7
  0
LINE
  6
BYLAYER
  8
0
 10
-31.5731738090485
 11
-30.8698003150727
 20
74.3040528777066
 21
74.0114022752969
 62
7
  0
LINE
  6
BYLAYER
  8
0
 10
-30.8698003150727
 11
-30.8698003150727
 20
74.0114022752969
 21
74.0114022752969
 62
7
  0
LINE
  6
BYLAYER
  8
0
 10
-30.8698003150727
 11
-30.1647400741087
 20
74.0114022752969
 21
74.3040528777066
 62
7
  0
LINE
  6
BYLAYER
  8
0
 10
-30.1647400741087
 11
-29.8712460982052
 20
74.3040528777066
 21
75.0091131186704
 62
7
  0
LINE
  6
BYLAYER
  8
0
 10
-29.8712460982052
 11
-29.8712460982052
 20
75.0091131186704
 21
80.9118842030077
 62
7
  0
LINE
  6
BYLAYER
  8
0
 10
-26.938836459651
 11
-24.9164268210967
 20
79.0210408295137
 21
79.0210408295137
 62
7
  0
LINE
  6
BYLAYER
  8
0
 10
-26.9025713994101
 11
-26.9025713994101
 20
80.870558901803
 21
75.0091131186704
 62
7
  0
LINE
  6
BYLAYER
  8
0
 10
-26.9025713994101
 11
-26.6090774235063
 20
75.0091131186704
 21
74.3040528777066
 62
7
  0
LINE
  6
BYLAYER
  8
0
 10
-26.6090774235063
 11
-25.9057039295305
 20
74.3040528777066
 21
74.0114022752969
 62
7
  0
LINE
  6
BYLAYER
  8
0
 10
-25.9057039295305
 11
-25.9057039295305
 20
74.0114022752969
 21
74.0114022752969
 62
7
  0
LINE
  6
BYLAYER
  8
0
 10
-25.9057039295305
 11
-25.1998003150727
 20
74.0114022752969
 21
74.3040528777066
 62
7
  0
LINE
  6
BYLAYER
  8
0
 10
-25.1998003150727
 11
-24.9071497126631
 20
74.3040528777066
 21
75.0091131186704
 62
7
  0
LINE
  6
BYLAYER
  8
0
 10
-24.9071497126631
 11
-24.9071497126631
 20
75.0091131186704
 21
80.9118842030077
 62
7
  0
LINE
  6
BYLAYER
  8
0
 10
-21.9519689897715
 11
-19.9287159777234
 20
78.9754986608391
 21
78.9754986608391
 62
7
  0
LINE
  6
BYLAYER
  8
0
 10
-21.9148605560366
 11
-21.9148605560366
 20
80.8199564921644
 21
74.9585107090319
 62
7
  0
LINE
  6
BYLAYER
  8
0
 10
-21.9148605560366
 11
-21.6213665801328
 20
74.9585107090319
 21
74.253450468068
 62
7
  0
LINE
  6
BYLAYER
  8
0
 10
-21.6213665801328
 11
-20.9179930861571
 20
74.253450468068
 21
73.9607998656585
 62
7
  0
LINE
  6
BYLAYER
  8
0
 10
-20.9179930861571
 11
-20.9179930861571
 20
73.9607998656585
 21
73.9607998656585
 62
7
  0
LINE
  6
BYLAYER
  8
0
 10
-20.9179930861571
 11
-20.2129328451932
 20
73.9607998656585
 21
74.253450468068
 62
7
  0
LINE
  6
BYLAYER
  8
0
 10
-20.2129328451932
 11
-19.9194388692895
 20
74.253450468068
 21
74.9585107090319
 62
7
  0
LINE
  6
BYLAYER
  8
0
 10
-19.9194388692895
 11
-19.9194388692895
 20
74.9585107090319
 21
80.866342034333
 62
7
  0
LINE
  6
BYLAYER
  8
0
 10
-16.9406436885666
 11
-14.9241376644703
 20
78.9754986608391
 21
78.9754986608391
 62
7
  0
LINE
  6
BYLAYER
  8
0
 10
-16.9043786283257
 11
-16.9043786283257
 20
80.8199564921644
 21
74.9585107090319
 62
7
  0
LINE
  6
BYLAYER
  8
0
 10
-16.9043786283257
 11
-16.6167882668798
 20
74.9585107090319
 21
74.253450468068
 62
7
  0
LINE
  6
BYLAYER
  8
0
 10
-16.6167882668798
 11
-15.911728025916
 20
74.253450468068
 21
73.9607998656585
 62
7
  0
LINE
  6
BYLAYER
  8
0
 10
-15.911728025916
 11
-15.911728025916
 20
73.9607998656585
 21
73.9607998656585
 62
7
  0
LINE
  6
BYLAYER
  8
0
 10
-15.911728025916
 11
-15.2075111584462
 20
73.9607998656585
 21
74.253450468068
 62
7
  0
LINE
  6
BYLAYER
  8
0
 10
-15.2075111584462
 11
-14.9148605560366
 20
74.253450468068
 21
74.9585107090319
 62
7
  0
LINE
  6
BYLAYER
  8
0
 10
-14.9148605560366
 11
-14.9148605560366
 20
74.9585107090319
 21
80.866342034333
 62
7
  0
LINE
  6
BYLAYER
  8
0
 10
-69.6338605560365
 11
-69.6338605560365
 20
20.1240528777066
 21
19.1229685403571
 62
7
  0
LINE
  6
BYLAYER
  8
0
 10
-69.6338605560365
 11
-69.9266798331449
 20
19.1229685403571
 21
18.4221251668631
 62
7
  0
LINE
  6
BYLAYER
  8
0
 10
-69.9266798331449
 11
-70.6266798331449
 20
18.4221251668631
 21
18.1294745644535
 62
7
  0
LINE
  6
BYLAYER
  8
0
 10
-70.6266798331449
 11
-70.6266798331449
 20
18.1294745644535
 21
18.1294745644535
 62
7
  0
LINE
  6
BYLAYER
  8
0
 10
-70.6266798331449
 11
-71.3359569415786
 20
18.1294745644535
 21
18.4221251668631
 62
7
  0
LINE
  6
BYLAYER
  8
0
 10
-71.3359569415786
 11
-71.6242220018195
 20
18.4221251668631
 21
19.1229685403571
 62
7
  0
LINE
  6
BYLAYER
  8
0
 10
-71.6242220018195
 11
-71.6242220018195
 20
19.1229685403571
 21
20.1240528777066
 62
7
  0
LINE
  6
BYLAYER
  8
0
 10
-54.7811256162775
 11
-54.7811256162775
 20
20.1240528777066
 21
19.1229685403571
 62
7
  0
LINE
  6
BYLAYER
  8
0
 10
-54.7811256162775
 11
-55.0746195921811
 20
19.1229685403571
 21
18.4221251668631
 62
7
  0
LINE
  6
BYLAYER
  8
0
 10
-55.0746195921811
 11
-55.778836459651
 20
18.4221251668631
 21
18.1294745644535
 62
7
  0
LINE
  6
BYLAYER
  8
0
 10
-55.778836459651
 11
-55.778836459651
 20
18.1294745644535
 21
18.1294745644535
 62
7
  0
LINE
  6
BYLAYER
  8
0
 10
-55.778836459651
 11
-56.4838967006148
 20
18.1294745644535
 21
18.4221251668631
 62
7
  0
LINE
  6
BYLAYER
  8
0
 10
-56.4838967006148
 11
-56.7765473030244
 20
18.4221251668631
 21
19.1229685403571
 62
7
  0
LINE
  6
BYLAYER
  8
0
 10
-56.7765473030244
 11
-56.7765473030244
 20
19.1229685403571
 21
20.1240528777066
 62
7
  0
LINE
  6
BYLAYER
  8
0
 10
-49.7757039295305
 11
-49.7757039295305
 20
20.038028781321
 21
19.0352576969836
 62
7
  0
LINE
  6
BYLAYER
  8
0
 10
-49.7757039295305
 11
-50.0683545319401
 20
19.0352576969836
 21
18.3310408295138
 62
7
  0
LINE
  6
BYLAYER
  8
0
 10
-50.0683545319401
 11
-50.773414772904
 20
18.3310408295138
 21
18.0383902271041
 62
7
  0
LINE
  6
BYLAYER
  8
0
 10
-50.773414772904
 11
-50.773414772904
 20
18.0383902271041
 21
18.0383902271041
 62
7
  0
LINE
  6
BYLAYER
  8
0
 10
-50.773414772904
 11
-51.4776316403738
 20
18.0383902271041
 21
18.3310408295138
 62
7
  0
LINE
  6
BYLAYER
  8
0
 10
-51.4776316403738
 11
-51.7660653753136
 20
18.3310408295138
 21
19.0352576969836
 62
7
  0
LINE
  6
BYLAYER
  8
0
 10
-51.7660653753136
 11
-51.7660653753136
 20
19.0352576969836
 21
20.038028781321
 62
7
  0
LINE
  6
BYLAYER
  8
0
 10
-44.7652220018196
 11
-44.7652220018196
 20
20.1240528777066
 21
19.1229685403571
 62
7
  0
LINE
  6
BYLAYER
  8
0
 10
-44.7652220018196
 11
-45.0578726042292
 20
19.1229685403571
 21
18.4221251668631
 62
7
  0
LINE
  6
BYLAYER
  8
0
 10
-45.0578726042292
 11
-45.7629328451931
 20
18.4221251668631
 21
18.1294745644535
 62
7
  0
LINE
  6
BYLAYER
  8
0
 10
-45.7629328451931
 11
-45.7629328451931
 20
18.1294745644535
 21
18.1294745644535
 62
7
  0
LINE
  6
BYLAYER
  8
0
 10
-45.7629328451931
 11
-46.467149712663
 20
18.1294745644535
 21
18.4221251668631
 62
7
  0
LINE
  6
BYLAYER
  8
0
 10
-46.467149712663
 11
-46.7606436885666
 20
18.4221251668631
 21
19.1229685403571
 62
7
  0
LINE
  6
BYLAYER
  8
0
 10
-46.7606436885666
 11
-46.7606436885666
 20
19.1229685403571
 21
20.1240528777066
 62
7
  0
LINE
  6
BYLAYER
  8
0
 10
-39.7598003150727
 11
-39.7598003150727
 20
20.038028781321
 21
19.0352576969836
 62
7
  0
LINE
  6
BYLAYER
  8
0
 10
-39.7598003150727
 11
-40.0524509174822
 20
19.0352576969836
 21
18.3310408295138
 62
7
  0
LINE
  6
BYLAYER
  8
0
 10
-40.0524509174822
 11
-40.7524509174822
 20
18.3310408295138
 21
18.0383902271041
 62
7
  0
LINE
  6
BYLAYER
  8
0
 10
-40.7524509174822
 11
-40.7524509174822
 20
18.0383902271041
 21
18.0383902271041
 62
7
  0
LINE
  6
BYLAYER
  8
0
 10
-40.7524509174822
 11
-41.461728025916
 20
18.0383902271041
 21
18.3310408295138
 62
7
  0
LINE
  6
BYLAYER
  8
0
 10
-41.461728025916
 11
-41.7501617608557
 20
18.3310408295138
 21
19.0352576969836
 62
7
  0
LINE
  6
BYLAYER
  8
0
 10
-41.7501617608557
 11
-41.7501617608557
 20
19.0352576969836
 21
20.038028781321
 62
7
  0
LINE
  6
BYLAYER
  8
0
 10
-34.7493183873617
 11
-34.7493183873617
 20
20.1240528777066
 21
19.1229685403571
 62
7
  0
LINE
  6
BYLAYER
  8
0
 10
-34.7493183873617
 11
-35.0419689897714
 20
19.1229685403571
 21
18.4221251668631
 62
7
  0
LINE
  6
BYLAYER
  8
0
 10
-35.0419689897714
 11
-35.7470292307352
 20
18.4221251668631
 21
18.1294745644535
 62
7
  0
LINE
  6
BYLAYER
  8
0
 10
-35.7470292307352
 11
-35.7470292307352
 20
18.1294745644535
 21
18.1294745644535
 62
7
  0
LINE
  6
BYLAYER
  8
0
 10
-35.7470292307352
 11
-36.4512460982051
 20
18.1294745644535
 21
18.4221251668631
 62
7
  0
LINE
  6
BYLAYER
  8
0
 10
-36.4512460982051
 11
-36.7396798331449
 20
18.4221251668631
 21
19.1229685403571
 62
7
  0
LINE
  6
BYLAYER
  8
0
 10
-36.7396798331449
 11
-36.7396798331449
 20
19.1229685403571
 21
20.1240528777066
 62
7
  0
LINE
  6
BYLAYER
  8
0
 10
-29.8307641704943
 11
-29.8307641704943
 20
20.1240528777066
 21
19.1229685403571
 62
7
  0
LINE
  6
BYLAYER
  8
0
 10
-29.8307641704943
 11
-30.123414772904
 20
19.1229685403571
 21
18.4221251668631
 62
7
  0
LINE
  6
BYLAYER
  8
0
 10
-30.123414772904
 11
-30.8284750138677
 20
18.4221251668631
 21
18.1294745644535
 62
7
  0
LINE
  6
BYLAYER
  8
0
 10
-30.8284750138677
 11
-30.8284750138677
 20
18.1294745644535
 21
18.1294745644535
 62
7
  0
LINE
  6
BYLAYER
  8
0
 10
-30.8284750138677
 11
-31.5326918813377
 20
18.1294745644535
 21
18.4221251668631
 62
7
  0
LINE
  6
BYLAYER
  8
0
 10
-31.5326918813377
 11
-31.8202822427835
 20
18.4221251668631
 21
19.1229685403571
 62
7
  0
LINE
  6
BYLAYER
  8
0
 10
-31.8202822427835
 11
-31.8202822427835
 20
19.1229685403571
 21
20.1240528777066
 62
7
  0
LINE
  6
BYLAYER
  8
0
 10
-29.8307641704943
 11
-29.8307641704943
 20
20.1240528777066
 21
19.1229685403571
 62
7
  0
LINE
  6
BYLAYER
  8
0
 10
-29.8307641704943
 11
-30.123414772904
 20
19.1229685403571
 21
18.4221251668631
 62
7
  0
LINE
  6
BYLAYER
  8
0
 10
-30.123414772904
 11
-30.8284750138677
 20
18.4221251668631
 21
18.1294745644535
 62
7
  0
LINE
  6
BYLAYER
  8
0
 10
-30.8284750138677
 11
-30.8284750138677
 20
18.1294745644535
 21
18.1294745644535
 62
7
  0
LINE
  6
BYLAYER
  8
0
 10
-30.8284750138677
 11
-31.5326918813377
 20
18.1294745644535
 21
18.4221251668631
 62
7
  0
LINE
  6
BYLAYER
  8
0
 10
-31.5326918813377
 11
-31.8202822427835
 20
18.4221251668631
 21
19.1229685403571
 62
7
  0
LINE
  6
BYLAYER
  8
0
 10
-31.8202822427835
 11
-31.8202822427835
 20
19.1229685403571
 21
20.1240528777066
 62
7
  0
LINE
  6
BYLAYER
  8
0
 10
-14.8912460982052
 11
-14.8912460982052
 20
20.0928480584295
 21
19.0951372150561
 62
7
  0
LINE
  6
BYLAYER
  8
0
 10
-14.8912460982052
 11
-15.1838967006149
 20
19.0951372150561
 21
18.3909203475862
 62
7
  0
LINE
  6
BYLAYER
  8
0
 10
-15.1838967006149
 11
-15.8889569415787
 20
18.3909203475862
 21
18.0982697451765
 62
7
  0
LINE
  6
BYLAYER
  8
0
 10
-15.8889569415787
 11
-15.8889569415787
 20
18.0982697451765
 21
18.0982697451765
 62
7
  0
LINE
  6
BYLAYER
  8
0
 10
-15.8889569415787
 11
-16.5931738090484
 20
18.0982697451765
 21
18.3909203475862
 62
7
  0
LINE
  6
BYLAYER
  8
0
 10
-16.5931738090484
 11
-16.8858244114581
 20
18.3909203475862
 21
19.0951372150561
 62
7
  0
LINE
  6
BYLAYER
  8
0
 10
-16.8858244114581
 11
-16.8858244114581
 20
19.0951372150561
 21
20.0928480584295
 62
7
  0
LINE
  6
BYLAYER
  8
0
 10
-69.6338605560365
 11
-69.6338605560365
 20
63.7897155283089
 21
64.7865829981886
 62
7
  0
LINE
  6
BYLAYER
  8
0
 10
-69.6338605560365
 11
-69.9266798331449
 20
64.7865829981886
 21
65.4916432391523
 62
7
  0
LINE
  6
BYLAYER
  8
0
 10
-69.9266798331449
 11
-70.6266798331449
 20
65.4916432391523
 21
65.785137215056
 62
7
  0
LINE
  6
BYLAYER
  8
0
 10
-70.6266798331449
 11
-70.6266798331449
 20
65.785137215056
 21
65.785137215056
 62
7
  0
LINE
  6
BYLAYER
  8
0
 10
-70.6266798331449
 11
-71.3359569415786
 20
65.785137215056
 21
65.4916432391523
 62
7
  0
LINE
  6
BYLAYER
  8
0
 10
-71.3359569415786
 11
-71.6242220018195
 20
65.4916432391523
 21
64.7865829981886
 62
7
  0
LINE
  6
BYLAYER
  8
0
 10
-71.6242220018195
 11
-71.6242220018195
 20
64.7865829981886
 21
63.7897155283089
 62
7
  0
LINE
  6
BYLAYER
  8
0
 10
-54.7811256162775
 11
-54.7811256162775
 20
63.7897155283089
 21
64.7865829981886
 62
7
  0
LINE
  6
BYLAYER
  8
0
 10
-54.7811256162775
 11
-55.0746195921811
 20
64.7865829981886
 21
65.4916432391523
 62
7
  0
LINE
  6
BYLAYER
  8
0
 10
-55.0746195921811
 11
-55.778836459651
 20
65.4916432391523
 21
65.785137215056
 62
7
  0
LINE
  6
BYLAYER
  8
0
 10
-55.778836459651
 11
-55.778836459651
 20
65.785137215056
 21
65.785137215056
 62
7
  0
LINE
  6
BYLAYER
  8
0
 10
-55.778836459651
 11
-56.4838967006148
 20
65.785137215056
 21
65.4916432391523
 62
7
  0
LINE
  6
BYLAYER
  8
0
 10
-56.4838967006148
 11
-56.7765473030244
 20
65.4916432391523
 21
64.7865829981886
 62
7
  0
LINE
  6
BYLAYER
  8
0
 10
-56.7765473030244
 11
-56.7765473030244
 20
64.7865829981886
 21
63.7897155283089
 62
7
  0
LINE
  6
BYLAYER
  8
0
 10
-49.7757039295305
 11
-49.7757039295305
 20
63.8765829981885
 21
64.8734504680681
 62
7
  0
LINE
  6
BYLAYER
  8
0
 10
-49.7757039295305
 11
-50.0683545319401
 20
64.8734504680681
 21
65.5785107090318
 62
7
  0
LINE
  6
BYLAYER
  8
0
 10
-50.0683545319401
 11
-50.773414772904
 20
65.5785107090318
 21
65.8711613114415
 62
7
  0
LINE
  6
BYLAYER
  8
0
 10
-50.773414772904
 11
-50.773414772904
 20
65.8711613114415
 21
65.8711613114415
 62
7
  0
LINE
  6
BYLAYER
  8
0
 10
-50.773414772904
 11
-51.4776316403738
 20
65.8711613114415
 21
65.5785107090318
 62
7
  0
LINE
  6
BYLAYER
  8
0
 10
-51.4776316403738
 11
-51.7660653753136
 20
65.5785107090318
 21
64.8734504680681
 62
7
  0
LINE
  6
BYLAYER
  8
0
 10
-51.7660653753136
 11
-51.7660653753136
 20
64.8734504680681
 21
63.8765829981885
 62
7
  0
LINE
  6
BYLAYER
  8
0
 10
-44.7652220018196
 11
-44.7652220018196
 20
63.7897155283089
 21
64.7865829981886
 62
7
  0
LINE
  6
BYLAYER
  8
0
 10
-44.7652220018196
 11
-45.0578726042292
 20
64.7865829981886
 21
65.4916432391523
 62
7
  0
LINE
  6
BYLAYER
  8
0
 10
-45.0578726042292
 11
-45.7629328451931
 20
65.4916432391523
 21
65.785137215056
 62
7
  0
LINE
  6
BYLAYER
  8
0
 10
-45.7629328451931
 11
-45.7629328451931
 20
65.785137215056
 21
65.785137215056
 62
7
  0
LINE
  6
BYLAYER
  8
0
 10
-45.7629328451931
 11
-46.467149712663
 20
65.785137215056
 21
65.4916432391523
 62
7
  0
LINE
  6
BYLAYER
  8
0
 10
-46.467149712663
 11
-46.7606436885666
 20
65.4916432391523
 21
64.7865829981886
 62
7
  0
LINE
  6
BYLAYER
  8
0
 10
-46.7606436885666
 11
-46.7606436885666
 20
64.7865829981886
 21
63.7897155283089
 62
7
  0
LINE
  6
BYLAYER
  8
0
 10
-39.7598003150727
 11
-39.7598003150727
 20
63.8765829981885
 21
64.8734504680681
 62
7
  0
LINE
  6
BYLAYER
  8
0
 10
-39.7598003150727
 11
-40.0524509174822
 20
64.8734504680681
 21
65.5785107090318
 62
7
  0
LINE
  6
BYLAYER
  8
0
 10
-40.0524509174822
 11
-40.7524509174822
 20
65.5785107090318
 21
65.8711613114415
 62
7
  0
LINE
  6
BYLAYER
  8
0
 10
-40.7524509174822
 11
-40.7524509174822
 20
65.8711613114415
 21
65.8711613114415
 62
7
  0
LINE
  6
BYLAYER
  8
0
 10
-40.7524509174822
 11
-41.461728025916
 20
65.8711613114415
 21
65.5785107090318
 62
7
  0
LINE
  6
BYLAYER
  8
0
 10
-41.461728025916
 11
-41.7501617608557
 20
65.5785107090318
 21
64.8734504680681
 62
7
  0
LINE
  6
BYLAYER
  8
0
 10
-41.7501617608557
 11
-41.7501617608557
 20
64.8734504680681
 21
63.8765829981885
 62
7
  0
LINE
  6
BYLAYER
  8
0
 10
-34.7493183873617
 11
-34.7493183873617
 20
63.7897155283089
 21
64.7865829981886
 62
7
  0
LINE
  6
BYLAYER
  8
0
 10
-34.7493183873617
 11
-35.0419689897714
 20
64.7865829981886
 21
65.4916432391523
 62
7
  0
LINE
  6
BYLAYER
  8
0
 10
-35.0419689897714
 11
-35.7470292307352
 20
65.4916432391523
 21
65.785137215056
 62
7
  0
LINE
  6
BYLAYER
  8
0
 10
-35.7470292307352
 11
-35.7470292307352
 20
65.785137215056
 21
65.785137215056
 62
7
  0
LINE
  6
BYLAYER
  8
0
 10
-35.7470292307352
 11
-36.4512460982051
 20
65.785137215056
 21
65.4916432391523
 62
7
  0
LINE
  6
BYLAYER
  8
0
 10
-36.4512460982051
 11
-36.7396798331449
 20
65.4916432391523
 21
64.7865829981886
 62
7
  0
LINE
  6
BYLAYER
  8
0
 10
-36.7396798331449
 11
-36.7396798331449
 20
64.7865829981886
 21
63.7897155283089
 62
7
  0
LINE
  6
BYLAYER
  8
0
 10
-29.8307641704943
 11
-29.8307641704943
 20
63.7897155283089
 21
64.7865829981886
 62
7
  0
LINE
  6
BYLAYER
  8
0
 10
-29.8307641704943
 11
-30.123414772904
 20
64.7865829981886
 21
65.4916432391523
 62
7
  0
LINE
  6
BYLAYER
  8
0
 10
-30.123414772904
 11
-30.8284750138677
 20
65.4916432391523
 21
65.785137215056
 62
7
  0
LINE
  6
BYLAYER
  8
0
 10
-30.8284750138677
 11
-30.8284750138677
 20
65.785137215056
 21
65.785137215056
 62
7
  0
LINE
  6
BYLAYER
  8
0
 10
-30.8284750138677
 11
-31.5326918813377
 20
65.785137215056
 21
65.4916432391523
 62
7
  0
LINE
  6
BYLAYER
  8
0
 10
-31.5326918813377
 11
-31.8202822427835
 20
65.4916432391523
 21
64.7865829981886
 62
7
  0
LINE
  6
BYLAYER
  8
0
 10
-31.8202822427835
 11
-31.8202822427835
 20
64.7865829981886
 21
63.7897155283089
 62
7
  0
LINE
  6
BYLAYER
  8
0
 10
-29.8307641704943
 11
-29.8307641704943
 20
63.7897155283089
 21
64.7865829981886
 62
7
  0
LINE
  6
BYLAYER
  8
0
 10
-29.8307641704943
 11
-30.123414772904
 20
64.7865829981886
 21
65.4916432391523
 62
7
  0
LINE
  6
BYLAYER
  8
0
 10
-30.123414772904
 11
-30.8284750138677
 20
65.4916432391523
 21
65.785137215056
 62
7
  0
LINE
  6
BYLAYER
  8
0
 10
-30.8284750138677
 11
-30.8284750138677
 20
65.785137215056
 21
65.785137215056
 62
7
  0
LINE
  6
BYLAYER
  8
0
 10
-30.8284750138677
 11
-31.5326918813377
 20
65.785137215056
 21
65.4916432391523
 62
7
  0
LINE
  6
BYLAYER
  8
0
 10
-31.5326918813377
 11
-31.8202822427835
 20
65.4916432391523
 21
64.7865829981886
 62
7
  0
LINE
  6
BYLAYER
  8
0
 10
-31.8202822427835
 11
-31.8202822427835
 20
64.7865829981886
 21
63.7897155283089
 62
7
  0
LINE
  6
BYLAYER
  8
0
 10
-14.8912460982052
 11
-14.8912460982052
 20
63.8167034801163
 21
64.8186311909595
 62
7
  0
LINE
  6
BYLAYER
  8
0
 10
-14.8912460982052
 11
-15.1838967006149
 20
64.8186311909595
 21
65.5236914319233
 62
7
  0
LINE
  6
BYLAYER
  8
0
 10
-15.1838967006149
 11
-15.8889569415787
 20
65.5236914319233
 21
65.8121251668631
 62
7
  0
LINE
  6
BYLAYER
  8
0
 10
-15.8889569415787
 11
-15.8889569415787
 20
65.8121251668631
 21
65.8121251668631
 62
7
  0
LINE
  6
BYLAYER
  8
0
 10
-15.8889569415787
 11
-16.5931738090484
 20
65.8121251668631
 21
65.5236914319233
 62
7
  0
LINE
  6
BYLAYER
  8
0
 10
-16.5931738090484
 11
-16.8858244114581
 20
65.5236914319233
 21
64.8186311909595
 62
7
  0
LINE
  6
BYLAYER
  8
0
 10
-16.8858244114581
 11
-16.8858244114581
 20
64.8186311909595
 21
63.8167034801163
 62
7
  0
LINE
  6
BYLAYER
  8
0
 10
-23.0905232066389
 11
-23.0905232066389
 20
32.0350167331281
 21
32.9779082993933
 62
7
  0
LINE
  6
BYLAYER
  8
0
 10
-23.6623304355546
 11
-23.6623304355546
 20
32.0350167331281
 21
32.9779082993933
 62
7
  0
LINE
  6
BYLAYER
  8
0
 10
-23.0905232066389
 11
-23.0905232066389
 20
40.9941733596343
 21
40.0057396246946
 62
7
  0
LINE
  6
BYLAYER
  8
0
 10
-23.6623304355546
 11
-23.6623304355546
 20
40.9300769740921
 21
40.0276673355379
 62
7
  0
LINE
  6
BYLAYER
  8
0
 10
-19.9287159777234
 11
-18.8998003150727
 20
36.138872154815
 21
36.138872154815
 62
7
  0
LINE
  6
BYLAYER
  8
0
 10
-19.9287159777234
 11
-18.8770292307352
 20
36.7562215524052
 21
36.7562215524052
 62
7
  0
LINE
  6
BYLAYER
  8
0
 10
-27.8167882668799
 11
-26.9160653753136
 20
36.138872154815
 21
36.138872154815
 62
7
  0
LINE
  6
BYLAYER
  8
0
 10
-27.8404027247112
 11
-26.9160653753136
 20
36.7562215524052
 21
36.7562215524052
 62
7
  0
LINE
  6
BYLAYER
  8
0
 10
-23.3561858572413
 11
-20.8943786283257
 20
33.0048962512004
 21
34.0295950463812
 62
7
  0
LINE
  6
BYLAYER
  8
0
 10
-20.8943786283257
 11
-19.869679833145
 20
34.0295950463812
 21
36.4914022752969
 62
7
  0
LINE
  6
BYLAYER
  8
0
 10
-19.869679833145
 11
-20.8943786283257
 20
36.4914022752969
 21
38.9574263716825
 62
7
  0
LINE
  6
BYLAYER
  8
0
 10
-20.8943786283257
 11
-23.3561858572413
 20
38.9574263716825
 21
39.9779082993933
 62
7
  0
LINE
  6
BYLAYER
  8
0
 10
-23.3561858572413
 11
-25.8222099536269
 20
39.9779082993933
 21
38.9574263716825
 62
7
  0
LINE
  6
BYLAYER
  8
0
 10
-25.8222099536269
 11
-26.8426918813377
 20
38.9574263716825
 21
36.4914022752969
 62
7
  0
LINE
  6
BYLAYER
  8
0
 10
-26.8426918813377
 11
-25.8222099536269
 20
36.4914022752969
 21
34.0295950463812
 62
7
  0
LINE
  6
BYLAYER
  8
0
 10
-25.8222099536269
 11
-23.3561858572413
 20
34.0295950463812
 21
33.0048962512004
 62
7
  0
LINE
  6
BYLAYER
  8
0
 10
-23.3561858572413
 11
-23.3561858572413
 20
33.0048962512004
 21
33.0048962512004
 62
7
  0
LINE
  6
BYLAYER
  8
0
 10
-23.3561858572413
 11
-21.6120894716991
 20
32.0080287813211
 21
32.3639323957788
 62
7
  0
LINE
  6
BYLAYER
  8
0
 10
-21.6120894716991
 11
-20.1901617608558
 20
32.3639323957788
 21
33.3253781789114
 62
7
  0
LINE
  6
BYLAYER
  8
0
 10
-20.1901617608558
 11
-19.2287159777232
 20
33.3253781789114
 21
34.7489926367427
 62
7
  0
LINE
  6
BYLAYER
  8
0
 10
-19.2287159777232
 11
-18.8728123632655
 20
34.7489926367427
 21
36.4914022752969
 62
7
  0
LINE
  6
BYLAYER
  8
0
 10
-18.8728123632655
 11
-19.2287159777232
 20
36.4914022752969
 21
38.2397155283089
 62
7
  0
LINE
  6
BYLAYER
  8
0
 10
-19.2287159777232
 11
-20.1901617608558
 20
38.2397155283089
 21
39.6624866126463
 62
7
  0
LINE
  6
BYLAYER
  8
0
 10
-20.1901617608558
 11
-21.6120894716991
 20
39.6624866126463
 21
40.6230890222849
 62
7
  0
LINE
  6
BYLAYER
  8
0
 10
-21.6120894716991
 11
-23.3561858572413
 20
40.6230890222849
 21
40.9756191427668
 62
7
  0
LINE
  6
BYLAYER
  8
0
 10
-23.3561858572413
 11
-25.1044991102534
 20
40.9756191427668
 21
40.6230890222849
 62
7
  0
LINE
  6
BYLAYER
  8
0
 10
-25.1044991102534
 11
-26.5272701945907
 20
40.6230890222849
 21
39.6624866126463
 62
7
  0
LINE
  6
BYLAYER
  8
0
 10
-26.5272701945907
 11
-27.4878726042293
 20
39.6624866126463
 21
38.2397155283089
 62
7
  0
LINE
  6
BYLAYER
  8
0
 10
-27.4878726042293
 11
-27.8404027247112
 20
38.2397155283089
 21
36.4914022752969
 62
7
  0
LINE
  6
BYLAYER
  8
0
 10
-27.8404027247112
 11
-27.4878726042293
 20
36.4914022752969
 21
34.7489926367427
 62
7
  0
LINE
  6
BYLAYER
  8
0
 10
-27.4878726042293
 11
-26.5272701945907
 20
34.7489926367427
 21
33.3253781789114
 62
7
  0
LINE
  6
BYLAYER
  8
0
 10
-26.5272701945907
 11
-25.1044991102534
 20
33.3253781789114
 21
32.3639323957788
 62
7
  0
LINE
  6
BYLAYER
  8
0
 10
-25.1044991102534
 11
-23.3561858572413
 20
32.3639323957788
 21
32.0080287813211
 62
7
  0
LINE
  6
BYLAYER
  8
0
 10
-23.3561858572413
 11
-23.3561858572413
 20
32.0080287813211
 21
32.0080287813211
 62
7
  0
LINE
  6
BYLAYER
  8
0
 10
-20.8075111584462
 11
-20.1024509174823
 20
21.963450468068
 21
22.2561010704776
 62
7
  0
LINE
  6
BYLAYER
  8
0
 10
-20.1024509174823
 11
-19.8098003150727
 20
22.2561010704776
 21
22.9569444439717
 62
7
  0
LINE
  6
BYLAYER
  8
0
 10
-19.8098003150727
 11
-19.8098003150727
 20
22.9569444439717
 21
28.9373058897548
 62
7
  0
LINE
  6
BYLAYER
  8
0
 10
-19.8098003150727
 11
-20.1024509174823
 20
28.9373058897548
 21
29.6415227572247
 62
7
  0
LINE
  6
BYLAYER
  8
0
 10
-20.1024509174823
 11
-20.8075111584462
 20
29.6415227572247
 21
29.9341733596342
 62
7
  0
LINE
  6
BYLAYER
  8
0
 10
-20.8075111584462
 11
-20.8075111584462
 20
29.9341733596342
 21
29.9341733596342
 62
7
  0
LINE
  6
BYLAYER
  8
0
 10
-20.8075111584462
 11
-21.5159448933859
 20
29.9341733596342
 21
29.6415227572247
 62
7
  0
LINE
  6
BYLAYER
  8
0
 10
-21.5159448933859
 11
-21.8052220018197
 20
29.6415227572247
 21
28.9373058897548
 62
7
  0
LINE
  6
BYLAYER
  8
0
 10
-21.8052220018197
 11
-21.8052220018197
 20
28.9373058897548
 21
22.9569444439717
 62
7
  0
LINE
  6
BYLAYER
  8
0
 10
-21.8052220018197
 11
-21.5159448933859
 20
22.9569444439717
 21
22.2561010704776
 62
7
  0
LINE
  6
BYLAYER
  8
0
 10
-21.5159448933859
 11
-20.8075111584462
 20
22.2561010704776
 21
21.963450468068
 62
7
  0
LINE
  6
BYLAYER
  8
0
 10
-20.8075111584462
 11
-20.8075111584462
 20
21.963450468068
 21
21.963450468068
 62
7
  0
LINE
  6
BYLAYER
  8
0
 10
-20.8075111584462
 11
-20.8075111584462
 20
21.963450468068
 21
21.963450468068
 62
7
  0
LINE
  6
BYLAYER
  8
0
 10
-25.817149712663
 11
-25.1137762186871
 20
21.963450468068
 21
22.2561010704776
 62
7
  0
LINE
  6
BYLAYER
  8
0
 10
-25.1137762186871
 11
-24.8211256162775
 20
22.2561010704776
 21
22.9569444439717
 62
7
  0
LINE
  6
BYLAYER
  8
0
 10
-24.8211256162775
 11
-24.8211256162775
 20
22.9569444439717
 21
28.9373058897548
 62
7
  0
LINE
  6
BYLAYER
  8
0
 10
-24.8211256162775
 11
-25.1137762186871
 20
28.9373058897548
 21
29.6415227572247
 62
7
  0
LINE
  6
BYLAYER
  8
0
 10
-25.1137762186871
 11
-25.817149712663
 20
29.6415227572247
 21
29.9341733596342
 62
7
  0
LINE
  6
BYLAYER
  8
0
 10
-25.817149712663
 11
-25.817149712663
 20
29.9341733596342
 21
29.9341733596342
 62
7
  0
LINE
  6
BYLAYER
  8
0
 10
-25.817149712663
 11
-26.5230533271207
 20
29.9341733596342
 21
29.6415227572247
 62
7
  0
LINE
  6
BYLAYER
  8
0
 10
-26.5230533271207
 11
-26.8157039295306
 20
29.6415227572247
 21
28.9373058897548
 62
7
  0
LINE
  6
BYLAYER
  8
0
 10
-26.8157039295306
 11
-26.8157039295306
 20
28.9373058897548
 21
22.9569444439717
 62
7
  0
LINE
  6
BYLAYER
  8
0
 10
-26.8157039295306
 11
-26.5230533271207
 20
22.9569444439717
 21
22.2561010704776
 62
7
  0
LINE
  6
BYLAYER
  8
0
 10
-26.5230533271207
 11
-25.817149712663
 20
22.2561010704776
 21
21.963450468068
 62
7
  0
LINE
  6
BYLAYER
  8
0
 10
-25.817149712663
 11
-25.817149712663
 20
21.963450468068
 21
21.963450468068
 62
7
  0
LINE
  6
BYLAYER
  8
0
 10
-25.817149712663
 11
-25.817149712663
 20
21.963450468068
 21
21.963450468068
 62
7
  0
LINE
  6
BYLAYER
  8
0
 10
-15.8889569415787
 11
-15.1838967006149
 20
21.9001974560198
 21
22.1928480584294
 62
7
  0
LINE
  6
BYLAYER
  8
0
 10
-15.1838967006149
 11
-14.8912460982052
 20
22.1928480584294
 21
22.8970649258993
 62
7
  0
LINE
  6
BYLAYER
  8
0
 10
-14.8912460982052
 11
-14.8912460982052
 20
22.8970649258993
 21
38.8393540825258
 62
7
  0
LINE
  6
BYLAYER
  8
0
 10
-14.8912460982052
 11
-15.1838967006149
 20
38.8393540825258
 21
39.5427275765018
 62
7
  0
LINE
  6
BYLAYER
  8
0
 10
-15.1838967006149
 11
-15.8889569415787
 20
39.5427275765018
 21
39.8362215524053
 62
7
  0
LINE
  6
BYLAYER
  8
0
 10
-15.8889569415787
 11
-15.8889569415787
 20
39.8362215524053
 21
39.8362215524053
 62
7
  0
LINE
  6
BYLAYER
  8
0
 10
-15.8889569415787
 11
-16.5931738090484
 20
39.8362215524053
 21
39.5427275765018
 62
7
  0
LINE
  6
BYLAYER
  8
0
 10
-16.5931738090484
 11
-16.8858244114581
 20
39.5427275765018
 21
38.8393540825258
 62
7
  0
LINE
  6
BYLAYER
  8
0
 10
-16.8858244114581
 11
-16.8858244114581
 20
38.8393540825258
 21
22.8970649258993
 62
7
  0
LINE
  6
BYLAYER
  8
0
 10
-16.8858244114581
 11
-16.5931738090484
 20
22.8970649258993
 21
22.1928480584294
 62
7
  0
LINE
  6
BYLAYER
  8
0
 10
-16.5931738090484
 11
-15.8889569415787
 20
22.1928480584294
 21
21.9001974560198
 62
7
  0
LINE
  6
BYLAYER
  8
0
 10
-15.8889569415787
 11
-15.8889569415787
 20
21.9001974560198
 21
21.9001974560198
 62
7
  0
LINE
  6
BYLAYER
  8
0
 10
-15.8889569415787
 11
-15.8889569415787
 20
21.9001974560198
 21
21.9001974560198
 62
7
  0
LINE
  6
BYLAYER
  8
0
 10
-30.8284750138677
 11
-30.123414772904
 20
21.9912817933692
 21
22.2847757692728
 62
7
  0
LINE
  6
BYLAYER
  8
0
 10
-30.123414772904
 11
-29.8307641704943
 20
22.2847757692728
 21
22.9847757692728
 62
7
  0
LINE
  6
BYLAYER
  8
0
 10
-29.8307641704943
 11
-29.8307641704943
 20
22.9847757692728
 21
38.9262215524053
 62
7
  0
LINE
  6
BYLAYER
  8
0
 10
-29.8307641704943
 11
-30.123414772904
 20
38.9262215524053
 21
39.6312817933692
 62
7
  0
LINE
  6
BYLAYER
  8
0
 10
-30.123414772904
 11
-30.8284750138677
 20
39.6312817933692
 21
39.9239323957788
 62
7
  0
LINE
  6
BYLAYER
  8
0
 10
-30.8284750138677
 11
-30.8284750138677
 20
39.9239323957788
 21
39.9239323957788
 62
7
  0
LINE
  6
BYLAYER
  8
0
 10
-30.8284750138677
 11
-31.5326918813377
 20
39.9239323957788
 21
39.6312817933692
 62
7
  0
LINE
  6
BYLAYER
  8
0
 10
-31.5326918813377
 11
-31.8202822427835
 20
39.6312817933692
 21
38.9262215524053
 62
7
  0
LINE
  6
BYLAYER
  8
0
 10
-31.8202822427835
 11
-31.8202822427835
 20
38.9262215524053
 21
22.9847757692728
 62
7
  0
LINE
  6
BYLAYER
  8
0
 10
-31.8202822427835
 11
-31.5326918813377
 20
22.9847757692728
 21
22.2847757692728
 62
7
  0
LINE
  6
BYLAYER
  8
0
 10
-31.5326918813377
 11
-30.8284750138677
 20
22.2847757692728
 21
21.9912817933692
 62
7
  0
LINE
  6
BYLAYER
  8
0
 10
-30.8284750138677
 11
-30.8284750138677
 20
21.9912817933692
 21
21.9912817933692
 62
7
  0
LINE
  6
BYLAYER
  8
0
 10
-30.8284750138677
 11
-30.8284750138677
 20
21.9912817933692
 21
21.9912817933692
 62
7
  0
LINE
  6
BYLAYER
  8
0
 10
-15.8889569415787
 11
-15.1838967006149
 20
44.0454986608391
 21
44.3389926367428
 62
7
  0
LINE
  6
BYLAYER
  8
0
 10
-15.1838967006149
 11
-14.8912460982052
 20
44.3389926367428
 21
45.0389926367426
 62
7
  0
LINE
  6
BYLAYER
  8
0
 10
-14.8912460982052
 11
-14.8912460982052
 20
45.0389926367426
 21
60.9804384198752
 62
7
  0
LINE
  6
BYLAYER
  8
0
 10
-14.8912460982052
 11
-15.1838967006149
 20
60.9804384198752
 21
61.6854986608391
 62
7
  0
LINE
  6
BYLAYER
  8
0
 10
-15.1838967006149
 11
-15.8889569415787
 20
61.6854986608391
 21
61.9781492632486
 62
7
  0
LINE
  6
BYLAYER
  8
0
 10
-15.8889569415787
 11
-15.8889569415787
 20
61.9781492632486
 21
61.9781492632486
 62
7
  0
LINE
  6
BYLAYER
  8
0
 10
-15.8889569415787
 11
-16.5931738090484
 20
61.9781492632486
 21
61.6854986608391
 62
7
  0
LINE
  6
BYLAYER
  8
0
 10
-16.5931738090484
 11
-16.8858244114581
 20
61.6854986608391
 21
60.9804384198752
 62
7
  0
LINE
  6
BYLAYER
  8
0
 10
-16.8858244114581
 11
-16.8858244114581
 20
60.9804384198752
 21
45.0389926367426
 62
7
  0
LINE
  6
BYLAYER
  8
0
 10
-16.8858244114581
 11
-16.5931738090484
 20
45.0389926367426
 21
44.3389926367428
 62
7
  0
LINE
  6
BYLAYER
  8
0
 10
-16.5931738090484
 11
-15.8889569415787
 20
44.3389926367428
 21
44.0454986608391
 62
7
  0
LINE
  6
BYLAYER
  8
0
 10
-15.8889569415787
 11
-15.8889569415787
 20
44.0454986608391
 21
44.0454986608391
 62
7
  0
LINE
  6
BYLAYER
  8
0
 10
-15.8889569415787
 11
-15.8889569415787
 20
44.0454986608391
 21
44.0454986608391
 62
7
  0
LINE
  6
BYLAYER
  8
0
 10
-20.8943786283257
 11
-20.1952220018197
 20
44.0454986608391
 21
44.3389926367428
 62
7
  0
LINE
  6
BYLAYER
  8
0
 10
-20.1952220018197
 11
-19.90257139941
 20
44.3389926367428
 21
45.0389926367426
 62
7
  0
LINE
  6
BYLAYER
  8
0
 10
-19.90257139941
 11
-19.90257139941
 20
45.0389926367426
 21
60.9804384198752
 62
7
  0
LINE
  6
BYLAYER
  8
0
 10
-19.90257139941
 11
-20.1952220018197
 20
60.9804384198752
 21
61.6854986608391
 62
7
  0
LINE
  6
BYLAYER
  8
0
 10
-20.1952220018197
 11
-20.8943786283257
 20
61.6854986608391
 21
61.9781492632486
 62
7
  0
LINE
  6
BYLAYER
  8
0
 10
-20.8943786283257
 11
-20.8943786283257
 20
61.9781492632486
 21
61.9781492632486
 62
7
  0
LINE
  6
BYLAYER
  8
0
 10
-20.8943786283257
 11
-21.6044991102534
 20
61.9781492632486
 21
61.6854986608391
 62
7
  0
LINE
  6
BYLAYER
  8
0
 10
-21.6044991102534
 11
-21.8920894716991
 20
61.6854986608391
 21
60.9804384198752
 62
7
  0
LINE
  6
BYLAYER
  8
0
 10
-21.8920894716991
 11
-21.8920894716991
 20
60.9804384198752
 21
45.0389926367426
 62
7
  0
LINE
  6
BYLAYER
  8
0
 10
-21.8920894716991
 11
-21.6044991102534
 20
45.0389926367426
 21
44.3389926367428
 62
7
  0
LINE
  6
BYLAYER
  8
0
 10
-21.6044991102534
 11
-20.8943786283257
 20
44.3389926367428
 21
44.0454986608391
 62
7
  0
LINE
  6
BYLAYER
  8
0
 10
-20.8943786283257
 11
-20.8943786283257
 20
44.0454986608391
 21
44.0454986608391
 62
7
  0
LINE
  6
BYLAYER
  8
0
 10
-20.8943786283257
 11
-20.8943786283257
 20
44.0454986608391
 21
44.0454986608391
 62
7
  0
LINE
  6
BYLAYER
  8
0
 10
-25.817149712663
 11
-25.1137762186871
 20
44.0454986608391
 21
44.3389926367428
 62
7
  0
LINE
  6
BYLAYER
  8
0
 10
-25.1137762186871
 11
-24.8211256162775
 20
44.3389926367428
 21
45.0389926367426
 62
7
  0
LINE
  6
BYLAYER
  8
0
 10
-24.8211256162775
 11
-24.8211256162775
 20
45.0389926367426
 21
60.9804384198752
 62
7
  0
LINE
  6
BYLAYER
  8
0
 10
-24.8211256162775
 11
-25.1137762186871
 20
60.9804384198752
 21
61.6854986608391
 62
7
  0
LINE
  6
BYLAYER
  8
0
 10
-25.1137762186871
 11
-25.817149712663
 20
61.6854986608391
 21
61.9781492632486
 62
7
  0
LINE
  6
BYLAYER
  8
0
 10
-25.817149712663
 11
-25.817149712663
 20
61.9781492632486
 21
61.9781492632486
 62
7
  0
LINE
  6
BYLAYER
  8
0
 10
-25.817149712663
 11
-26.5230533271207
 20
61.9781492632486
 21
61.6854986608391
 62
7
  0
LINE
  6
BYLAYER
  8
0
 10
-26.5230533271207
 11
-26.8157039295306
 20
61.6854986608391
 21
60.9804384198752
 62
7
  0
LINE
  6
BYLAYER
  8
0
 10
-26.8157039295306
 11
-26.8157039295306
 20
60.9804384198752
 21
45.0389926367426
 62
7
  0
LINE
  6
BYLAYER
  8
0
 10
-26.8157039295306
 11
-26.5230533271207
 20
45.0389926367426
 21
44.3389926367428
 62
7
  0
LINE
  6
BYLAYER
  8
0
 10
-26.5230533271207
 11
-25.817149712663
 20
44.3389926367428
 21
44.0454986608391
 62
7
  0
LINE
  6
BYLAYER
  8
0
 10
-25.817149712663
 11
-25.817149712663
 20
44.0454986608391
 21
44.0454986608391
 62
7
  0
LINE
  6
BYLAYER
  8
0
 10
-25.817149712663
 11
-25.817149712663
 20
44.0454986608391
 21
44.0454986608391
 62
7
  0
LINE
  6
BYLAYER
  8
0
 10
-30.8832942909762
 11
-30.1782340500125
 20
44.0412817933692
 21
44.3339323957788
 62
7
  0
LINE
  6
BYLAYER
  8
0
 10
-30.1782340500125
 11
-29.8855834476028
 20
44.3339323957788
 21
45.0389926367426
 62
7
  0
LINE
  6
BYLAYER
  8
0
 10
-29.8855834476028
 11
-29.8855834476028
 20
45.0389926367426
 21
60.9753781789113
 62
7
  0
LINE
  6
BYLAYER
  8
0
 10
-29.8855834476028
 11
-30.1782340500125
 20
60.9753781789113
 21
61.6854986608391
 62
7
  0
LINE
  6
BYLAYER
  8
0
 10
-30.1782340500125
 11
-30.8832942909762
 20
61.6854986608391
 21
61.973089022285
 62
7
  0
LINE
  6
BYLAYER
  8
0
 10
-30.8832942909762
 11
-30.8832942909762
 20
61.973089022285
 21
61.973089022285
 62
7
  0
LINE
  6
BYLAYER
  8
0
 10
-30.8832942909762
 11
-31.5875111584461
 20
61.973089022285
 21
61.6854986608391
 62
7
  0
LINE
  6
BYLAYER
  8
0
 10
-31.5875111584461
 11
-31.8801617608557
 20
61.6854986608391
 21
60.9753781789113
 62
7
  0
LINE
  6
BYLAYER
  8
0
 10
-31.8801617608557
 11
-31.8801617608557
 20
60.9753781789113
 21
45.0389926367426
 62
7
  0
LINE
  6
BYLAYER
  8
0
 10
-31.8801617608557
 11
-31.5875111584461
 20
45.0389926367426
 21
44.3339323957788
 62
7
  0
LINE
  6
BYLAYER
  8
0
 10
-31.5875111584461
 11
-30.8832942909762
 20
44.3339323957788
 21
44.0412817933692
 62
7
  0
LINE
  6
BYLAYER
  8
0
 10
-30.8832942909762
 11
-30.8832942909762
 20
44.0412817933692
 21
44.0412817933692
 62
7
  0
LINE
  6
BYLAYER
  8
0
 10
-30.8832942909762
 11
-30.8832942909762
 20
44.0412817933692
 21
44.0412817933692
 62
7
  0
LINE
  6
BYLAYER
  8
0
 10
-8.16955935121729
 11
-9.16642682109676
 20
80.4446552873451
 21
80.8520046849355
 62
7
  0
LINE
  6
BYLAYER
  8
0
 10
-9.16642682109676
 11
-76.9135232066389
 20
80.8520046849355
 21
80.8520046849355
 62
7
  0
LINE
  6
BYLAYER
  8
0
 10
-76.9135232066389
 11
-77.9065111584461
 20
80.8520046849355
 21
80.4446552873451
 62
7
  0
LINE
  6
BYLAYER
  8
0
 10
-77.9065111584461
 11
-76.9135232066389
 20
3.59308902228497
 21
3.18995649216436
 62
7
  0
LINE
  6
BYLAYER
  8
0
 10
-76.9135232066389
 11
-9.16642682109676
 20
3.18995649216436
 21
3.18995649216436
 62
7
  0
LINE
  6
BYLAYER
  8
0
 10
-9.16642682109676
 11
-8.16955935121729
 20
3.18995649216436
 21
3.59308902228497
 62
7
  0
LINE
  6
BYLAYER
  8
0
 10
-75.7239448933859
 11
-36.0076316403739
 20
62.0599564921645
 21
62.0599564921645
 62
7
  0
LINE
  6
BYLAYER
  8
0
 10
-36.0076316403739
 11
-36.0076316403739
 20
62.0599564921645
 21
21.9963420343331
 62
7
  0
LINE
  6
BYLAYER
  8
0
 10
-36.0076316403739
 11
-75.7239448933859
 20
21.9963420343331
 21
21.9963420343331
 62
7
  0
LINE
  6
BYLAYER
  8
0
 10
-75.7239448933859
 11
-75.7239448933859
 20
21.9963420343331
 21
62.0599564921645
 62
7
  0
LINE
  6
BYLAYER
  8
0
 10
-75.7239448933859
 11
-75.7239448933859
 20
62.0599564921645
 21
62.0599564921645
 62
7
  0
LINE
  6
BYLAYER
  8
0
 10
-9.16642682109676
 11
-8.16955935121729
 20
20.1198360102367
 21
20.5229685403572
 62
7
  0
LINE
  6
BYLAYER
  8
0
 10
-8.16955935121729
 11
-8.16955935121729
 20
20.5229685403572
 21
63.5333299861404
 62
7
  0
LINE
  6
BYLAYER
  8
0
 10
-8.16955935121729
 11
-9.16642682109676
 20
63.5333299861404
 21
63.9364625162608
 62
7
  0
LINE
  6
BYLAYER
  8
0
 10
-9.16642682109676
 11
-76.9135232066389
 20
63.9364625162608
 21
63.9364625162608
 62
7
  0
LINE
  6
BYLAYER
  8
0
 10
-76.9135232066389
 11
-77.9065111584461
 20
63.9364625162608
 21
63.5333299861404
 62
7
  0
LINE
  6
BYLAYER
  8
0
 10
-77.9065111584461
 11
-77.9065111584461
 20
63.5333299861404
 21
20.5229685403572
 62
7
  0
LINE
  6
BYLAYER
  8
0
 10
-77.9065111584461
 11
-76.9135232066389
 20
20.5229685403572
 21
20.1198360102367
 62
7
  0
LINE
  6
BYLAYER
  8
0
 10
-76.9135232066389
 11
-9.16642682109676
 20
20.1198360102367
 21
20.1198360102367
 62
7
  0
LINE
  6
BYLAYER
  8
0
 10
-9.16642682109676
 11
-9.16642682109676
 20
20.1198360102367
 21
20.1198360102367
 62
7
  0
LINE
  6
BYLAYER
  8
0
 10
-9.16642682109676
 11
-8.46305332712092
 20
-11.771489290968
 21
-11.4788386885585
 62
7
  0
LINE
  6
BYLAYER
  8
0
 10
-8.46305332712092
 11
-8.16955935121729
 20
-11.4788386885585
 21
-10.7746218210887
 62
7
  0
LINE
  6
BYLAYER
  8
0
 10
-8.16955935121729
 11
-8.16955935121729
 20
-10.7746218210887
 21
94.830920347586
 62
7
  0
LINE
  6
BYLAYER
  8
0
 10
-8.16955935121729
 11
-8.46305332712092
 20
94.830920347586
 21
95.5351372150559
 62
7
  0
LINE
  6
BYLAYER
  8
0
 10
-8.46305332712092
 11
-9.16642682109676
 20
95.5351372150559
 21
95.8277878174656
 62
7
  0
LINE
  6
BYLAYER
  8
0
 10
-9.16642682109676
 11
-76.9135232066389
 20
95.8277878174656
 21
95.8277878174656
 62
7
  0
LINE
  6
BYLAYER
  8
0
 10
-76.9135232066389
 11
-77.6182460982051
 20
95.8277878174656
 21
95.5351372150559
 62
7
  0
LINE
  6
BYLAYER
  8
0
 10
-77.6182460982051
 11
-77.9065111584461
 20
95.5351372150559
 21
94.830920347586
 62
7
  0
LINE
  6
BYLAYER
  8
0
 10
-77.9065111584461
 11
-77.9065111584461
 20
94.830920347586
 21
-10.7746218210887
 62
7
  0
LINE
  6
BYLAYER
  8
0
 10
-77.9065111584461
 11
-77.6182460982051
 20
-10.7746218210887
 21
-11.4788386885585
 62
7
  0
LINE
  6
BYLAYER
  8
0
 10
-77.6182460982051
 11
-76.9135232066389
 20
-11.4788386885585
 21
-11.771489290968
 62
7
  0
LINE
  6
BYLAYER
  8
0
 10
-76.9135232066389
 11
-9.16642682109676
 20
-11.771489290968
 21
-11.771489290968
 62
7
  0
LINE
  6
BYLAYER
  8
0
 10
-9.16642682109676
 11
-9.16642682109676
 20
-11.771489290968
 21
-11.771489290968
 62
7
  0
LINE
  6
BYLAYER
  8
0
 10
148.292320470688
 11
141.895332518881
 20
-96.6536579656669
 21
-94.9373929054259
 62
7
  0
LINE
  6
BYLAYER
  8
0
 10
141.895332518881
 11
141.969549386351
 20
-94.9373929054259
 21
-94.9373929054259
 62
7
  0
LINE
  6
BYLAYER
  8
0
 10
141.969549386351
 11
148.36485059117
 20
-94.9373929054259
 21
-93.2261880861488
 62
7
  0
LINE
  6
BYLAYER
  8
0
 10
148.36485059117
 11
147.524007217676
 20
-93.2261880861488
 21
-93.6934170018114
 62
7
  0
LINE
  6
BYLAYER
  8
0
 10
147.524007217676
 11
146.681477097194
 20
-93.6934170018114
 21
-95.0428145921729
 62
7
  0
LINE
  6
BYLAYER
  8
0
 10
146.681477097194
 11
147.486898783941
 20
-95.0428145921729
 21
-96.2884772427755
 62
7
  0
LINE
  6
BYLAYER
  8
0
 10
147.486898783941
 11
148.292320470688
 20
-96.2884772427755
 21
-96.6536579656669
 62
7
  0
LINE
  6
BYLAYER
  8
0
 10
148.292320470688
 11
148.292320470688
 20
-96.6536579656669
 21
-96.6536579656669
 62
7
  0
LINE
  6
BYLAYER
  8
0
 10
148.292320470688
 11
141.895332518881
 20
-96.6536579656669
 21
-94.9373929054259
 62
7
  0
LINE
  6
BYLAYER
  8
0
 10
141.895332518881
 11
141.969549386351
 20
-94.9373929054259
 21
-94.9373929054259
 62
7
  0
LINE
  6
BYLAYER
  8
0
 10
141.969549386351
 11
148.36485059117
 20
-94.9373929054259
 21
-93.2261880861488
 62
7
  0
LINE
  6
BYLAYER
  8
0
 10
148.36485059117
 11
147.524007217676
 20
-93.2261880861488
 21
-93.6934170018114
 62
7
  0
LINE
  6
BYLAYER
  8
0
 10
147.524007217676
 11
146.681477097194
 20
-93.6934170018114
 21
-95.0428145921729
 62
7
  0
LINE
  6
BYLAYER
  8
0
 10
146.681477097194
 11
147.486898783941
 20
-95.0428145921729
 21
-96.2884772427755
 62
7
  0
LINE
  6
BYLAYER
  8
0
 10
147.486898783941
 11
148.292320470688
 20
-96.2884772427755
 21
-96.6536579656669
 62
7
  0
LINE
  6
BYLAYER
  8
0
 10
148.292320470688
 11
148.292320470688
 20
-96.6536579656669
 21
-96.6536579656669
 62
7
  0
LINE
  6
BYLAYER
  8
0
 10
70.9828023983986
 11
77.375573482736
 20
-93.1393206162694
 21
-94.8505254355465
 62
7
  0
LINE
  6
BYLAYER
  8
0
 10
77.375573482736
 11
77.3021999887601
 20
-94.8505254355465
 21
-94.8505254355465
 62
7
  0
LINE
  6
BYLAYER
  8
0
 10
77.3021999887601
 11
70.9094289044229
 20
-94.8505254355465
 21
-96.5667904957875
 62
7
  0
LINE
  6
BYLAYER
  8
0
 10
70.9094289044229
 11
71.7519590249047
 20
-96.5667904957875
 21
-96.0961880861488
 62
7
  0
LINE
  6
BYLAYER
  8
0
 10
71.7519590249047
 11
72.5936457718927
 20
-96.0961880861488
 21
-94.7501639897633
 62
7
  0
LINE
  6
BYLAYER
  8
0
 10
72.5936457718927
 11
71.7882240851456
 20
-94.7501639897633
 21
-93.5061880861488
 62
7
  0
LINE
  6
BYLAYER
  8
0
 10
71.7882240851456
 11
70.9828023983986
 20
-93.5061880861488
 21
-93.1393206162694
 62
7
  0
LINE
  6
BYLAYER
  8
0
 10
70.9828023983986
 11
70.9828023983986
 20
-93.1393206162694
 21
-93.1393206162694
 62
7
  0
LINE
  6
BYLAYER
  8
0
 10
70.9828023983986
 11
77.375573482736
 20
-93.1393206162694
 21
-94.8505254355465
 62
7
  0
LINE
  6
BYLAYER
  8
0
 10
77.375573482736
 11
77.3021999887601
 20
-94.8505254355465
 21
-94.8505254355465
 62
7
  0
LINE
  6
BYLAYER
  8
0
 10
77.3021999887601
 11
70.9094289044229
 20
-94.8505254355465
 21
-96.5667904957875
 62
7
  0
LINE
  6
BYLAYER
  8
0
 10
70.9094289044229
 11
71.7519590249047
 20
-96.5667904957875
 21
-96.0961880861488
 62
7
  0
LINE
  6
BYLAYER
  8
0
 10
71.7519590249047
 11
72.5936457718927
 20
-96.0961880861488
 21
-94.7501639897633
 62
7
  0
LINE
  6
BYLAYER
  8
0
 10
72.5936457718927
 11
71.7882240851456
 20
-94.7501639897633
 21
-93.5061880861488
 62
7
  0
LINE
  6
BYLAYER
  8
0
 10
71.7882240851456
 11
70.9828023983986
 20
-93.5061880861488
 21
-93.1393206162694
 62
7
  0
LINE
  6
BYLAYER
  8
0
 10
70.9828023983986
 11
70.9828023983986
 20
-93.1393206162694
 21
-93.1393206162694
 62
7
  0
LINE
  6
BYLAYER
  8
0
 10
78.4964168562301
 11
84.8925614345432
 20
-60.0487182066308
 21
-61.7599230259078
 62
7
  0
LINE
  6
BYLAYER
  8
0
 10
84.8925614345432
 11
84.8191879405672
 20
-61.7599230259078
 21
-61.7599230259078
 62
7
  0
LINE
  6
BYLAYER
  8
0
 10
84.8191879405672
 11
78.4238867357481
 20
-61.7599230259078
 21
-63.4761880861488
 62
7
  0
LINE
  6
BYLAYER
  8
0
 10
78.4238867357481
 11
79.264730109242
 20
-63.4761880861488
 21
-63.0055856765104
 62
7
  0
LINE
  6
BYLAYER
  8
0
 10
79.264730109242
 11
80.10641685623
 20
-63.0055856765104
 21
-61.6595615801248
 62
7
  0
LINE
  6
BYLAYER
  8
0
 10
80.10641685623
 11
79.3018385429771
 20
-61.6595615801248
 21
-60.4155856765103
 62
7
  0
LINE
  6
BYLAYER
  8
0
 10
79.3018385429771
 11
78.4964168562301
 20
-60.4155856765103
 21
-60.0487182066308
 62
7
  0
LINE
  6
BYLAYER
  8
0
 10
78.4964168562301
 11
78.4964168562301
 20
-60.0487182066308
 21
-60.0487182066308
 62
7
  0
LINE
  6
BYLAYER
  8
0
 10
78.4964168562301
 11
84.8925614345432
 20
-60.0487182066308
 21
-61.7599230259078
 62
7
  0
LINE
  6
BYLAYER
  8
0
 10
84.8925614345432
 11
84.8191879405672
 20
-61.7599230259078
 21
-61.7599230259078
 62
7
  0
LINE
  6
BYLAYER
  8
0
 10
84.8191879405672
 11
78.4238867357481
 20
-61.7599230259078
 21
-63.4761880861488
 62
7
  0
LINE
  6
BYLAYER
  8
0
 10
78.4238867357481
 11
79.264730109242
 20
-63.4761880861488
 21
-63.0055856765104
 62
7
  0
LINE
  6
BYLAYER
  8
0
 10
79.264730109242
 11
80.10641685623
 20
-63.0055856765104
 21
-61.6595615801248
 62
7
  0
LINE
  6
BYLAYER
  8
0
 10
80.10641685623
 11
79.3018385429771
 20
-61.6595615801248
 21
-60.4155856765103
 62
7
  0
LINE
  6
BYLAYER
  8
0
 10
79.3018385429771
 11
78.4964168562301
 20
-60.4155856765103
 21
-60.0487182066308
 62
7
  0
LINE
  6
BYLAYER
  8
0
 10
78.4964168562301
 11
78.4964168562301
 20
-60.0487182066308
 21
-60.0487182066308
 62
7
  0
LINE
  6
BYLAYER
  8
0
 10
134.331959024905
 11
127.935814446591
 20
-63.4618507367512
 21
-61.7506459174741
 62
7
  0
LINE
  6
BYLAYER
  8
0
 10
127.935814446591
 11
128.009187940567
 20
-61.7506459174741
 21
-61.7506459174741
 62
7
  0
LINE
  6
BYLAYER
  8
0
 10
128.009187940567
 11
134.406175892375
 20
-61.7506459174741
 21
-60.039441098197
 62
7
  0
LINE
  6
BYLAYER
  8
0
 10
134.406175892375
 11
133.563645771893
 20
-60.039441098197
 21
-60.5066700138597
 62
7
  0
LINE
  6
BYLAYER
  8
0
 10
133.563645771893
 11
132.721959024905
 20
-60.5066700138597
 21
-61.8518507367513
 62
7
  0
LINE
  6
BYLAYER
  8
0
 10
132.721959024905
 11
133.527380711652
 20
-61.8518507367513
 21
-63.0966700138597
 62
7
  0
LINE
  6
BYLAYER
  8
0
 10
133.527380711652
 11
134.331959024905
 20
-63.0966700138597
 21
-63.4618507367512
 62
7
  0
LINE
  6
BYLAYER
  8
0
 10
134.331959024905
 11
134.331959024905
 20
-63.4618507367512
 21
-63.4618507367512
 62
7
  0
LINE
  6
BYLAYER
  8
0
 10
134.331959024905
 11
127.935814446591
 20
-63.4618507367512
 21
-61.7506459174741
 62
7
  0
LINE
  6
BYLAYER
  8
0
 10
127.935814446591
 11
128.009187940567
 20
-61.7506459174741
 21
-61.7506459174741
 62
7
  0
LINE
  6
BYLAYER
  8
0
 10
128.009187940567
 11
134.406175892375
 20
-61.7506459174741
 21
-60.039441098197
 62
7
  0
LINE
  6
BYLAYER
  8
0
 10
134.406175892375
 11
133.563645771893
 20
-60.039441098197
 21
-60.5066700138597
 62
7
  0
LINE
  6
BYLAYER
  8
0
 10
133.563645771893
 11
132.721959024905
 20
-60.5066700138597
 21
-61.8518507367513
 62
7
  0
LINE
  6
BYLAYER
  8
0
 10
132.721959024905
 11
133.527380711652
 20
-61.8518507367513
 21
-63.0966700138597
 62
7
  0
LINE
  6
BYLAYER
  8
0
 10
133.527380711652
 11
134.331959024905
 20
-63.0966700138597
 21
-63.4618507367512
 62
7
  0
LINE
  6
BYLAYER
  8
0
 10
134.331959024905
 11
134.331959024905
 20
-63.4618507367512
 21
-63.4618507367512
 62
7
  0
LINE
  6
BYLAYER
  8
0
 10
189.875693964664
 11
191.586898783941
 20
13.5541733596342
 21
19.9461010704778
 62
7
  0
LINE
  6
BYLAYER
  8
0
 10
191.586898783941
 11
191.586898783941
 20
19.9461010704778
 21
19.8727275765017
 62
7
  0
LINE
  6
BYLAYER
  8
0
 10
191.586898783941
 11
193.302320470688
 20
19.8727275765017
 21
13.4807998656584
 62
7
  0
LINE
  6
BYLAYER
  8
0
 10
193.302320470688
 11
192.830874687555
 20
13.4807998656584
 21
14.3224866126462
 62
7
  0
LINE
  6
BYLAYER
  8
0
 10
192.830874687555
 11
191.485693964664
 20
14.3224866126462
 21
15.1650167331281
 62
7
  0
LINE
  6
BYLAYER
  8
0
 10
191.485693964664
 11
190.240874687555
 20
15.1650167331281
 21
14.3587516728874
 62
7
  0
LINE
  6
BYLAYER
  8
0
 10
190.240874687555
 11
189.875693964664
 20
14.3587516728874
 21
13.5541733596342
 62
7
  0
LINE
  6
BYLAYER
  8
0
 10
189.875693964664
 11
189.875693964664
 20
13.5541733596342
 21
13.5541733596342
 62
7
  0
LINE
  6
BYLAYER
  8
0
 10
189.875693964664
 11
191.586898783941
 20
13.5541733596342
 21
19.9461010704778
 62
7
  0
LINE
  6
BYLAYER
  8
0
 10
191.586898783941
 11
191.586898783941
 20
19.9461010704778
 21
19.8727275765017
 62
7
  0
LINE
  6
BYLAYER
  8
0
 10
191.586898783941
 11
193.302320470688
 20
19.8727275765017
 21
13.4807998656584
 62
7
  0
LINE
  6
BYLAYER
  8
0
 10
193.302320470688
 11
192.830874687555
 20
13.4807998656584
 21
14.3224866126462
 62
7
  0
LINE
  6
BYLAYER
  8
0
 10
192.830874687555
 11
191.485693964664
 20
14.3224866126462
 21
15.1650167331281
 62
7
  0
LINE
  6
BYLAYER
  8
0
 10
191.485693964664
 11
190.240874687555
 20
15.1650167331281
 21
14.3587516728874
 62
7
  0
LINE
  6
BYLAYER
  8
0
 10
190.240874687555
 11
189.875693964664
 20
14.3587516728874
 21
13.5541733596342
 62
7
  0
LINE
  6
BYLAYER
  8
0
 10
189.875693964664
 11
189.875693964664
 20
13.5541733596342
 21
13.5541733596342
 62
7
  0
LINE
  6
BYLAYER
  8
0
 10
193.288826494784
 11
191.577621675507
 20
71.0469444439717
 21
64.6499564921644
 62
7
  0
LINE
  6
BYLAYER
  8
0
 10
191.577621675507
 11
191.577621675507
 20
64.6499564921644
 21
64.7224866126464
 62
7
  0
LINE
  6
BYLAYER
  8
0
 10
191.577621675507
 11
189.861356615266
 20
64.7224866126464
 21
71.1194745644536
 62
7
  0
LINE
  6
BYLAYER
  8
0
 10
189.861356615266
 11
190.328585530929
 20
71.1194745644536
 21
70.2777878174655
 62
7
  0
LINE
  6
BYLAYER
  8
0
 10
190.328585530929
 11
191.67798312129
 20
70.2777878174655
 21
69.4361010704777
 62
7
  0
LINE
  6
BYLAYER
  8
0
 10
191.67798312129
 11
192.922802398399
 20
69.4361010704777
 21
70.2406793837307
 62
7
  0
LINE
  6
BYLAYER
  8
0
 10
192.922802398399
 11
193.288826494784
 20
70.2406793837307
 21
71.0469444439717
 62
7
  0
LINE
  6
BYLAYER
  8
0
 10
193.288826494784
 11
193.288826494784
 20
71.0469444439717
 21
71.0469444439717
 62
7
  0
LINE
  6
BYLAYER
  8
0
 10
193.288826494784
 11
191.577621675507
 20
71.0469444439717
 21
64.6499564921644
 62
7
  0
LINE
  6
BYLAYER
  8
0
 10
191.577621675507
 11
191.577621675507
 20
64.6499564921644
 21
64.7224866126464
 62
7
  0
LINE
  6
BYLAYER
  8
0
 10
191.577621675507
 11
189.861356615266
 20
64.7224866126464
 21
71.1194745644536
 62
7
  0
LINE
  6
BYLAYER
  8
0
 10
189.861356615266
 11
190.328585530929
 20
71.1194745644536
 21
70.2777878174655
 62
7
  0
LINE
  6
BYLAYER
  8
0
 10
190.328585530929
 11
191.67798312129
 20
70.2777878174655
 21
69.4361010704777
 62
7
  0
LINE
  6
BYLAYER
  8
0
 10
191.67798312129
 11
192.922802398399
 20
69.4361010704777
 21
70.2406793837307
 62
7
  0
LINE
  6
BYLAYER
  8
0
 10
192.922802398399
 11
193.288826494784
 20
70.2406793837307
 21
71.0469444439717
 62
7
  0
LINE
  6
BYLAYER
  8
0
 10
193.288826494784
 11
193.288826494784
 20
71.0469444439717
 21
71.0469444439717
 62
7
  0
LINE
  6
BYLAYER
  8
0
 10
-126.133306339169
 11
-127.844511158446
 20
-4.99498326687183
 21
-11.386910977715
 62
7
  0
LINE
  6
BYLAYER
  8
0
 10
-127.844511158446
 11
-127.844511158446
 20
-11.386910977715
 21
-11.3143808572332
 62
7
  0
LINE
  6
BYLAYER
  8
0
 10
-127.844511158446
 11
-129.56035453194
 20
-11.3143808572332
 21
-4.9224531463899
 62
7
  0
LINE
  6
BYLAYER
  8
0
 10
-129.56035453194
 11
-129.093631640374
 20
-4.9224531463899
 21
-5.76329651988385
 62
7
  0
LINE
  6
BYLAYER
  8
0
 10
-129.093631640374
 11
-127.743896700615
 20
-5.76329651988385
 21
-6.60582664036576
 62
7
  0
LINE
  6
BYLAYER
  8
0
 10
-127.743896700615
 11
-126.499330435555
 20
-6.60582664036576
 21
-5.80124832711272
 62
7
  0
LINE
  6
BYLAYER
  8
0
 10
-126.499330435555
 11
-126.133306339169
 20
-5.80124832711272
 21
-4.99498326687183
 62
7
  0
LINE
  6
BYLAYER
  8
0
 10
-126.133306339169
 11
-126.133306339169
 20
-4.99498326687183
 21
-4.99498326687183
 62
7
  0
LINE
  6
BYLAYER
  8
0
 10
-126.133306339169
 11
-127.844511158446
 20
-4.99498326687183
 21
-11.386910977715
 62
7
  0
LINE
  6
BYLAYER
  8
0
 10
-127.844511158446
 11
-127.844511158446
 20
-11.386910977715
 21
-11.3143808572332
 62
7
  0
LINE
  6
BYLAYER
  8
0
 10
-127.844511158446
 11
-129.56035453194
 20
-11.3143808572332
 21
-4.9224531463899
 62
7
  0
LINE
  6
BYLAYER
  8
0
 10
-129.56035453194
 11
-129.093631640374
 20
-4.9224531463899
 21
-5.76329651988385
 62
7
  0
LINE
  6
BYLAYER
  8
0
 10
-129.093631640374
 11
-127.743896700615
 20
-5.76329651988385
 21
-6.60582664036576
 62
7
  0
LINE
  6
BYLAYER
  8
0
 10
-127.743896700615
 11
-126.499330435555
 20
-6.60582664036576
 21
-5.80124832711272
 62
7
  0
LINE
  6
BYLAYER
  8
0
 10
-126.499330435555
 11
-126.133306339169
 20
-5.80124832711272
 21
-4.99498326687183
 62
7
  0
LINE
  6
BYLAYER
  8
0
 10
-126.133306339169
 11
-126.133306339169
 20
-4.99498326687183
 21
-4.99498326687183
 62
7
  0
LINE
  6
BYLAYER
  8
0
 10
-129.546607543988
 11
-127.835402724711
 20
89.5910408295138
 21
95.988028781321
 62
7
  0
LINE
  6
BYLAYER
  8
0
 10
-127.835402724711
 11
-127.835402724711
 20
95.988028781321
 21
95.9146552873451
 62
7
  0
LINE
  6
BYLAYER
  8
0
 10
-127.835402724711
 11
-126.119475013868
 20
95.9146552873451
 21
89.5176673355379
 62
7
  0
LINE
  6
BYLAYER
  8
0
 10
-126.119475013868
 11
-126.590836459651
 20
89.5176673355379
 21
90.3601974560198
 62
7
  0
LINE
  6
BYLAYER
  8
0
 10
-126.590836459651
 11
-127.936017182542
 20
90.3601974560198
 21
91.2018842030077
 62
7
  0
LINE
  6
BYLAYER
  8
0
 10
-127.936017182542
 11
-129.180583447603
 20
91.2018842030077
 21
90.3964625162607
 62
7
  0
LINE
  6
BYLAYER
  8
0
 10
-129.180583447603
 11
-129.546607543988
 20
90.3964625162607
 21
89.5910408295138
 62
7
  0
LINE
  6
BYLAYER
  8
0
 10
-129.546607543988
 11
-129.546607543988
 20
89.5910408295138
 21
89.5910408295138
 62
7
  0
LINE
  6
BYLAYER
  8
0
 10
-129.546607543988
 11
-127.835402724711
 20
89.5910408295138
 21
95.988028781321
 62
7
  0
LINE
  6
BYLAYER
  8
0
 10
-127.835402724711
 11
-127.835402724711
 20
95.988028781321
 21
95.9146552873451
 62
7
  0
LINE
  6
BYLAYER
  8
0
 10
-127.835402724711
 11
-126.119475013868
 20
95.9146552873451
 21
89.5176673355379
 62
7
  0
LINE
  6
BYLAYER
  8
0
 10
-126.119475013868
 11
-126.590836459651
 20
89.5176673355379
 21
90.3601974560198
 62
7
  0
LINE
  6
BYLAYER
  8
0
 10
-126.590836459651
 11
-127.936017182542
 20
90.3601974560198
 21
91.2018842030077
 62
7
  0
LINE
  6
BYLAYER
  8
0
 10
-127.936017182542
 11
-129.180583447603
 20
91.2018842030077
 21
90.3964625162607
 62
7
  0
LINE
  6
BYLAYER
  8
0
 10
-129.180583447603
 11
-129.546607543988
 20
90.3964625162607
 21
89.5910408295138
 62
7
  0
LINE
  6
BYLAYER
  8
0
 10
-129.546607543988
 11
-129.546607543988
 20
89.5910408295138
 21
89.5910408295138
 62
7
  0
LINE
  6
BYLAYER
  8
0
 10
-71.468619592181
 11
-77.8652701945907
 20
-63.4399230259079
 21
-61.7287182066308
 62
7
  0
LINE
  6
BYLAYER
  8
0
 10
-77.8652701945907
 11
-77.7920653753135
 20
-61.7287182066308
 21
-61.7287182066308
 62
7
  0
LINE
  6
BYLAYER
  8
0
 10
-77.7920653753135
 11
-71.395414772904
 20
-61.7287182066308
 21
-60.0124531463898
 62
7
  0
LINE
  6
BYLAYER
  8
0
 10
-71.395414772904
 11
-72.2372701945907
 20
-60.0124531463898
 21
-60.4788386885585
 62
7
  0
LINE
  6
BYLAYER
  8
0
 10
-72.2372701945907
 11
-73.0792099536268
 20
-60.4788386885585
 21
-61.8290796524138
 62
7
  0
LINE
  6
BYLAYER
  8
0
 10
-73.0792099536268
 11
-72.2739569415787
 20
-61.8290796524138
 21
-63.0730555560284
 62
7
  0
LINE
  6
BYLAYER
  8
0
 10
-72.2739569415787
 11
-71.468619592181
 20
-63.0730555560284
 21
-63.4399230259079
 62
7
  0
LINE
  6
BYLAYER
  8
0
 10
-71.468619592181
 11
-71.468619592181
 20
-63.4399230259079
 21
-63.4399230259079
 62
7
  0
LINE
  6
BYLAYER
  8
0
 10
-71.468619592181
 11
-77.8652701945907
 20
-63.4399230259079
 21
-61.7287182066308
 62
7
  0
LINE
  6
BYLAYER
  8
0
 10
-77.8652701945907
 11
-77.7920653753135
 20
-61.7287182066308
 21
-61.7287182066308
 62
7
  0
LINE
  6
BYLAYER
  8
0
 10
-77.7920653753135
 11
-71.395414772904
 20
-61.7287182066308
 21
-60.0124531463898
 62
7
  0
LINE
  6
BYLAYER
  8
0
 10
-71.395414772904
 11
-72.2372701945907
 20
-60.0124531463898
 21
-60.4788386885585
 62
7
  0
LINE
  6
BYLAYER
  8
0
 10
-72.2372701945907
 11
-73.0792099536268
 20
-60.4788386885585
 21
-61.8290796524138
 62
7
  0
LINE
  6
BYLAYER
  8
0
 10
-73.0792099536268
 11
-72.2739569415787
 20
-61.8290796524138
 21
-63.0730555560284
 62
7
  0
LINE
  6
BYLAYER
  8
0
 10
-72.2739569415787
 11
-71.468619592181
 20
-63.0730555560284
 21
-63.4399230259079
 62
7
  0
LINE
  6
BYLAYER
  8
0
 10
-71.468619592181
 11
-71.468619592181
 20
-63.4399230259079
 21
-63.4399230259079
 62
7
  0
LINE
  6
BYLAYER
  8
0
 10
-14.3649810379642
 11
-7.96883645965085
 20
-60.0487182066308
 21
-61.7599230259078
 62
7
  0
LINE
  6
BYLAYER
  8
0
 10
-7.96883645965085
 11
-8.04220995362681
 20
-61.7599230259078
 21
-61.7599230259078
 62
7
  0
LINE
  6
BYLAYER
  8
0
 10
-8.04220995362681
 11
-14.4375111584461
 20
-61.7599230259078
 21
-63.4761880861488
 62
7
  0
LINE
  6
BYLAYER
  8
0
 10
-14.4375111584461
 11
-13.5966677849521
 20
-63.4761880861488
 21
-63.0055856765104
 62
7
  0
LINE
  6
BYLAYER
  8
0
 10
-13.5966677849521
 11
-12.7549810379642
 20
-63.0055856765104
 21
-61.6595615801248
 62
7
  0
LINE
  6
BYLAYER
  8
0
 10
-12.7549810379642
 11
-13.5595593512172
 20
-61.6595615801248
 21
-60.4155856765103
 62
7
  0
LINE
  6
BYLAYER
  8
0
 10
-13.5595593512172
 11
-14.3649810379642
 20
-60.4155856765103
 21
-60.0487182066308
 62
7
  0
LINE
  6
BYLAYER
  8
0
 10
-14.3649810379642
 11
-14.3649810379642
 20
-60.0487182066308
 21
-60.0487182066308
 62
7
  0
LINE
  6
BYLAYER
  8
0
 10
-14.3649810379642
 11
-7.96883645965085
 20
-60.0487182066308
 21
-61.7599230259078
 62
7
  0
LINE
  6
BYLAYER
  8
0
 10
-7.96883645965085
 11
-8.04220995362681
 20
-61.7599230259078
 21
-61.7599230259078
 62
7
  0
LINE
  6
BYLAYER
  8
0
 10
-8.04220995362681
 11
-14.4375111584461
 20
-61.7599230259078
 21
-63.4761880861488
 62
7
  0
LINE
  6
BYLAYER
  8
0
 10
-14.4375111584461
 11
-13.5966677849521
 20
-63.4761880861488
 21
-63.0055856765104
 62
7
  0
LINE
  6
BYLAYER
  8
0
 10
-13.5966677849521
 11
-12.7549810379642
 20
-63.0055856765104
 21
-61.6595615801248
 62
7
  0
LINE
  6
BYLAYER
  8
0
 10
-12.7549810379642
 11
-13.5595593512172
 20
-61.6595615801248
 21
-60.4155856765103
 62
7
  0
LINE
  6
BYLAYER
  8
0
 10
-13.5595593512172
 11
-14.3649810379642
 20
-60.4155856765103
 21
-60.0487182066308
 62
7
  0
LINE
  6
BYLAYER
  8
0
 10
-14.3649810379642
 11
-14.3649810379642
 20
-60.0487182066308
 21
-60.0487182066308
 62
7
  0
LINE
  6
BYLAYER
  8
0
 10
-132.763234050012
 11
-133.605258146398
 20
51.5591131186704
 21
49.5274263716825
 62
7
  0
LINE
  6
BYLAYER
  8
0
 10
-133.605258146398
 11
-135.709896700615
 20
49.5274263716825
 21
48.7953781789114
 62
7
  0
LINE
  6
BYLAYER
  8
0
 10
-135.709896700615
 11
-137.83300513435
 20
48.7953781789114
 21
49.5999564921644
 62
7
  0
LINE
  6
BYLAYER
  8
0
 10
-137.83300513435
 11
-138.546836459651
 20
49.5999564921644
 21
51.4671854078271
 62
7
  0
LINE
  6
BYLAYER
  8
0
 10
-138.546836459651
 11
-137.631776218687
 20
51.4671854078271
 21
53.5722456487908
 62
7
  0
LINE
  6
BYLAYER
  8
0
 10
-137.631776218687
 11
-135.709896700615
 20
53.5722456487908
 21
54.1389926367427
 62
7
  0
LINE
  6
BYLAYER
  8
0
 10
-135.709896700615
 11
-133.641776218687
 20
54.1389926367427
 21
53.5174263716825
 62
7
  0
LINE
  6
BYLAYER
  8
0
 10
-133.641776218687
 11
-132.763234050012
 20
53.5174263716825
 21
51.5591131186704
 62
7
  0
LINE
  6
BYLAYER
  8
0
 10
-132.763234050012
 11
-132.763234050012
 20
51.5591131186704
 21
51.5591131186704
 62
7
  0
LINE
  6
BYLAYER
  8
0
 10
-144.842847303024
 11
-144.023830435555
 20
51.6687516728872
 21
49.1015227572246
 62
7
  0
LINE
  6
BYLAYER
  8
0
 10
-144.023830435555
 11
-141.56670392953
 20
49.1015227572246
 21
47.4780287813211
 62
7
  0
LINE
  6
BYLAYER
  8
0
 10
-141.56670392953
 11
-137.412077423506
 20
47.4780287813211
 21
46.8733299861402
 62
7
  0
LINE
  6
BYLAYER
  8
0
 10
-137.412077423506
 11
-134.57522200182
 20
46.8733299861402
 21
47.2123661307187
 62
7
  0
LINE
  6
BYLAYER
  8
0
 10
-134.57522200182
 11
-132.708330435555
 20
47.2123661307187
 21
48.2100769740921
 62
7
  0
LINE
  6
BYLAYER
  8
0
 10
-132.708330435555
 11
-131.280752122302
 20
48.2100769740921
 21
51.4123661307186
 62
7
  0
LINE
  6
BYLAYER
  8
0
 10
-131.280752122302
 11
-131.633113568085
 20
51.4123661307186
 21
53.3251372150559
 62
7
  0
LINE
  6
BYLAYER
  8
0
 10
-131.633113568085
 11
-132.671812363265
 20
53.3251372150559
 21
54.7251372150561
 62
7
  0
LINE
  6
BYLAYER
  8
0
 10
-132.671812363265
 11
-135.838089471699
 20
54.7251372150561
 21
55.8965829981886
 62
7
  0
LINE
  6
BYLAYER
  8
0
 10
-135.838089471699
 11
-137.681956941579
 20
55.8965829981886
 21
55.5862215524053
 62
7
  0
LINE
  6
BYLAYER
  8
0
 10
-137.681956941579
 11
-139.004366580133
 20
55.5862215524053
 21
54.652607094574
 62
7
  0
LINE
  6
BYLAYER
  8
0
 10
-139.004366580133
 11
-140.047619592181
 20
54.652607094574
 21
51.7792336005981
 62
7
  0
LINE
  6
BYLAYER
  8
0
 10
-140.047619592181
 11
-139.681595495795
 20
51.7792336005981
 21
50.0216432391524
 62
7
  0
LINE
  6
BYLAYER
  8
0
 10
-139.681595495795
 11
-138.437029230735
 20
50.0216432391524
 21
48.5752576969837
 62
7
  0
LINE
  6
BYLAYER
  8
0
 10
-138.437029230735
 11
-142.115799110253
 20
48.5752576969837
 21
49.4903179379475
 62
7
  0
LINE
  6
BYLAYER
  8
0
 10
-142.115799110253
 11
-143.396967784952
 20
49.4903179379475
 21
51.6864625162607
 62
7
  0
LINE
  6
BYLAYER
  8
0
 10
-143.396967784952
 11
-142.57335453194
 20
51.6864625162607
 21
53.498872154815
 62
7
  0
LINE
  6
BYLAYER
  8
0
 10
-142.57335453194
 11
-141.347089471699
 20
53.498872154815
 21
53.9568239620439
 62
7
  0
LINE
  6
BYLAYER
  8
0
 10
-141.347089471699
 11
-141.347089471699
 20
53.9568239620439
 21
55.6224866126463
 62
7
  0
LINE
  6
BYLAYER
  8
0
 10
-141.347089471699
 11
-143.68980392953
 20
55.6224866126463
 21
54.7436914319235
 62
7
  0
LINE
  6
BYLAYER
  8
0
 10
-143.68980392953
 11
-144.554590676518
 20
54.7436914319235
 21
53.5359805885499
 62
7
  0
LINE
  6
BYLAYER
  8
0
 10
-144.554590676518
 11
-144.842847303024
 20
53.5359805885499
 21
51.6687516728872
 62
7
  0
LINE
  6
BYLAYER
  8
0
 10
-144.842847303024
 11
-144.842847303024
 20
51.6687516728872
 21
51.6687516728872
 62
7
  0
LINE
  6
BYLAYER
  8
0
 10
-132.799920797
 11
-133.266559351217
 20
40.7698360102368
 21
39.4297155283091
 62
7
  0
LINE
  6
BYLAYER
  8
0
 10
-133.266559351217
 11
-134.648426821097
 20
39.4297155283091
 21
38.5365829981885
 62
7
  0
LINE
  6
BYLAYER
  8
0
 10
-134.648426821097
 11
-137.887908748808
 20
38.5365829981885
 21
38.098028781321
 62
7
  0
LINE
  6
BYLAYER
  8
0
 10
-137.887908748808
 11
-141.932812363265
 20
38.098028781321
 21
38.7744143234897
 62
7
  0
LINE
  6
BYLAYER
  8
0
 10
-141.932812363265
 11
-143.305453327121
 20
38.7744143234897
 21
40.898028781321
 62
7
  0
LINE
  6
BYLAYER
  8
0
 10
-143.305453327121
 11
-142.93940392953
 20
40.898028781321
 21
42.2195950463813
 62
7
  0
LINE
  6
BYLAYER
  8
0
 10
-142.93940392953
 11
-141.859607543988
 20
42.2195950463813
 21
43.0207998656584
 62
7
  0
LINE
  6
BYLAYER
  8
0
 10
-141.859607543988
 11
-138.162511158446
 20
43.0207998656584
 21
43.5698360102366
 62
7
  0
LINE
  6
BYLAYER
  8
0
 10
-138.162511158446
 11
-135.554378628326
 20
43.5698360102366
 21
43.3876673355379
 62
7
  0
LINE
  6
BYLAYER
  8
0
 10
-135.554378628326
 11
-133.934595495795
 20
43.3876673355379
 21
42.8192336005982
 62
7
  0
LINE
  6
BYLAYER
  8
0
 10
-133.934595495795
 11
-132.799920797
 20
42.8192336005982
 21
40.7698360102368
 62
7
  0
LINE
  6
BYLAYER
  8
0
 10
-132.799920797
 11
-132.799920797
 20
40.7698360102368
 21
40.7698360102368
 62
7
  0
LINE
  6
BYLAYER
  8
0
 10
-144.806244893386
 11
-144.055853327121
 20
40.8061010704776
 21
38.4176673355379
 62
7
  0
LINE
  6
BYLAYER
  8
0
 10
-144.055853327121
 11
-141.822920797
 20
38.4176673355379
 21
36.9071854078271
 62
7
  0
LINE
  6
BYLAYER
  8
0
 10
-141.822920797
 11
-137.961113568085
 20
36.9071854078271
 21
36.3218842030078
 62
7
  0
LINE
  6
BYLAYER
  8
0
 10
-137.961113568085
 11
-133.330655736759
 20
36.3218842030078
 21
37.2740528777065
 62
7
  0
LINE
  6
BYLAYER
  8
0
 10
-133.330655736759
 11
-131.793270194591
 20
37.2740528777065
 21
38.728872154815
 62
7
  0
LINE
  6
BYLAYER
  8
0
 10
-131.793270194591
 11
-131.280752122302
 20
38.728872154815
 21
40.7883902271041
 62
7
  0
LINE
  6
BYLAYER
  8
0
 10
-131.280752122302
 11
-131.921378628326
 20
40.7883902271041
 21
43.0528480584295
 62
7
  0
LINE
  6
BYLAYER
  8
0
 10
-131.921378628326
 11
-133.806487062061
 20
43.0528480584295
 21
44.5768239620439
 62
7
  0
LINE
  6
BYLAYER
  8
0
 10
-133.806487062061
 11
-138.235715977723
 20
44.5768239620439
 21
45.3636914319234
 62
7
  0
LINE
  6
BYLAYER
  8
0
 10
-138.235715977723
 11
-142.701479833145
 20
45.3636914319234
 21
44.4848962512006
 62
7
  0
LINE
  6
BYLAYER
  8
0
 10
-142.701479833145
 11
-144.284626821097
 20
44.4848962512006
 21
42.9988721548149
 62
7
  0
LINE
  6
BYLAYER
  8
0
 10
-144.284626821097
 11
-144.806244893386
 20
42.9988721548149
 21
40.8061010704776
 62
7
  0
LINE
  6
BYLAYER
  8
0
 10
-144.806244893386
 11
-144.806244893386
 20
40.8061010704776
 21
40.8061010704776
 62
7
  0
LINE
  6
BYLAYER
  8
0
 10
-140.944462965675
 11
-131.646860556036
 20
30.2006793837306
 21
30.2006793837306
 62
7
  0
LINE
  6
BYLAYER
  8
0
 10
-131.646860556036
 11
-131.646860556036
 20
30.2006793837306
 21
31.975137215056
 62
7
  0
LINE
  6
BYLAYER
  8
0
 10
-131.646860556036
 11
-144.733031640374
 20
31.975137215056
 21
31.975137215056
 62
7
  0
LINE
  6
BYLAYER
  8
0
 10
-144.733031640374
 11
-144.733031640374
 20
31.975137215056
 21
30.6569444439717
 62
7
  0
LINE
  6
BYLAYER
  8
0
 10
-144.733031640374
 11
-142.792985857241
 20
30.6569444439717
 21
29.59598058855
 62
7
  0
LINE
  6
BYLAYER
  8
0
 10
-142.792985857241
 11
-142.20730513435
 20
29.59598058855
 21
27.1257396246945
 62
7
  0
LINE
  6
BYLAYER
  8
0
 10
-142.20730513435
 11
-140.944462965675
 20
27.1257396246945
 21
27.1257396246945
 62
7
  0
LINE
  6
BYLAYER
  8
0
 10
-140.944462965675
 11
-140.944462965675
 20
27.1257396246945
 21
30.2006793837306
 62
7
  0
LINE
  6
BYLAYER
  8
0
 10
-140.944462965675
 11
-140.944462965675
 20
30.2006793837306
 21
30.2006793837306
 62
7
  0
LINE
  6
BYLAYER
  8
0
 10
-36.8316075439884
 11
-38.1767882668798
 20
-55.52823627892
 21
-55.0610073632573
 62
7
  0
LINE
  6
BYLAYER
  8
0
 10
-38.1767882668798
 11
-39.0640171825425
 20
-55.0610073632573
 21
-53.6804049536187
 62
7
  0
LINE
  6
BYLAYER
  8
0
 10
-39.0640171825425
 11
-39.503414772904
 20
-53.6804049536187
 21
-50.4401639897633
 62
7
  0
LINE
  6
BYLAYER
  8
0
 10
-39.503414772904
 11
-38.8261858572412
 20
-50.4401639897633
 21
-46.3953447126549
 62
7
  0
LINE
  6
BYLAYER
  8
0
 10
-38.8261858572412
 11
-36.703414772904
 20
-46.3953447126549
 21
-45.0223326644621
 62
7
  0
LINE
  6
BYLAYER
  8
0
 10
-36.703414772904
 11
-35.3810051343497
 20
-45.0223326644621
 21
-45.3892001343417
 62
7
  0
LINE
  6
BYLAYER
  8
0
 10
-35.3810051343497
 11
-34.5798003150726
 20
-45.3892001343417
 21
-46.4678748331369
 62
7
  0
LINE
  6
BYLAYER
  8
0
 10
-34.5798003150726
 11
-34.0307641704943
 20
-46.4678748331369
 21
-50.1660676042211
 62
7
  0
LINE
  6
BYLAYER
  8
0
 10
-34.0307641704943
 11
-34.2137762186871
 20
-50.1660676042211
 21
-52.7737784475946
 62
7
  0
LINE
  6
BYLAYER
  8
0
 10
-34.2137762186871
 11
-34.7813665801329
 20
-52.7737784475946
 21
-54.3930555560283
 62
7
  0
LINE
  6
BYLAYER
  8
0
 10
-34.7813665801329
 11
-36.8316075439884
 20
-54.3930555560283
 21
-55.52823627892
 62
7
  0
LINE
  6
BYLAYER
  8
0
 10
-36.8316075439884
 11
-36.8316075439884
 20
-55.52823627892
 21
-55.52823627892
 62
7
  0
LINE
  6
BYLAYER
  8
0
 10
-36.7944991102534
 11
-39.1829328451932
 20
-43.5219712186789
 21
-44.2717302548235
 62
7
  0
LINE
  6
BYLAYER
  8
0
 10
-39.1829328451932
 11
-40.693414772904
 20
-44.2717302548235
 21
-46.5058266403656
 62
7
  0
LINE
  6
BYLAYER
  8
0
 10
-40.693414772904
 11
-41.2787159777233
 20
-46.5058266403656
 21
-50.3676338692815
 62
7
  0
LINE
  6
BYLAYER
  8
0
 10
-41.2787159777233
 11
-40.3273906765184
 20
-50.3676338692815
 21
-54.9977543512091
 62
7
  0
LINE
  6
BYLAYER
  8
0
 10
-40.3273906765184
 11
-38.871728025916
 20
-54.9977543512091
 21
-56.5343808572331
 62
7
  0
LINE
  6
BYLAYER
  8
0
 10
-38.871728025916
 11
-36.8130533271209
 20
-56.5343808572331
 21
-57.0479953150644
 62
7
  0
LINE
  6
BYLAYER
  8
0
 10
-36.8130533271209
 11
-34.5485954957956
 20
-57.0479953150644
 21
-56.4070314596428
 62
7
  0
LINE
  6
BYLAYER
  8
0
 10
-34.5485954957956
 11
-33.0246195921811
 20
-56.4070314596428
 21
-54.5212483271127
 62
7
  0
LINE
  6
BYLAYER
  8
0
 10
-33.0246195921811
 11
-32.2377521223016
 20
-54.5212483271127
 21
-50.0926941102452
 62
7
  0
LINE
  6
BYLAYER
  8
0
 10
-32.2377521223016
 11
-33.1165473030244
 20
-50.0926941102452
 21
-45.6270314596429
 62
7
  0
LINE
  6
BYLAYER
  8
0
 10
-33.1165473030244
 11
-34.6076316403739
 20
-45.6270314596429
 21
-44.0431760379562
 62
7
  0
LINE
  6
BYLAYER
  8
0
 10
-34.6076316403739
 11
-36.7944991102534
 20
-44.0431760379562
 21
-43.5219712186789
 62
7
  0
LINE
  6
BYLAYER
  8
0
 10
-36.7944991102534
 11
-36.7944991102534
 20
-43.5219712186789
 21
-43.5219712186789
 62
7
  0
LINE
  6
BYLAYER
  8
0
 10
-51.5923304355545
 11
-51.5923304355545
 20
-43.7412483271128
 21
-45.4069109777151
 62
7
  0
LINE
  6
BYLAYER
  8
0
 10
-51.5923304355545
 11
-44.3258244114581
 20
-45.4069109777151
 21
-45.4069109777151
 62
7
  0
LINE
  6
BYLAYER
  8
0
 10
-44.3258244114581
 11
-46.9613665801328
 20
-45.4069109777151
 21
-49.1776338692814
 62
7
  0
LINE
  6
BYLAYER
  8
0
 10
-46.9613665801328
 11
-49.7073906765185
 20
-49.1776338692814
 21
-56.681127845185
 62
7
  0
LINE
  6
BYLAYER
  8
0
 10
-49.7073906765185
 11
-47.8949810379642
 20
-56.681127845185
 21
-56.681127845185
 62
7
  0
LINE
  6
BYLAYER
  8
0
 10
-47.8949810379642
 11
-47.199197905434
 20
-56.681127845185
 21
-53.7529350741007
 62
7
  0
LINE
  6
BYLAYER
  8
0
 10
-47.199197905434
 11
-45.9914870620607
 20
-53.7529350741007
 21
-50.6054651945825
 62
7
  0
LINE
  6
BYLAYER
  8
0
 10
-45.9914870620607
 11
-44.125101519892
 20
-50.6054651945825
 21
-47.3466700138597
 62
7
  0
LINE
  6
BYLAYER
  8
0
 10
-44.125101519892
 11
-42.4594388692895
 20
-47.3466700138597
 21
-45.169079652414
 62
7
  0
LINE
  6
BYLAYER
  8
0
 10
-42.4594388692895
 11
-42.4594388692895
 20
-45.169079652414
 21
-43.7412483271128
 62
7
  0
LINE
  6
BYLAYER
  8
0
 10
-42.4594388692895
 11
-51.5923304355545
 20
-43.7412483271128
 21
-43.7412483271128
 62
7
  0
LINE
  6
BYLAYER
  8
0
 10
-51.5923304355545
 11
-51.5923304355545
 20
-43.7412483271128
 21
-43.7412483271128
 62
7
  0
LINE
  6
BYLAYER
  8
0
 10
114.753043362254
 11
114.753043362254
 20
-77.3167904957875
 21
-78.9824531463898
 62
7
  0
LINE
  6
BYLAYER
  8
0
 10
114.753043362254
 11
122.018706012856
 20
-78.9824531463898
 21
-78.9824531463898
 62
7
  0
LINE
  6
BYLAYER
  8
0
 10
122.018706012856
 11
119.383163844182
 20
-78.9824531463898
 21
-82.753176037956
 62
7
  0
LINE
  6
BYLAYER
  8
0
 10
119.383163844182
 11
116.638826494784
 20
-82.753176037956
 21
-90.2566700138597
 62
7
  0
LINE
  6
BYLAYER
  8
0
 10
116.638826494784
 11
118.449549386351
 20
-90.2566700138597
 21
-90.2566700138597
 62
7
  0
LINE
  6
BYLAYER
  8
0
 10
118.449549386351
 11
119.145332518881
 20
-90.2566700138597
 21
-87.3284772427754
 62
7
  0
LINE
  6
BYLAYER
  8
0
 10
119.145332518881
 11
120.353043362254
 20
-87.3284772427754
 21
-84.1810073632572
 62
7
  0
LINE
  6
BYLAYER
  8
0
 10
120.353043362254
 11
122.220272277917
 20
-84.1810073632572
 21
-80.9222121825345
 62
7
  0
LINE
  6
BYLAYER
  8
0
 10
122.220272277917
 11
123.885934928519
 20
-80.9222121825345
 21
-78.7446218210886
 62
7
  0
LINE
  6
BYLAYER
  8
0
 10
123.885934928519
 11
123.885934928519
 20
-78.7446218210886
 21
-77.3167904957875
 62
7
  0
LINE
  6
BYLAYER
  8
0
 10
123.885934928519
 11
114.753043362254
 20
-77.3167904957875
 21
-77.3167904957875
 62
7
  0
LINE
  6
BYLAYER
  8
0
 10
114.753043362254
 11
114.753043362254
 20
-77.3167904957875
 21
-77.3167904957875
 62
7
  0
LINE
  6
BYLAYER
  8
0
 10
104.238706012857
 11
105.610874687555
 20
-86.9076338692813
 21
-89.6899230259079
 62
7
  0
LINE
  6
BYLAYER
  8
0
 10
105.610874687555
 11
108.44798312129
 20
-89.6899230259079
 21
-90.5855856765104
 62
7
  0
LINE
  6
BYLAYER
  8
0
 10
108.44798312129
 11
110.6306337237
 20
-90.5855856765104
 21
-90.2347423030162
 62
7
  0
LINE
  6
BYLAYER
  8
0
 10
110.6306337237
 11
112.126778302013
 20
-90.2347423030162
 21
-89.159441098197
 62
7
  0
LINE
  6
BYLAYER
  8
0
 10
112.126778302013
 11
113.279669868278
 20
-89.159441098197
 21
-85.8829350741007
 62
7
  0
LINE
  6
BYLAYER
  8
0
 10
113.279669868278
 11
112.017139747796
 20
-85.8829350741007
 21
-82.8990796524139
 62
7
  0
LINE
  6
BYLAYER
  8
0
 10
112.017139747796
 11
108.960754205628
 20
-82.8990796524139
 21
-81.7470314596428
 62
7
  0
LINE
  6
BYLAYER
  8
0
 10
108.960754205628
 11
107.258826494784
 20
-81.7470314596428
 21
-82.0396820620525
 62
7
  0
LINE
  6
BYLAYER
  8
0
 10
107.258826494784
 11
106.380031314061
 20
-82.0396820620525
 21
-82.5701639897633
 62
7
  0
LINE
  6
BYLAYER
  8
0
 10
106.380031314061
 11
106.946778302013
 20
-82.5701639897633
 21
-78.9461880861489
 62
7
  0
LINE
  6
BYLAYER
  8
0
 10
106.946778302013
 11
112.529910832134
 20
-78.9461880861489
 21
-78.9461880861489
 62
7
  0
LINE
  6
BYLAYER
  8
0
 10
112.529910832134
 11
112.529910832134
 20
-78.9461880861489
 21
-77.3167904957875
 62
7
  0
LINE
  6
BYLAYER
  8
0
 10
112.529910832134
 11
105.720513241772
 20
-77.3167904957875
 21
-77.3167904957875
 62
7
  0
LINE
  6
BYLAYER
  8
0
 10
105.720513241772
 11
104.714368663459
 20
-77.3167904957875
 21
-84.4188386885586
 62
7
  0
LINE
  6
BYLAYER
  8
0
 10
104.714368663459
 11
106.14219998876
 20
-84.4188386885586
 21
-84.4913688090404
 62
7
  0
LINE
  6
BYLAYER
  8
0
 10
106.14219998876
 11
107.184609627314
 20
-84.4913688090404
 21
-83.5763085680766
 62
7
  0
LINE
  6
BYLAYER
  8
0
 10
107.184609627314
 11
108.631838542977
 20
-83.5763085680766
 21
-83.2473929054261
 62
7
  0
LINE
  6
BYLAYER
  8
0
 10
108.631838542977
 11
110.644127699603
 20
-83.2473929054261
 21
-83.9971519415706
 62
7
  0
LINE
  6
BYLAYER
  8
0
 10
110.644127699603
 11
111.485814446591
 20
-83.9971519415706
 21
-86.1393206162694
 62
7
  0
LINE
  6
BYLAYER
  8
0
 10
111.485814446591
 11
110.773163844182
 20
-86.1393206162694
 21
-88.2072724234982
 62
7
  0
LINE
  6
BYLAYER
  8
0
 10
110.773163844182
 11
108.612440952615
 20
-88.2072724234982
 21
-89.1408868813296
 62
7
  0
LINE
  6
BYLAYER
  8
0
 10
108.612440952615
 11
107.258826494784
 20
-89.1408868813296
 21
-88.8659471222934
 62
7
  0
LINE
  6
BYLAYER
  8
0
 10
107.258826494784
 11
105.9406337237
 20
-88.8659471222934
 21
-86.9076338692813
 62
7
  0
LINE
  6
BYLAYER
  8
0
 10
105.9406337237
 11
104.238706012857
 20
-86.9076338692813
 21
-86.9076338692813
 62
7
  0
LINE
  6
BYLAYER
  8
0
 10
104.238706012857
 11
104.238706012857
 20
-86.9076338692813
 21
-86.9076338692813
 62
7
  0
LINE
  6
BYLAYER
  8
0
 10
62.467260229724
 11
63.8402722779167
 20
-86.5188386885585
 21
-89.3011278451851
 62
7
  0
LINE
  6
BYLAYER
  8
0
 10
63.8402722779167
 11
66.6773807116516
 20
-89.3011278451851
 21
-90.1967904957875
 62
7
  0
LINE
  6
BYLAYER
  8
0
 10
66.6773807116516
 11
68.8591879405674
 20
-90.1967904957875
 21
-89.8459471222935
 62
7
  0
LINE
  6
BYLAYER
  8
0
 10
68.8591879405674
 11
70.3561758923745
 20
-89.8459471222935
 21
-88.7706459174742
 62
7
  0
LINE
  6
BYLAYER
  8
0
 10
70.3561758923745
 11
71.5090674586397
 20
-88.7706459174742
 21
-85.4941398933778
 62
7
  0
LINE
  6
BYLAYER
  8
0
 10
71.5090674586397
 11
70.2465373381577
 20
-85.4941398933778
 21
-82.510284471691
 62
7
  0
LINE
  6
BYLAYER
  8
0
 10
70.2465373381577
 11
67.190151795989
 20
-82.510284471691
 21
-81.3582362789199
 62
7
  0
LINE
  6
BYLAYER
  8
0
 10
67.190151795989
 11
65.4882240851456
 20
-81.3582362789199
 21
-81.6508868813296
 62
7
  0
LINE
  6
BYLAYER
  8
0
 10
65.4882240851456
 11
64.6094289044228
 20
-81.6508868813296
 21
-82.1813688090404
 62
7
  0
LINE
  6
BYLAYER
  8
0
 10
64.6094289044228
 11
65.1770192658685
 20
-82.1813688090404
 21
-78.557392905426
 62
7
  0
LINE
  6
BYLAYER
  8
0
 10
65.1770192658685
 11
70.759308422495
 20
-78.557392905426
 21
-78.557392905426
 62
7
  0
LINE
  6
BYLAYER
  8
0
 10
70.759308422495
 11
70.759308422495
 20
-78.557392905426
 21
-76.9279953150644
 62
7
  0
LINE
  6
BYLAYER
  8
0
 10
70.759308422495
 11
63.9507542056276
 20
-76.9279953150644
 21
-76.9279953150644
 62
7
  0
LINE
  6
BYLAYER
  8
0
 10
63.9507542056276
 11
62.9437662538204
 20
-76.9279953150644
 21
-84.0300435078357
 62
7
  0
LINE
  6
BYLAYER
  8
0
 10
62.9437662538204
 11
64.3707542056276
 20
-84.0300435078357
 21
-84.1025736283176
 62
7
  0
LINE
  6
BYLAYER
  8
0
 10
64.3707542056276
 11
65.4148505911699
 20
-84.1025736283176
 21
-83.1875133873536
 62
7
  0
LINE
  6
BYLAYER
  8
0
 10
65.4148505911699
 11
66.8603927598445
 20
-83.1875133873536
 21
-82.8585977247031
 62
7
  0
LINE
  6
BYLAYER
  8
0
 10
66.8603927598445
 11
68.873525289965
 20
-82.8585977247031
 21
-83.6083567608478
 62
7
  0
LINE
  6
BYLAYER
  8
0
 10
68.873525289965
 11
69.7160554104469
 20
-83.6083567608478
 21
-85.7505254355465
 62
7
  0
LINE
  6
BYLAYER
  8
0
 10
69.7160554104469
 11
69.0025614345433
 20
-85.7505254355465
 21
-87.8176338692814
 62
7
  0
LINE
  6
BYLAYER
  8
0
 10
69.0025614345433
 11
66.8426819164709
 20
-87.8176338692814
 21
-88.7512483271128
 62
7
  0
LINE
  6
BYLAYER
  8
0
 10
66.8426819164709
 11
65.4882240851456
 20
-88.7512483271128
 21
-88.4771519415705
 62
7
  0
LINE
  6
BYLAYER
  8
0
 10
65.4882240851456
 11
64.1708746875552
 20
-88.4771519415705
 21
-86.5188386885585
 62
7
  0
LINE
  6
BYLAYER
  8
0
 10
64.1708746875552
 11
62.467260229724
 20
-86.5188386885585
 21
-86.5188386885585
 62
7
  0
LINE
  6
BYLAYER
  8
0
 10
62.467260229724
 11
62.467260229724
 20
-86.5188386885585
 21
-86.5188386885585
 62
7
  0
LINE
  6
BYLAYER
  8
0
 10
58.2132843261095
 11
59.7321999887601
 20
-92.6501639897633
 21
-91.6440194114501
 62
7
  0
LINE
  6
BYLAYER
  8
0
 10
59.7321999887601
 11
60.1715975791215
 20
-91.6440194114501
 21
-89.7211278451849
 62
7
  0
LINE
  6
BYLAYER
  8
0
 10
60.1715975791215
 11
60.1715975791215
 20
-89.7211278451849
 21
-87.8732965198838
 62
7
  0
LINE
  6
BYLAYER
  8
0
 10
60.1715975791215
 11
58.2132843261095
 20
-87.8732965198838
 21
-87.8732965198838
 62
7
  0
LINE
  6
BYLAYER
  8
0
 10
58.2132843261095
 11
58.2132843261095
 20
-87.8732965198838
 21
-89.8678748331369
 62
7
  0
LINE
  6
BYLAYER
  8
0
 10
58.2132843261095
 11
59.2194289044228
 20
-89.8678748331369
 21
-89.8678748331369
 62
7
  0
LINE
  6
BYLAYER
  8
0
 10
59.2194289044228
 11
59.2379831212902
 20
-89.8678748331369
 21
-89.9783567608476
 62
7
  0
LINE
  6
BYLAYER
  8
0
 10
59.2379831212902
 11
59.2379831212902
 20
-89.9783567608476
 21
-90.0879953150645
 62
7
  0
LINE
  6
BYLAYER
  8
0
 10
59.2379831212902
 11
59.1089469767119
 20
-90.0879953150645
 21
-90.8925736283175
 62
7
  0
LINE
  6
BYLAYER
  8
0
 10
59.1089469767119
 11
58.2132843261095
 20
-90.8925736283175
 21
-91.7899230259079
 62
7
  0
LINE
  6
BYLAYER
  8
0
 10
58.2132843261095
 11
58.2132843261095
 20
-91.7899230259079
 21
-92.6501639897633
 62
7
  0
LINE
  6
BYLAYER
  8
0
 10
58.2132843261095
 11
58.2132843261095
 20
-92.6501639897633
 21
-92.6501639897633
 62
7
  0
LINE
  6
BYLAYER
  8
0
 10
46.9340072176757
 11
46.9340072176757
 20
-76.9279953150644
 21
-78.5936579656669
 62
7
  0
LINE
  6
BYLAYER
  8
0
 10
46.9340072176757
 11
54.1996698682781
 20
-78.5936579656669
 21
-78.5936579656669
 62
7
  0
LINE
  6
BYLAYER
  8
0
 10
54.1996698682781
 11
51.5641276996035
 20
-78.5936579656669
 21
-82.3643808572332
 62
7
  0
LINE
  6
BYLAYER
  8
0
 10
51.5641276996035
 11
48.8189469767119
 20
-82.3643808572332
 21
-89.8678748331369
 62
7
  0
LINE
  6
BYLAYER
  8
0
 10
48.8189469767119
 11
50.6305132417722
 20
-89.8678748331369
 21
-89.8678748331369
 62
7
  0
LINE
  6
BYLAYER
  8
0
 10
50.6305132417722
 11
51.3262963743023
 20
-89.8678748331369
 21
-86.9396820620525
 62
7
  0
LINE
  6
BYLAYER
  8
0
 10
51.3262963743023
 11
52.5340072176757
 20
-86.9396820620525
 21
-83.7922121825344
 62
7
  0
LINE
  6
BYLAYER
  8
0
 10
52.5340072176757
 11
54.4012361333385
 20
-83.7922121825344
 21
-80.5334170018115
 62
7
  0
LINE
  6
BYLAYER
  8
0
 10
54.4012361333385
 11
56.0668987839408
 20
-80.5334170018115
 21
-78.3558266403656
 62
7
  0
LINE
  6
BYLAYER
  8
0
 10
56.0668987839408
 11
56.0668987839408
 20
-78.3558266403656
 21
-76.9279953150644
 62
7
  0
LINE
  6
BYLAYER
  8
0
 10
56.0668987839408
 11
46.9340072176757
 20
-76.9279953150644
 21
-76.9279953150644
 62
7
  0
LINE
  6
BYLAYER
  8
0
 10
46.9340072176757
 11
46.9340072176757
 20
-76.9279953150644
 21
-76.9279953150644
 62
7
  0
LINE
  6
BYLAYER
  8
0
 10
182.865573482736
 11
185.647862639363
 20
43.176823962044
 21
44.5498360102366
 62
7
  0
LINE
  6
BYLAYER
  8
0
 10
185.647862639363
 11
186.544368663459
 20
44.5498360102366
 21
47.3861010704777
 62
7
  0
LINE
  6
BYLAYER
  8
0
 10
186.544368663459
 11
186.191838542977
 20
47.3861010704777
 21
49.5687516728873
 62
7
  0
LINE
  6
BYLAYER
  8
0
 10
186.191838542977
 11
185.116537338158
 20
49.5687516728873
 21
51.0648962512006
 62
7
  0
LINE
  6
BYLAYER
  8
0
 10
185.116537338158
 11
181.840874687555
 20
51.0648962512006
 21
52.2186311909595
 62
7
  0
LINE
  6
BYLAYER
  8
0
 10
181.840874687555
 11
178.857862639362
 20
52.2186311909595
 21
50.9544143234897
 62
7
  0
LINE
  6
BYLAYER
  8
0
 10
178.857862639362
 11
177.704127699603
 20
50.9544143234897
 21
47.8980287813209
 62
7
  0
LINE
  6
BYLAYER
  8
0
 10
177.704127699603
 11
177.996778302013
 20
47.8980287813209
 21
46.1961010704777
 62
7
  0
LINE
  6
BYLAYER
  8
0
 10
177.996778302013
 11
178.527260229724
 20
46.1961010704777
 21
45.3181492632486
 62
7
  0
LINE
  6
BYLAYER
  8
0
 10
178.527260229724
 11
174.904127699603
 20
45.3181492632486
 21
45.8848962512005
 62
7
  0
LINE
  6
BYLAYER
  8
0
 10
174.904127699603
 11
174.904127699603
 20
45.8848962512005
 21
51.4671854078271
 62
7
  0
LINE
  6
BYLAYER
  8
0
 10
174.904127699603
 11
173.274730109242
 20
51.4671854078271
 21
51.4671854078271
 62
7
  0
LINE
  6
BYLAYER
  8
0
 10
173.274730109242
 11
173.274730109242
 20
51.4671854078271
 21
44.6586311909596
 62
7
  0
LINE
  6
BYLAYER
  8
0
 10
173.274730109242
 11
180.376778302013
 20
44.6586311909596
 21
43.6524866126463
 62
7
  0
LINE
  6
BYLAYER
  8
0
 10
180.376778302013
 11
180.449308422495
 20
43.6524866126463
 21
45.0803179379475
 62
7
  0
LINE
  6
BYLAYER
  8
0
 10
180.449308422495
 11
179.534248181531
 20
45.0803179379475
 21
46.1227275765017
 62
7
  0
LINE
  6
BYLAYER
  8
0
 10
179.534248181531
 11
179.205332518881
 20
46.1227275765017
 21
47.5691131186703
 62
7
  0
LINE
  6
BYLAYER
  8
0
 10
179.205332518881
 11
179.955091555025
 20
47.5691131186703
 21
49.5830890222849
 62
7
  0
LINE
  6
BYLAYER
  8
0
 10
179.955091555025
 11
182.09641685623
 20
49.5830890222849
 21
50.4239323957788
 62
7
  0
LINE
  6
BYLAYER
  8
0
 10
182.09641685623
 11
184.165212036953
 20
50.4239323957788
 21
49.7104384198751
 62
7
  0
LINE
  6
BYLAYER
  8
0
 10
184.165212036953
 11
185.098826494784
 20
49.7104384198751
 21
47.550558901803
 62
7
  0
LINE
  6
BYLAYER
  8
0
 10
185.098826494784
 11
184.823043362254
 20
47.550558901803
 21
46.1961010704777
 62
7
  0
LINE
  6
BYLAYER
  8
0
 10
184.823043362254
 11
182.865573482736
 20
46.1961010704777
 21
44.8787516728872
 62
7
  0
LINE
  6
BYLAYER
  8
0
 10
182.865573482736
 11
182.865573482736
 20
44.8787516728872
 21
43.176823962044
 62
7
  0
LINE
  6
BYLAYER
  8
0
 10
182.865573482736
 11
182.865573482736
 20
43.176823962044
 21
43.176823962044
 62
7
  0
LINE
  6
BYLAYER
  8
0
 10
186.214609627314
 11
182.993766253821
 20
40.0377878174656
 21
40.0377878174656
 62
7
  0
LINE
  6
BYLAYER
  8
0
 10
182.993766253821
 11
182.993766253821
 20
40.0377878174656
 21
41.9775468536101
 62
7
  0
LINE
  6
BYLAYER
  8
0
 10
182.993766253821
 11
181.529669868278
 20
41.9775468536101
 21
41.9775468536101
 62
7
  0
LINE
  6
BYLAYER
  8
0
 10
181.529669868278
 11
181.529669868278
 20
41.9775468536101
 21
40.0377878174656
 62
7
  0
LINE
  6
BYLAYER
  8
0
 10
181.529669868278
 11
173.036898783941
 20
40.0377878174656
 21
40.0377878174656
 62
7
  0
LINE
  6
BYLAYER
  8
0
 10
173.036898783941
 11
173.036898783941
 20
40.0377878174656
 21
38.6470649258993
 62
7
  0
LINE
  6
BYLAYER
  8
0
 10
173.036898783941
 11
181.364368663459
 20
38.6470649258993
 21
32.6253781789113
 62
7
  0
LINE
  6
BYLAYER
  8
0
 10
181.364368663459
 11
182.993766253821
 20
32.6253781789113
 21
32.6253781789113
 62
7
  0
LINE
  6
BYLAYER
  8
0
 10
182.993766253821
 11
182.993766253821
 20
32.6253781789113
 21
38.3906793837307
 62
7
  0
LINE
  6
BYLAYER
  8
0
 10
182.993766253821
 11
186.214609627314
 20
38.3906793837307
 21
38.3906793837307
 62
7
  0
LINE
  6
BYLAYER
  8
0
 10
186.214609627314
 11
186.214609627314
 20
38.3906793837307
 21
40.0377878174656
 62
7
  0
LINE
  6
BYLAYER
  8
0
 10
186.214609627314
 11
186.214609627314
 20
40.0377878174656
 21
40.0377878174656
 62
7
  0
LINE
  6
BYLAYER
  8
0
 10
181.529669868278
 11
175.617621675507
 20
34.144293841562
 21
38.3721251668632
 62
7
  0
LINE
  6
BYLAYER
  8
0
 10
175.617621675507
 11
181.529669868278
 20
38.3721251668632
 21
38.3721251668632
 62
7
  0
LINE
  6
BYLAYER
  8
0
 10
181.529669868278
 11
181.529669868278
 20
38.3721251668632
 21
34.144293841562
 62
7
  0
LINE
  6
BYLAYER
  8
0
 10
181.529669868278
 11
181.529669868278
 20
34.144293841562
 21
34.144293841562
 62
7
  0
LINE
  6
BYLAYER
  8
0
 10
115.054971073098
 11
116.42798312129
 20
-52.9382362789199
 21
-55.7205254355464
 62
7
  0
LINE
  6
BYLAYER
  8
0
 10
116.42798312129
 11
119.265091555025
 20
-55.7205254355464
 21
-56.6170314596429
 62
7
  0
LINE
  6
BYLAYER
  8
0
 10
119.265091555025
 11
121.447742157435
 20
-56.6170314596429
 21
-56.2653447126548
 62
7
  0
LINE
  6
BYLAYER
  8
0
 10
121.447742157435
 11
122.943043362254
 20
-56.2653447126548
 21
-55.1900435078355
 62
7
  0
LINE
  6
BYLAYER
  8
0
 10
122.943043362254
 11
124.096778302013
 20
-55.1900435078355
 21
-51.9135374837392
 62
7
  0
LINE
  6
BYLAYER
  8
0
 10
124.096778302013
 11
122.834248181531
 20
-51.9135374837392
 21
-48.9305254355464
 62
7
  0
LINE
  6
BYLAYER
  8
0
 10
122.834248181531
 11
119.777019265869
 20
-48.9305254355464
 21
-47.7776338692814
 62
7
  0
LINE
  6
BYLAYER
  8
0
 10
119.777019265869
 11
118.075091555025
 20
-47.7776338692814
 21
-48.070284471691
 62
7
  0
LINE
  6
BYLAYER
  8
0
 10
118.075091555025
 11
117.196296374302
 20
-48.070284471691
 21
-48.6007663994019
 62
7
  0
LINE
  6
BYLAYER
  8
0
 10
117.196296374302
 11
117.763043362254
 20
-48.6007663994019
 21
-44.9767904957873
 62
7
  0
LINE
  6
BYLAYER
  8
0
 10
117.763043362254
 11
123.346175892375
 20
-44.9767904957873
 21
-44.9767904957873
 62
7
  0
LINE
  6
BYLAYER
  8
0
 10
123.346175892375
 11
123.346175892375
 20
-44.9767904957873
 21
-43.347392905426
 62
7
  0
LINE
  6
BYLAYER
  8
0
 10
123.346175892375
 11
116.538465049001
 20
-43.347392905426
 21
-43.347392905426
 62
7
  0
LINE
  6
BYLAYER
  8
0
 10
116.538465049001
 11
115.5306337237
 20
-43.347392905426
 21
-50.449441098197
 62
7
  0
LINE
  6
BYLAYER
  8
0
 10
115.5306337237
 11
116.958465049001
 20
-50.449441098197
 21
-50.5219712186789
 62
7
  0
LINE
  6
BYLAYER
  8
0
 10
116.958465049001
 11
118.002561434543
 20
-50.5219712186789
 21
-49.6077543512091
 62
7
  0
LINE
  6
BYLAYER
  8
0
 10
118.002561434543
 11
119.448103603218
 20
-49.6077543512091
 21
-49.2779953150645
 62
7
  0
LINE
  6
BYLAYER
  8
0
 10
119.448103603218
 11
121.461236133338
 20
-49.2779953150645
 21
-50.0277543512091
 62
7
  0
LINE
  6
BYLAYER
  8
0
 10
121.461236133338
 11
122.302079506832
 20
-50.0277543512091
 21
-52.1699230259079
 62
7
  0
LINE
  6
BYLAYER
  8
0
 10
122.302079506832
 11
121.589428904423
 20
-52.1699230259079
 21
-54.2378748331369
 62
7
  0
LINE
  6
BYLAYER
  8
0
 10
121.589428904423
 11
119.428706012857
 20
-54.2378748331369
 21
-55.1714892909682
 62
7
  0
LINE
  6
BYLAYER
  8
0
 10
119.428706012857
 11
118.075091555025
 20
-55.1714892909682
 21
-54.8973929054259
 62
7
  0
LINE
  6
BYLAYER
  8
0
 10
118.075091555025
 11
116.756898783941
 20
-54.8973929054259
 21
-52.9382362789199
 62
7
  0
LINE
  6
BYLAYER
  8
0
 10
116.756898783941
 11
115.054971073098
 20
-52.9382362789199
 21
-52.9382362789199
 62
7
  0
LINE
  6
BYLAYER
  8
0
 10
115.054971073098
 11
115.054971073098
 20
-52.9382362789199
 21
-52.9382362789199
 62
7
  0
LINE
  6
BYLAYER
  8
0
 10
110.800151795989
 11
112.31906745864
 20
-59.0695615801247
 21
-58.0634170018116
 62
7
  0
LINE
  6
BYLAYER
  8
0
 10
112.31906745864
 11
112.758465049001
 20
-58.0634170018116
 21
-56.1413688090405
 62
7
  0
LINE
  6
BYLAYER
  8
0
 10
112.758465049001
 11
112.758465049001
 20
-56.1413688090405
 21
-54.2926941102453
 62
7
  0
LINE
  6
BYLAYER
  8
0
 10
112.758465049001
 11
110.800151795989
 20
-54.2926941102453
 21
-54.2926941102453
 62
7
  0
LINE
  6
BYLAYER
  8
0
 10
110.800151795989
 11
110.800151795989
 20
-54.2926941102453
 21
-56.2872724234983
 62
7
  0
LINE
  6
BYLAYER
  8
0
 10
110.800151795989
 11
111.807139747796
 20
-56.2872724234983
 21
-56.2872724234983
 62
7
  0
LINE
  6
BYLAYER
  8
0
 10
111.807139747796
 11
111.82485059117
 20
-56.2872724234983
 21
-56.3977543512092
 62
7
  0
LINE
  6
BYLAYER
  8
0
 10
111.82485059117
 11
111.82485059117
 20
-56.3977543512092
 21
-56.5073929054261
 62
7
  0
LINE
  6
BYLAYER
  8
0
 10
111.82485059117
 11
111.696657820085
 20
-56.5073929054261
 21
-57.312814592173
 62
7
  0
LINE
  6
BYLAYER
  8
0
 10
111.696657820085
 11
110.800151795989
 20
-57.312814592173
 21
-58.2093206162693
 62
7
  0
LINE
  6
BYLAYER
  8
0
 10
110.800151795989
 11
110.800151795989
 20
-58.2093206162693
 21
-59.0695615801247
 62
7
  0
LINE
  6
BYLAYER
  8
0
 10
110.800151795989
 11
110.800151795989
 20
-59.0695615801247
 21
-59.0695615801247
 62
7
  0
LINE
  6
BYLAYER
  8
0
 10
103.711597579122
 11
107.225934928519
 20
-56.6541398933778
 21
-55.4641398933777
 62
7
  0
LINE
  6
BYLAYER
  8
0
 10
107.225934928519
 11
108.470754205628
 20
-55.4641398933777
 21
-52.3892001343417
 62
7
  0
LINE
  6
BYLAYER
  8
0
 10
108.470754205628
 11
107.885453000808
 20
-52.3892001343417
 21
-50.4131760379561
 62
7
  0
LINE
  6
BYLAYER
  8
0
 10
107.885453000808
 11
106.274609627314
 20
-50.4131760379561
 21
-49.3142603753055
 62
7
  0
LINE
  6
BYLAYER
  8
0
 10
106.274609627314
 11
107.299308422495
 20
-49.3142603753055
 21
-48.5822121825344
 62
7
  0
LINE
  6
BYLAYER
  8
0
 10
107.299308422495
 11
107.95798312129
 20
-48.5822121825344
 21
-46.6061880861489
 62
7
  0
LINE
  6
BYLAYER
  8
0
 10
107.95798312129
 11
106.860754205628
 20
-46.6061880861489
 21
-44.0246218210885
 62
7
  0
LINE
  6
BYLAYER
  8
0
 10
106.860754205628
 11
103.749549386351
 20
-44.0246218210885
 21
-43.1289591704862
 62
7
  0
LINE
  6
BYLAYER
  8
0
 10
103.749549386351
 11
101.593886735748
 20
-43.1289591704862
 21
-43.5818507367512
 62
7
  0
LINE
  6
BYLAYER
  8
0
 10
101.593886735748
 11
100.198103603218
 20
-43.5818507367512
 21
-44.95823627892
 62
7
  0
LINE
  6
BYLAYER
  8
0
 10
100.198103603218
 11
99.6119590249046
 20
-44.95823627892
 21
-47.4470314596429
 62
7
  0
LINE
  6
BYLAYER
  8
0
 10
99.6119590249046
 11
101.277621675507
 20
-47.4470314596429
 21
-47.4470314596429
 62
7
  0
LINE
  6
BYLAYER
  8
0
 10
101.277621675507
 11
101.66219998876
 20
-47.4470314596429
 21
-45.727392905426
 62
7
  0
LINE
  6
BYLAYER
  8
0
 10
101.66219998876
 11
103.931718061049
 20
-45.727392905426
 21
-44.6293206162694
 62
7
  0
LINE
  6
BYLAYER
  8
0
 10
103.931718061049
 11
105.561115651411
 20
-44.6293206162694
 21
-45.1598025439803
 62
7
  0
LINE
  6
BYLAYER
  8
0
 10
105.561115651411
 11
106.256055410447
 20
-45.1598025439803
 21
-46.6787182066308
 62
7
  0
LINE
  6
BYLAYER
  8
0
 10
106.256055410447
 11
105.195091555025
 20
-46.6787182066308
 21
-48.5096820620524
 62
7
  0
LINE
  6
BYLAYER
  8
0
 10
105.195091555025
 11
103.675332518881
 20
-48.5096820620524
 21
-48.8023326644621
 62
7
  0
LINE
  6
BYLAYER
  8
0
 10
103.675332518881
 11
103.291597579121
 20
-48.8023326644621
 21
-48.7837784475946
 62
7
  0
LINE
  6
BYLAYER
  8
0
 10
103.291597579121
 11
102.870754205627
 20
-48.7837784475946
 21
-48.7475133873537
 62
7
  0
LINE
  6
BYLAYER
  8
0
 10
102.870754205627
 11
102.870754205627
 20
-48.7475133873537
 21
-50.2116097728958
 62
7
  0
LINE
  6
BYLAYER
  8
0
 10
102.870754205627
 11
103.199669868278
 20
-50.2116097728958
 21
-50.1930555560283
 62
7
  0
LINE
  6
BYLAYER
  8
0
 10
103.199669868278
 11
103.54798312129
 20
-50.1930555560283
 21
-50.1930555560283
 62
7
  0
LINE
  6
BYLAYER
  8
0
 10
103.54798312129
 11
105.854609627314
 20
-50.1930555560283
 21
-50.7420917006067
 62
7
  0
LINE
  6
BYLAYER
  8
0
 10
105.854609627314
 11
106.677742157435
 20
-50.7420917006067
 21
-52.6455856765102
 62
7
  0
LINE
  6
BYLAYER
  8
0
 10
106.677742157435
 11
105.890874687555
 20
-52.6455856765102
 21
-54.439441098197
 62
7
  0
LINE
  6
BYLAYER
  8
0
 10
105.890874687555
 11
103.804368663459
 20
-54.439441098197
 21
-55.1352242307271
 62
7
  0
LINE
  6
BYLAYER
  8
0
 10
103.804368663459
 11
101.479187940567
 20
-55.1352242307271
 21
-54.1096820620525
 62
7
  0
LINE
  6
BYLAYER
  8
0
 10
101.479187940567
 11
101.003525289965
 20
-54.1096820620525
 21
-52.2432965198839
 62
7
  0
LINE
  6
BYLAYER
  8
0
 10
101.003525289965
 11
99.2830433622541
 20
-52.2432965198839
 21
-52.2432965198839
 62
7
  0
LINE
  6
BYLAYER
  8
0
 10
99.2830433622541
 11
100.326296374302
 20
-52.2432965198839
 21
-55.3730555560284
 62
7
  0
LINE
  6
BYLAYER
  8
0
 10
100.326296374302
 11
101.695091555025
 20
-55.3730555560284
 21
-56.3285977247031
 62
7
  0
LINE
  6
BYLAYER
  8
0
 10
101.695091555025
 11
103.711597579122
 20
-56.3285977247031
 21
-56.6541398933778
 62
7
  0
LINE
  6
BYLAYER
  8
0
 10
103.711597579122
 11
103.711597579122
 20
-56.6541398933778
 21
-56.6541398933778
 62
7
  0
LINE
  6
BYLAYER
  8
0
 10
96.2949710730974
 11
96.2949710730974
 20
-56.2872724234983
 21
-53.0664290500043
 62
7
  0
LINE
  6
BYLAYER
  8
0
 10
96.2949710730974
 11
98.2355734827361
 20
-53.0664290500043
 21
-53.0664290500043
 62
7
  0
LINE
  6
BYLAYER
  8
0
 10
98.2355734827361
 11
98.2355734827361
 20
-53.0664290500043
 21
-51.6023326644621
 62
7
  0
LINE
  6
BYLAYER
  8
0
 10
98.2355734827361
 11
96.2949710730974
 20
-51.6023326644621
 21
-51.6023326644621
 62
7
  0
LINE
  6
BYLAYER
  8
0
 10
96.2949710730974
 11
96.2949710730974
 20
-51.6023326644621
 21
-43.1095615801248
 62
7
  0
LINE
  6
BYLAYER
  8
0
 10
96.2949710730974
 11
94.9042481815311
 20
-43.1095615801248
 21
-43.1095615801248
 62
7
  0
LINE
  6
BYLAYER
  8
0
 10
94.9042481815311
 11
88.8825614345433
 20
-43.1095615801248
 21
-51.4378748331369
 62
7
  0
LINE
  6
BYLAYER
  8
0
 10
88.8825614345433
 11
88.8825614345433
 20
-51.4378748331369
 21
-53.0664290500043
 62
7
  0
LINE
  6
BYLAYER
  8
0
 10
88.8825614345433
 11
94.6478626393624
 20
-53.0664290500043
 21
-53.0664290500043
 62
7
  0
LINE
  6
BYLAYER
  8
0
 10
94.6478626393624
 11
94.6478626393624
 20
-53.0664290500043
 21
-56.2872724234983
 62
7
  0
LINE
  6
BYLAYER
  8
0
 10
94.6478626393624
 11
96.2949710730974
 20
-56.2872724234983
 21
-56.2872724234983
 62
7
  0
LINE
  6
BYLAYER
  8
0
 10
96.2949710730974
 11
96.2949710730974
 20
-56.2872724234983
 21
-56.2872724234983
 62
7
  0
LINE
  6
BYLAYER
  8
0
 10
90.4014770971937
 11
94.6293084224949
 20
-51.6023326644621
 21
-45.690284471691
 62
7
  0
LINE
  6
BYLAYER
  8
0
 10
94.6293084224949
 11
94.6293084224949
 20
-45.690284471691
 21
-51.6023326644621
 62
7
  0
LINE
  6
BYLAYER
  8
0
 10
94.6293084224949
 11
90.4014770971937
 20
-51.6023326644621
 21
-51.6023326644621
 62
7
  0
LINE
  6
BYLAYER
  8
0
 10
90.4014770971937
 11
90.4014770971937
 20
-51.6023326644621
 21
-51.6023326644621
 62
7
  0
LINE
  6
BYLAYER
  8
0
 10
-86.3073545319401
 11
-78.2358485078437
 20
30.8770649258993
 21
30.8770649258993
 62
7
  0
LINE
  6
BYLAYER
  8
0
 10
-89.4781858572413
 11
-78.0391738090485
 20
54.0116432391522
 21
54.0116432391522
 62
7
  0
LINE
  6
BYLAYER
  8
0
 10
-86.037306339169
 11
-78.4052822427835
 20
25.4145348054174
 21
25.4145348054174
 62
7
  0
LINE
  6
BYLAYER
  8
0
 10
-91.2351858572413
 11
-89.4781858572413
 20
59.7946552873451
 21
54.0116432391522
 62
7
  0
LINE
  6
BYLAYER
  8
0
 10
-89.4781858572413
 11
-88.892462965675
 20
54.0116432391522
 21
50.3514022752969
 62
7
  0
LINE
  6
BYLAYER
  8
0
 10
-88.892462965675
 11
-88.1604147729039
 20
50.3514022752969
 21
45.5197155283089
 62
7
  0
LINE
  6
BYLAYER
  8
0
 10
-88.1604147729039
 11
-86.9936075439883
 20
45.5197155283089
 21
35.2836914319233
 62
7
  0
LINE
  6
BYLAYER
  8
0
 10
-86.9936075439883
 11
-86.037306339169
 20
35.2836914319233
 21
25.0206793837306
 62
7
  0
LINE
  6
BYLAYER
  8
0
 10
-91.2351858572413
 11
-78.0391738090485
 20
59.5753781789114
 21
59.5753781789114
 62
7
  0
LINE
  6
BYLAYER
  8
0
 10
-7.66184850784379
 11
-1.84594489338582
 20
25.4600769740921
 21
25.4600769740921
 62
7
  0
LINE
  6
BYLAYER
  8
0
 10
-7.66184850784379
 11
-0.381848507843699
 20
30.8770649258993
 21
30.8770649258993
 62
7
  0
LINE
  6
BYLAYER
  8
0
 10
-7.66184850784379
 11
1.96104305842124
 20
54.0116432391522
 21
54.0116432391522
 62
7
  0
LINE
  6
BYLAYER
  8
0
 10
-7.66184850784379
 11
3.05827197408399
 20
59.5753781789114
 21
59.5753781789114
 62
7
  0
LINE
  6
BYLAYER
  8
0
 10
2.94357317890325
 11
2.72513944396354
 20
59.8638119138512
 21
56.861402275297
 62
7
  0
LINE
  6
BYLAYER
  8
0
 10
2.72513944396354
 11
2.1389948656502
 20
56.861402275297
 21
54.8120046849356
 62
7
  0
LINE
  6
BYLAYER
  8
0
 10
2.1389948656502
 11
1.6995972752888
 20
54.8120046849356
 21
49.9794745644535
 62
7
  0
LINE
  6
BYLAYER
  8
0
 10
1.6995972752888
 11
0.967549082517792
 20
49.9794745644535
 21
47.0512817933692
 62
7
  0
LINE
  6
BYLAYER
  8
0
 10
0.967549082517792
 11
0.785380407818991
 20
47.0512817933692
 21
42.7517637210801
 62
7
  0
LINE
  6
BYLAYER
  8
0
 10
0.785380407818991
 11
0.382247877698376
 20
42.7517637210801
 21
38.5593540825259
 62
7
  0
LINE
  6
BYLAYER
  8
0
 10
0.382247877698376
 11
-0.0571497126630334
 20
38.5593540825259
 21
35.0450167331281
 62
7
  0
LINE
  6
BYLAYER
  8
0
 10
-0.0571497126630334
 11
-0.496547303024443
 20
35.0450167331281
 21
30.50598058855
 62
7
  0
LINE
  6
BYLAYER
  8
0
 10
-0.496547303024443
 11
-1.37534248374726
 20
30.50598058855
 21
27.7245348054174
 62
7
  0
LINE
  6
BYLAYER
  8
0
 10
-1.37534248374726
 11
-1.99184850784371
 20
27.7245348054174
 21
25.0206793837306
 62
7
  0
LINE
  6
BYLAYER
  8
0
 10
-8.09281236326541
 11
-77.9110653753136
 20
-61.6595615801248
 21
-61.6595615801248
 62
7
  0
LINE
  6
BYLAYER
  8
0
 10
-8.07847501386772
 11
-8.07847501386772
 20
-14.5858266403657
 21
-65.6124531463897
 62
7
  0
LINE
  6
BYLAYER
  8
0
 10
-77.8698244114582
 11
-77.8698244114582
 20
-15.8761880861489
 21
-65.3653447126549
 62
7
  0
LINE
  6
BYLAYER
  8
0
 10
-127.839956941579
 11
-127.839956941579
 20
-11.6078748331369
 21
96.0841733596343
 62
7
  0
LINE
  6
BYLAYER
  8
0
 10
-83.3285593512172
 11
-130.768318387362
 20
-11.6078748331369
 21
-11.6078748331369
 62
7
  0
LINE
  6
BYLAYER
  8
0
 10
-83.9142822427834
 11
-131.427246098205
 20
96.0841733596343
 21
96.0841733596343
 62
7
  0
LINE
  6
BYLAYER
  8
0
 10
191.5506337237
 11
191.5506337237
 20
79.2462215524054
 21
4.86489625120043
 62
7
  0
LINE
  6
BYLAYER
  8
0
 10
143.890754205628
 11
196.291236133338
 20
64.457667335538
 21
64.457667335538
 62
7
  0
LINE
  6
BYLAYER
  8
0
 10
145.450995169483
 11
196.308103603218
 20
20.143450468068
 21
20.143450468068
 62
7
  0
LINE
  6
BYLAYER
  8
0
 10
85.0300313140613
 11
86.2014770971939
 20
-96.5069109777151
 21
-96.0177543512091
 62
7
  0
LINE
  6
BYLAYER
  8
0
 10
86.2014770971939
 11
86.6906337236999
 20
-96.0177543512091
 21
-94.8463085680767
 62
7
  0
LINE
  6
BYLAYER
  8
0
 10
86.6906337236999
 11
86.2014770971939
 20
-94.8463085680767
 21
-93.6698025439803
 62
7
  0
LINE
  6
BYLAYER
  8
0
 10
86.2014770971939
 11
85.0300313140613
 20
-93.6698025439803
 21
-93.1848627849441
 62
7
  0
LINE
  6
BYLAYER
  8
0
 10
85.0300313140613
 11
83.8543686634589
 20
-93.1848627849441
 21
-93.6698025439803
 62
7
  0
LINE
  6
BYLAYER
  8
0
 10
83.8543686634589
 11
83.3694289044228
 20
-93.6698025439803
 21
-94.8463085680767
 62
7
  0
LINE
  6
BYLAYER
  8
0
 10
83.3694289044228
 11
83.8543686634589
 20
-94.8463085680767
 21
-96.0177543512091
 62
7
  0
LINE
  6
BYLAYER
  8
0
 10
83.8543686634589
 11
85.0300313140613
 20
-96.0177543512091
 21
-96.5069109777151
 62
7
  0
LINE
  6
BYLAYER
  8
0
 10
85.0300313140613
 11
85.0300313140613
 20
-96.5069109777151
 21
-96.5069109777151
 62
7
  0
LINE
  6
BYLAYER
  8
0
 10
45.0355734827361
 11
160.605573482736
 20
-94.9196820620525
 21
-94.9196820620525
 62
7
  0
LINE
  6
BYLAYER
  8
0
 10
61.800151795989
 11
154.336778302013
 20
-61.7784772427754
 21
-61.7784772427754
 62
7
  0
LINE
  6
BYLAYER
  8
0
 10
141.76798312129
 11
141.76798312129
 20
-66.340284471691
 21
-98.8734170018116
 62
7
  0
LINE
  6
BYLAYER
  8
0
 10
141.76798312129
 11
141.76798312129
 20
16.0657396246944
 21
-57.2622121825344
 62
7
  0
LINE
  6
BYLAYER
  8
0
 10
127.807621675507
 11
127.807621675507
 20
0.0559805885499145
 21
-66.9255856765103
 62
7
  0
LINE
  6
BYLAYER
  8
0
 10
85.0300313140613
 11
85.0300313140613
 20
20.143450468068
 21
-99.1660676042211
 62
7
  0
LINE
  6
BYLAYER
  8
0
 10
77.4902722779167
 11
77.5628023983986
 20
-65.5626941102453
 21
-99.0926941102452
 62
7
  0
LINE
  6
BYLAYER
  8
0
 10
77.4160554104469
 11
77.4902722779167
 20
25.8252576969837
 21
-58.044862784944
 62
7
  0
LINE
  6
BYLAYER
  8
0
 10
80.0515975791216
 11
79.3195493863505
 20
-10.6051037487995
 21
-10.307392905426
 62
7
  0
LINE
  6
BYLAYER
  8
0
 10
79.3195493863505
 11
79.0268987839409
 20
-10.307392905426
 21
-9.63016398976322
 62
7
  0
LINE
  6
BYLAYER
  8
0
 10
79.0268987839409
 11
79.0268987839409
 20
-9.63016398976322
 21
22.2156191427669
 62
7
  0
LINE
  6
BYLAYER
  8
0
 10
79.0268987839409
 11
80.9809951694829
 20
22.2156191427669
 21
24.3392336005982
 62
7
  0
LINE
  6
BYLAYER
  8
0
 10
80.9809951694829
 11
85.0300313140613
 20
24.3392336005982
 21
24.3392336005982
 62
7
  0
LINE
  6
BYLAYER
  8
0
 10
85.0300313140613
 11
85.0300313140613
 20
24.3392336005982
 21
60.5545348054173
 62
7
  0
LINE
  6
BYLAYER
  8
0
 10
85.0300313140613
 11
80.9809951694829
 20
60.5545348054173
 21
60.5545348054173
 62
7
  0
LINE
  6
BYLAYER
  8
0
 10
80.9809951694829
 11
79.0268987839409
 20
60.5545348054173
 21
62.6503179379475
 62
7
  0
LINE
  6
BYLAYER
  8
0
 10
79.0268987839409
 11
79.0268987839409
 20
62.6503179379475
 21
80.9295950463812
 62
7
  0
LINE
  6
BYLAYER
  8
0
 10
79.0268987839409
 11
80.8528023983987
 20
80.9295950463812
 21
94.0988721548149
 62
7
  0
LINE
  6
BYLAYER
  8
0
 10
80.8528023983987
 11
81.8134048080372
 20
94.0988721548149
 21
95.081402275297
 62
7
  0
LINE
  6
BYLAYER
  8
0
 10
81.8134048080372
 11
93.9394289044226
 20
95.081402275297
 21
96.0841733596343
 62
7
  0
LINE
  6
BYLAYER
  8
0
 10
93.9394289044226
 11
109.476898783941
 20
96.0841733596343
 21
95.0771854078271
 62
7
  0
LINE
  6
BYLAYER
  8
0
 10
109.476898783941
 11
110.268826494784
 20
95.0771854078271
 21
94.7803179379475
 62
7
  0
LINE
  6
BYLAYER
  8
0
 10
110.268826494784
 11
110.530272277917
 20
94.7803179379475
 21
94.0347757692729
 62
7
  0
LINE
  6
BYLAYER
  8
0
 10
110.530272277917
 11
110.530272277917
 20
94.0347757692729
 21
80.9523661307186
 62
7
  0
LINE
  6
BYLAYER
  8
0
 10
110.530272277917
 11
126.686778302013
 20
80.9523661307186
 21
80.9523661307186
 62
7
  0
LINE
  6
BYLAYER
  8
0
 10
126.686778302013
 11
127.436537338158
 20
80.9523661307186
 21
80.6867034801163
 62
7
  0
LINE
  6
BYLAYER
  8
0
 10
127.436537338158
 11
127.807621675507
 20
80.6867034801163
 21
79.9782697451765
 62
7
  0
LINE
  6
BYLAYER
  8
0
 10
127.807621675507
 11
127.807621675507
 20
79.9782697451765
 21
64.457667335538
 62
7
  0
LINE
  6
BYLAYER
  8
0
 10
127.807621675507
 11
140.889187940567
 20
64.457667335538
 21
64.457667335538
 62
7
  0
LINE
  6
BYLAYER
  8
0
 10
140.889187940567
 11
141.76798312129
 20
64.457667335538
 21
63.578872154815
 62
7
  0
LINE
  6
BYLAYER
  8
0
 10
141.76798312129
 11
141.76798312129
 20
63.578872154815
 21
21.1175468536102
 62
7
  0
LINE
  6
BYLAYER
  8
0
 10
141.76798312129
 11
141.482922880326
 20
21.1175468536102
 21
20.3854986608392
 62
7
  0
LINE
  6
BYLAYER
  8
0
 10
141.482922880326
 11
140.596537338158
 20
20.3854986608392
 21
20.143450468068
 62
7
  0
LINE
  6
BYLAYER
  8
0
 10
140.596537338158
 11
127.807621675507
 20
20.143450468068
 21
20.143450468068
 62
7
  0
LINE
  6
BYLAYER
  8
0
 10
127.807621675507
 11
127.807621675507
 20
20.143450468068
 21
4.71899263674277
 62
7
  0
LINE
  6
BYLAYER
  8
0
 10
127.807621675507
 11
126.686778302013
 20
4.71899263674277
 21
3.74405287770651
 62
7
  0
LINE
  6
BYLAYER
  8
0
 10
126.686778302013
 11
110.530272277917
 20
3.74405287770651
 21
3.74405287770651
 62
7
  0
LINE
  6
BYLAYER
  8
0
 10
110.530272277917
 11
110.530272277917
 20
3.74405287770651
 21
-9.5576338692814
 62
7
  0
LINE
  6
BYLAYER
  8
0
 10
110.530272277917
 11
110.250272277917
 20
-9.5576338692814
 21
-10.2981157969923
 62
7
  0
LINE
  6
BYLAYER
  8
0
 10
110.250272277917
 11
109.262681916471
 20
-10.2981157969923
 21
-10.6051037487995
 62
7
  0
LINE
  6
BYLAYER
  8
0
 10
83.5895493863505
 11
83.5895493863505
 20
25.3403179379476
 21
29.6103179379476
 62
7
  0
LINE
  6
BYLAYER
  8
0
 10
83.5895493863505
 11
82.8111156514106
 20
29.6103179379476
 21
30.6856191427668
 62
7
  0
LINE
  6
BYLAYER
  8
0
 10
82.8111156514106
 11
78.6111156514108
 20
30.6856191427668
 21
30.6856191427668
 62
7
  0
LINE
  6
BYLAYER
  8
0
 10
78.6111156514108
 11
78.2678626393624
 20
30.6856191427668
 21
30.7859805885499
 62
7
  0
LINE
  6
BYLAYER
  8
0
 10
78.2678626393624
 11
77.9288264947841
 20
30.7859805885499
 21
31.4632095042125
 62
7
  0
LINE
  6
BYLAYER
  8
0
 10
77.9288264947841
 11
77.9288264947841
 20
31.4632095042125
 21
53.0367034801163
 62
7
  0
LINE
  6
BYLAYER
  8
0
 10
77.9288264947841
 11
78.1624409526155
 20
53.0367034801163
 21
53.640558901803
 62
7
  0
LINE
  6
BYLAYER
  8
0
 10
78.1624409526155
 11
78.7114770971938
 20
53.640558901803
 21
53.9154986608391
 62
7
  0
LINE
  6
BYLAYER
  8
0
 10
78.7114770971938
 11
82.6146096273144
 20
53.9154986608391
 21
53.9154986608391
 62
7
  0
LINE
  6
BYLAYER
  8
0
 10
82.6146096273144
 11
83.4647301092421
 20
53.9154986608391
 21
54.405498660839
 62
7
  0
LINE
  6
BYLAYER
  8
0
 10
83.4647301092421
 11
83.5895493863505
 20
54.405498660839
 21
54.8904384198752
 62
7
  0
LINE
  6
BYLAYER
  8
0
 10
83.5895493863505
 11
83.5895493863505
 20
54.8904384198752
 21
59.5020046849354
 62
7
  0
LINE
  6
BYLAYER
  8
0
 10
126.906055410447
 11
110.530272277917
 20
20.143450468068
 21
20.143450468068
 62
7
  0
LINE
  6
BYLAYER
  8
0
 10
110.530272277917
 11
110.530272277917
 20
20.143450468068
 21
4.7409203475861
 62
7
  0
LINE
  6
BYLAYER
  8
0
 10
110.530272277917
 11
110.530272277917
 20
80.1975468536102
 21
64.457667335538
 62
7
  0
LINE
  6
BYLAYER
  8
0
 10
110.530272277917
 11
126.906055410447
 20
64.457667335538
 21
64.457667335538
 62
7
  0
LINE
  6
BYLAYER
  8
0
 10
93.9394289044226
 11
93.9394289044226
 20
-11.6078748331369
 21
96.0841733596343
 62
7
  0
LINE
  6
BYLAYER
  8
0
 10
109.702079506832
 11
93.9394289044226
 20
-10.6051037487995
 21
-11.6078748331369
 62
7
  0
LINE
  6
BYLAYER
  8
0
 10
93.9394289044226
 11
79.9056939646637
 20
-11.6078748331369
 21
-10.6641398933778
 62
7
  0
ENDSEC
  0
EOF
