  0
SECTION
  2
HEADER
  9
$CECOLOR
 62
256
  9
$CELTYPE
  6
CONTINUOUS
  9
$CLAYER
  8
0
  9
$TEXTSTYLE
  7
STANDARD
  9
$DWGCODEPAGE
  3
ANSI_1252
  9
$LTSCALE
 40
1
  0
ENDSEC
  0
SECTION
  2
TABLES
  0
TABLE
  2
LTYPE
 70
5
  0
LTYPE
  2
CONTINUOUS
  3
CONTINUOUS
 70
0
 72
65
 73
0
 40
0
  0
LTYPE
  2
DASHED
  3
DASHED
 70
0
 72
65
 73
2
 40
0.75
 49
0.5
 49
-0.25
  0
LTYPE
  2
DOT
  3
DOT
 70
0
 72
65
 73
2
 40
0.25
 49
0
 49
-0.25
  0
LTYPE
  2
DASHDOT
  3
DASHDOT
 70
0
 72
65
 73
4
 40
1
 49
0.5
 49
-0.25
 49
0
 49
-0.25
  0
LTYPE
  2
DIVIDE
  3
DIVIDE
 70
0
 72
65
 73
6
 40
1.25
 49
0.5
 49
-0.25
 49
0
 49
-0.25
 49
0
 49
-0.25
  0
ENDTAB
  0
TABLE
  2
LAYER
 70
3
  0
LAYER
  2
0
  6
CONTINUOUS
 70
0
 62
7
  0
LAYER
  2
_FLOOR1_W
  6
CONTINUOUS
 70
4
 62
7
  0
LAYER
  2
_FLOOR1_WH
  6
CONTINUOUS
 70
5
 62
1
  0
ENDTAB
  0
TABLE
  2
STYLE
 70
3
  0
STYLE
  2
STANDARD
 70
0
 40
0
 41
1
 50
0
 71
0
 42
1
  3
TXT.SHX
  0
STYLE
  2
ANNOTATIVE
 70
0
 40
0
 41
1
 50
0
 71
0
 42
1
  3
ROMANS.SHX
  0
STYLE
  2
ATTRIBUTI_SCATOLA
 70
0
 40
0
 41
1
 50
0
 71
0
 42
1
  3
ROMANS.SHX
  0
ENDTAB
  0
ENDSEC
  0
SECTION
  2
BLOCKS
  0
BLOCK
  2
*MODEL_SPACE
 10
0
 20
0
 70
1
  0
ENDBLK
  0
BLOCK
  2
*PAPER_SPACE
 10
0
 20
0
 70
1
  0
ENDBLK
  0
ENDSEC
  0
SECTION
  2
ENTITIES
  0
LINE
  6
BYLAYER
  8
0
 10
-30.178995819976
 11
-30.178995819976
 20
47.6698072806692
 21
48.6706943774433
 62
7
  0
LINE
  6
BYLAYER
  8
0
 10
-30.178995819976
 11
-30.4728264651373
 20
48.6706943774433
 21
49.3785976032499
 62
7
  0
LINE
  6
BYLAYER
  8
0
 10
-30.4728264651373
 11
-31.1807296909438
 20
49.3785976032499
 21
49.6724282484111
 62
7
  0
LINE
  6
BYLAYER
  8
0
 10
-31.1807296909438
 11
-31.1807296909438
 20
49.6724282484111
 21
49.6724282484111
 62
7
  0
LINE
  6
BYLAYER
  8
0
 10
-31.1807296909438
 11
-31.8886329167501
 20
49.6724282484111
 21
49.3785976032499
 62
7
  0
LINE
  6
BYLAYER
  8
0
 10
-31.8886329167501
 11
-32.1833103361051
 20
49.3785976032499
 21
48.6706943774433
 62
7
  0
LINE
  6
BYLAYER
  8
0
 10
-32.1833103361051
 11
-32.1833103361051
 20
48.6706943774433
 21
47.6698072806692
 62
7
  0
LINE
  6
BYLAYER
  8
0
 10
-35.1775038844921
 11
-35.1775038844921
 20
47.7248476032498
 21
48.7308153451853
 62
7
  0
LINE
  6
BYLAYER
  8
0
 10
-35.1775038844921
 11
-35.4713345296534
 20
48.7308153451853
 21
49.4387185709917
 62
7
  0
LINE
  6
BYLAYER
  8
0
 10
-35.4713345296534
 11
-36.1792377554599
 20
49.4387185709917
 21
49.732549216153
 62
7
  0
LINE
  6
BYLAYER
  8
0
 10
-36.1792377554599
 11
-36.1792377554599
 20
49.732549216153
 21
49.732549216153
 62
7
  0
LINE
  6
BYLAYER
  8
0
 10
-36.1792377554599
 11
-36.8905280780404
 20
49.732549216153
 21
49.4387185709917
 62
7
  0
LINE
  6
BYLAYER
  8
0
 10
-36.8905280780404
 11
-37.1809716264275
 20
49.4387185709917
 21
48.7308153451853
 62
7
  0
LINE
  6
BYLAYER
  8
0
 10
-37.1809716264275
 11
-37.1809716264275
 20
48.7308153451853
 21
47.7248476032498
 62
7
  0
LINE
  6
BYLAYER
  8
0
 10
-26.9908909812663
 11
-26.9908909812663
 20
30.7275492161529
 21
31.6776298613144
 62
7
  0
LINE
  6
BYLAYER
  8
0
 10
-27.5607700135244
 11
-27.5607700135244
 20
30.7275492161529
 21
31.6776298613144
 62
7
  0
LINE
  6
BYLAYER
  8
0
 10
-26.9908909812663
 11
-26.9908909812663
 20
39.7262185709917
 21
38.733799216153
 62
7
  0
LINE
  6
BYLAYER
  8
0
 10
-27.5607700135244
 11
-27.5607700135244
 20
39.6618637322821
 21
38.7575088935725
 62
7
  0
LINE
  6
BYLAYER
  8
0
 10
-23.8112538844921
 11
-22.7748022715888
 20
34.8513395387336
 21
34.8513395387336
 62
7
  0
LINE
  6
BYLAYER
  8
0
 10
-23.8112538844921
 11
-22.7553264651373
 20
35.4728717967982
 21
35.4728717967982
 62
7
  0
LINE
  6
BYLAYER
  8
0
 10
-31.7328264651373
 11
-30.8267780780405
 20
34.8513395387336
 21
34.8513395387336
 62
7
  0
LINE
  6
BYLAYER
  8
0
 10
-31.7548425941695
 11
-30.8267780780405
 20
35.4728717967982
 21
35.4728717967982
 62
7
  0
LINE
  6
BYLAYER
  8
0
 10
-27.2525442070727
 11
-24.7816571102985
 20
31.7055734097015
 21
32.7344040548628
 62
7
  0
LINE
  6
BYLAYER
  8
0
 10
-24.7816571102985
 11
-23.7528264651373
 20
32.7344040548628
 21
35.2052911516369
 62
7
  0
LINE
  6
BYLAYER
  8
0
 10
-23.7528264651373
 11
-24.7816571102985
 20
35.2052911516369
 21
37.6821056677659
 62
7
  0
LINE
  6
BYLAYER
  8
0
 10
-24.7816571102985
 11
-27.2525442070727
 20
37.6821056677659
 21
38.7067024419595
 62
7
  0
LINE
  6
BYLAYER
  8
0
 10
-27.2525442070727
 11
-29.7293587232017
 20
38.7067024419595
 21
37.6821056677659
 62
7
  0
LINE
  6
BYLAYER
  8
0
 10
-29.7293587232017
 11
-30.7539554973953
 20
37.6821056677659
 21
35.2052911516369
 62
7
  0
LINE
  6
BYLAYER
  8
0
 10
-30.7539554973953
 11
-29.7293587232017
 20
35.2052911516369
 21
32.7344040548628
 62
7
  0
LINE
  6
BYLAYER
  8
0
 10
-29.7293587232017
 11
-27.2525442070727
 20
32.7344040548628
 21
31.7055734097015
 62
7
  0
LINE
  6
BYLAYER
  8
0
 10
-27.2525442070727
 11
-27.2525442070727
 20
31.7055734097015
 21
31.7055734097015
 62
7
  0
LINE
  6
BYLAYER
  8
0
 10
-27.2525442070727
 11
-25.5031087232018
 20
30.7038395387337
 21
31.0620250226047
 62
7
  0
LINE
  6
BYLAYER
  8
0
 10
-25.5031087232018
 11
-24.0737538844921
 20
31.0620250226047
 21
32.0265008290562
 62
7
  0
LINE
  6
BYLAYER
  8
0
 10
-24.0737538844921
 11
-23.1092780780405
 20
32.0265008290562
 21
33.455855667766
 62
7
  0
LINE
  6
BYLAYER
  8
0
 10
-23.1092780780405
 11
-22.7510925941695
 20
33.455855667766
 21
35.2052911516369
 62
7
  0
LINE
  6
BYLAYER
  8
0
 10
-22.7510925941695
 11
-23.1092780780405
 20
35.2052911516369
 21
36.9606540548627
 62
7
  0
LINE
  6
BYLAYER
  8
0
 10
-23.1092780780405
 11
-24.0737538844921
 20
36.9606540548627
 21
38.3891621193788
 62
7
  0
LINE
  6
BYLAYER
  8
0
 10
-24.0737538844921
 11
-25.5031087232018
 20
38.3891621193788
 21
39.3536379258305
 62
7
  0
LINE
  6
BYLAYER
  8
0
 10
-25.5031087232018
 11
-27.2525442070727
 20
39.3536379258305
 21
39.7075895387337
 62
7
  0
LINE
  6
BYLAYER
  8
0
 10
-27.2525442070727
 11
-29.0079071102986
 20
39.7075895387337
 21
39.3536379258305
 62
7
  0
LINE
  6
BYLAYER
  8
0
 10
-29.0079071102986
 11
-30.4364151748146
 20
39.3536379258305
 21
38.3891621193788
 62
7
  0
LINE
  6
BYLAYER
  8
0
 10
-30.4364151748146
 11
-31.4008909812663
 20
38.3891621193788
 21
36.9606540548627
 62
7
  0
LINE
  6
BYLAYER
  8
0
 10
-31.4008909812663
 11
-31.7548425941695
 20
36.9606540548627
 21
35.2052911516369
 62
7
  0
LINE
  6
BYLAYER
  8
0
 10
-31.7548425941695
 11
-31.4008909812663
 20
35.2052911516369
 21
33.455855667766
 62
7
  0
LINE
  6
BYLAYER
  8
0
 10
-31.4008909812663
 11
-30.4364151748146
 20
33.455855667766
 21
32.0265008290562
 62
7
  0
LINE
  6
BYLAYER
  8
0
 10
-30.4364151748146
 11
-29.0079071102986
 20
32.0265008290562
 21
31.0620250226047
 62
7
  0
LINE
  6
BYLAYER
  8
0
 10
-29.0079071102986
 11
-27.2525442070727
 20
31.0620250226047
 21
30.7038395387337
 62
7
  0
LINE
  6
BYLAYER
  8
0
 10
-27.2525442070727
 11
-27.2525442070727
 20
30.7038395387337
 21
30.7038395387337
 62
7
  0
LINE
  6
BYLAYER
  8
0
 10
-75.1825038844921
 11
-75.1825038844921
 20
47.6698072806692
 21
48.6706943774433
 62
7
  0
LINE
  6
BYLAYER
  8
0
 10
-75.1825038844921
 11
-75.4763345296534
 20
48.6706943774433
 21
49.3785976032499
 62
7
  0
LINE
  6
BYLAYER
  8
0
 10
-75.4763345296534
 11
-76.1842377554598
 20
49.3785976032499
 21
49.6724282484111
 62
7
  0
LINE
  6
BYLAYER
  8
0
 10
-76.1842377554598
 11
-76.1842377554598
 20
49.6724282484111
 21
49.6724282484111
 62
7
  0
LINE
  6
BYLAYER
  8
0
 10
-76.1842377554598
 11
-76.8912942070728
 20
49.6724282484111
 21
49.3785976032499
 62
7
  0
LINE
  6
BYLAYER
  8
0
 10
-76.8912942070728
 11
-77.1808909812663
 20
49.3785976032499
 21
48.6706943774433
 62
7
  0
LINE
  6
BYLAYER
  8
0
 10
-77.1808909812663
 11
-77.1808909812663
 20
48.6706943774433
 21
47.6698072806692
 62
7
  0
LINE
  6
BYLAYER
  8
0
 10
-80.1810119490083
 11
-80.1810119490083
 20
47.6698072806692
 21
48.6706943774433
 62
7
  0
LINE
  6
BYLAYER
  8
0
 10
-80.1810119490083
 11
-80.4748425941695
 20
48.6706943774433
 21
49.3785976032499
 62
7
  0
LINE
  6
BYLAYER
  8
0
 10
-80.4748425941695
 11
-81.1827458199759
 20
49.3785976032499
 21
49.6724282484111
 62
7
  0
LINE
  6
BYLAYER
  8
0
 10
-81.1827458199759
 11
-81.1827458199759
 20
49.6724282484111
 21
49.6724282484111
 62
7
  0
LINE
  6
BYLAYER
  8
0
 10
-81.1827458199759
 11
-81.8898022715888
 20
49.6724282484111
 21
49.3785976032499
 62
7
  0
LINE
  6
BYLAYER
  8
0
 10
-81.8898022715888
 11
-82.1844796909437
 20
49.3785976032499
 21
48.6706943774433
 62
7
  0
LINE
  6
BYLAYER
  8
0
 10
-82.1844796909437
 11
-82.1844796909437
 20
48.6706943774433
 21
47.6698072806692
 62
7
  0
LINE
  6
BYLAYER
  8
0
 10
-85.2989151748146
 11
-85.2989151748146
 20
47.6698072806692
 21
48.6706943774433
 62
7
  0
LINE
  6
BYLAYER
  8
0
 10
-85.2989151748146
 11
-85.592745819976
 20
48.6706943774433
 21
49.3785976032499
 62
7
  0
LINE
  6
BYLAYER
  8
0
 10
-85.592745819976
 11
-86.3006490457824
 20
49.3785976032499
 21
49.6724282484111
 62
7
  0
LINE
  6
BYLAYER
  8
0
 10
-86.3006490457824
 11
-86.3006490457824
 20
49.6724282484111
 21
49.6724282484111
 62
7
  0
LINE
  6
BYLAYER
  8
0
 10
-86.3006490457824
 11
-87.0077054973953
 20
49.6724282484111
 21
49.3785976032499
 62
7
  0
LINE
  6
BYLAYER
  8
0
 10
-87.0077054973953
 11
-87.3015361425567
 20
49.3785976032499
 21
48.6706943774433
 62
7
  0
LINE
  6
BYLAYER
  8
0
 10
-87.3015361425567
 11
-87.3015361425567
 20
48.6706943774433
 21
47.6698072806692
 62
7
  0
LINE
  6
BYLAYER
  8
0
 10
-110.184761949008
 11
-110.184761949008
 20
47.6698072806692
 21
48.6706943774433
 62
7
  0
LINE
  6
BYLAYER
  8
0
 10
-110.184761949008
 11
-110.47859259417
 20
48.6706943774433
 21
49.3785976032499
 62
7
  0
LINE
  6
BYLAYER
  8
0
 10
-110.47859259417
 11
-111.186495819976
 20
49.3785976032499
 21
49.6724282484111
 62
7
  0
LINE
  6
BYLAYER
  8
0
 10
-111.186495819976
 11
-111.186495819976
 20
49.6724282484111
 21
49.6724282484111
 62
7
  0
LINE
  6
BYLAYER
  8
0
 10
-111.186495819976
 11
-111.893552271589
 20
49.6724282484111
 21
49.3785976032499
 62
7
  0
LINE
  6
BYLAYER
  8
0
 10
-111.893552271589
 11
-112.183149045782
 20
49.3785976032499
 21
48.6706943774433
 62
7
  0
LINE
  6
BYLAYER
  8
0
 10
-112.183149045782
 11
-112.183149045782
 20
48.6706943774433
 21
47.6698072806692
 62
7
  0
LINE
  6
BYLAYER
  8
0
 10
-105.182020013524
 11
-105.182020013524
 20
47.6647266355078
 21
48.6706943774433
 62
7
  0
LINE
  6
BYLAYER
  8
0
 10
-105.182020013524
 11
-105.475850658686
 20
48.6706943774433
 21
49.3785976032499
 62
7
  0
LINE
  6
BYLAYER
  8
0
 10
-105.475850658686
 11
-106.182907110299
 20
49.3785976032499
 21
49.6724282484111
 62
7
  0
LINE
  6
BYLAYER
  8
0
 10
-106.182907110299
 11
-106.182907110299
 20
49.6724282484111
 21
49.6724282484111
 62
7
  0
LINE
  6
BYLAYER
  8
0
 10
-106.182907110299
 11
-106.890810336105
 20
49.6724282484111
 21
49.3785976032499
 62
7
  0
LINE
  6
BYLAYER
  8
0
 10
-106.890810336105
 11
-107.184640981266
 20
49.3785976032499
 21
48.6706943774433
 62
7
  0
LINE
  6
BYLAYER
  8
0
 10
-107.184640981266
 11
-107.184640981266
 20
48.6706943774433
 21
47.6647266355078
 62
7
  0
LINE
  6
BYLAYER
  8
0
 10
-100.24363291675
 11
-100.24363291675
 20
47.6698072806692
 21
48.6706943774433
 62
7
  0
LINE
  6
BYLAYER
  8
0
 10
-100.24363291675
 11
-100.537463561911
 20
48.6706943774433
 21
49.3785976032499
 62
7
  0
LINE
  6
BYLAYER
  8
0
 10
-100.537463561911
 11
-101.240286142557
 20
49.3785976032499
 21
49.6724282484111
 62
7
  0
LINE
  6
BYLAYER
  8
0
 10
-101.240286142557
 11
-101.240286142557
 20
49.6724282484111
 21
49.6724282484111
 62
7
  0
LINE
  6
BYLAYER
  8
0
 10
-101.240286142557
 11
-101.952423239331
 20
49.6724282484111
 21
49.3785976032499
 62
7
  0
LINE
  6
BYLAYER
  8
0
 10
-101.952423239331
 11
-102.242020013524
 20
49.3785976032499
 21
48.6706943774433
 62
7
  0
LINE
  6
BYLAYER
  8
0
 10
-102.242020013524
 11
-102.242020013524
 20
48.6706943774433
 21
47.6698072806692
 62
7
  0
LINE
  6
BYLAYER
  8
0
 10
-95.1257296909437
 11
-95.1257296909437
 20
47.6698072806692
 21
48.6706943774433
 62
7
  0
LINE
  6
BYLAYER
  8
0
 10
-95.1257296909437
 11
-95.419560336105
 20
48.6706943774433
 21
49.3828314742176
 62
7
  0
LINE
  6
BYLAYER
  8
0
 10
-95.419560336105
 11
-96.1223829167501
 20
49.3828314742176
 21
49.6724282484111
 62
7
  0
LINE
  6
BYLAYER
  8
0
 10
-96.1223829167501
 11
-96.1223829167501
 20
49.6724282484111
 21
49.6724282484111
 62
7
  0
LINE
  6
BYLAYER
  8
0
 10
-96.1223829167501
 11
-96.8345200135244
 20
49.6724282484111
 21
49.3828314742176
 62
7
  0
LINE
  6
BYLAYER
  8
0
 10
-96.8345200135244
 11
-97.1241167877179
 20
49.3828314742176
 21
48.6706943774433
 62
7
  0
LINE
  6
BYLAYER
  8
0
 10
-97.1241167877179
 11
-97.1241167877179
 20
48.6706943774433
 21
47.6698072806692
 62
7
  0
LINE
  6
BYLAYER
  8
0
 10
-90.2415361425566
 11
-90.2415361425566
 20
47.6698072806692
 21
48.6706943774433
 62
7
  0
LINE
  6
BYLAYER
  8
0
 10
-90.2415361425566
 11
-90.5362135619115
 20
48.6706943774433
 21
49.3785976032499
 62
7
  0
LINE
  6
BYLAYER
  8
0
 10
-90.5362135619115
 11
-91.2432700135243
 20
49.3785976032499
 21
49.6724282484111
 62
7
  0
LINE
  6
BYLAYER
  8
0
 10
-91.2432700135243
 11
-91.2432700135243
 20
49.6724282484111
 21
49.6724282484111
 62
7
  0
LINE
  6
BYLAYER
  8
0
 10
-91.2432700135243
 11
-91.9511732393308
 20
49.6724282484111
 21
49.3785976032499
 62
7
  0
LINE
  6
BYLAYER
  8
0
 10
-91.9511732393308
 11
-92.2407700135243
 20
49.3785976032499
 21
48.6706943774433
 62
7
  0
LINE
  6
BYLAYER
  8
0
 10
-92.2407700135243
 11
-92.2407700135243
 20
48.6706943774433
 21
47.6698072806692
 62
7
  0
LINE
  6
BYLAYER
  8
0
 10
-70.2398829167502
 11
-70.2398829167502
 20
47.6698072806692
 21
48.6706943774433
 62
7
  0
LINE
  6
BYLAYER
  8
0
 10
-70.2398829167502
 11
-70.5337135619115
 20
48.6706943774433
 21
49.3785976032499
 62
7
  0
LINE
  6
BYLAYER
  8
0
 10
-70.5337135619115
 11
-71.2407700135243
 20
49.3785976032499
 21
49.6724282484111
 62
7
  0
LINE
  6
BYLAYER
  8
0
 10
-71.2407700135243
 11
-71.2407700135243
 20
49.6724282484111
 21
49.6724282484111
 62
7
  0
LINE
  6
BYLAYER
  8
0
 10
-71.2407700135243
 11
-71.9486732393308
 20
49.6724282484111
 21
49.3785976032499
 62
7
  0
LINE
  6
BYLAYER
  8
0
 10
-71.9486732393308
 11
-72.2425038844921
 20
49.3785976032499
 21
48.6706943774433
 62
7
  0
LINE
  6
BYLAYER
  8
0
 10
-72.2425038844921
 11
-72.2425038844921
 20
48.6706943774433
 21
47.6698072806692
 62
7
  0
LINE
  6
BYLAYER
  8
0
 10
-117.31011275546
 11
-115.279548239331
 20
62.2140008290563
 21
62.2140008290563
 62
7
  0
LINE
  6
BYLAYER
  8
0
 10
-117.27336275546
 11
-117.27336275546
 20
64.065049216153
 21
58.1799685709917
 62
7
  0
LINE
  6
BYLAYER
  8
0
 10
-117.27336275546
 11
-116.97927807804
 20
58.1799685709917
 21
57.4737588935724
 62
7
  0
LINE
  6
BYLAYER
  8
0
 10
-116.97927807804
 11
-116.27188291675
 20
57.4737588935724
 21
57.1790814742176
 62
7
  0
LINE
  6
BYLAYER
  8
0
 10
-116.27188291675
 11
-116.27188291675
 20
57.1790814742176
 21
57.1790814742176
 62
7
  0
LINE
  6
BYLAYER
  8
0
 10
-116.27188291675
 11
-115.56440307804
 20
57.1790814742176
 21
57.4737588935724
 62
7
  0
LINE
  6
BYLAYER
  8
0
 10
-115.56440307804
 11
-115.270318400621
 20
57.4737588935724
 21
58.1799685709917
 62
7
  0
LINE
  6
BYLAYER
  8
0
 10
-115.270318400621
 11
-115.270318400621
 20
58.1799685709917
 21
64.1116217967982
 62
7
  0
LINE
  6
BYLAYER
  8
0
 10
-112.321003884492
 11
-110.29484259417
 20
62.2140008290563
 21
62.2140008290563
 62
7
  0
LINE
  6
BYLAYER
  8
0
 10
-112.288741787718
 11
-112.288741787718
 20
64.065049216153
 21
58.1799685709917
 62
7
  0
LINE
  6
BYLAYER
  8
0
 10
-112.288741787718
 11
-111.994318400621
 20
58.1799685709917
 21
57.4737588935724
 62
7
  0
LINE
  6
BYLAYER
  8
0
 10
-111.994318400621
 11
-111.287261949008
 20
57.4737588935724
 21
57.1790814742176
 62
7
  0
LINE
  6
BYLAYER
  8
0
 10
-111.287261949008
 11
-111.287261949008
 20
57.1790814742176
 21
57.1790814742176
 62
7
  0
LINE
  6
BYLAYER
  8
0
 10
-111.287261949008
 11
-110.580205497395
 20
57.1790814742176
 21
57.4737588935724
 62
7
  0
LINE
  6
BYLAYER
  8
0
 10
-110.580205497395
 11
-110.28552807804
 20
57.4737588935724
 21
58.1799685709917
 62
7
  0
LINE
  6
BYLAYER
  8
0
 10
-110.28552807804
 11
-110.28552807804
 20
58.1799685709917
 21
64.1116217967982
 62
7
  0
LINE
  6
BYLAYER
  8
0
 10
-107.336213561911
 11
-105.310729690944
 20
62.2140008290563
 21
62.2140008290563
 62
7
  0
LINE
  6
BYLAYER
  8
0
 10
-107.299802271589
 11
-107.299802271589
 20
64.065049216153
 21
58.1799685709917
 62
7
  0
LINE
  6
BYLAYER
  8
0
 10
-107.299802271589
 11
-107.010205497395
 20
58.1799685709917
 21
57.4737588935724
 62
7
  0
LINE
  6
BYLAYER
  8
0
 10
-107.010205497395
 11
-106.303149045782
 20
57.4737588935724
 21
57.1790814742176
 62
7
  0
LINE
  6
BYLAYER
  8
0
 10
-106.303149045782
 11
-106.303149045782
 20
57.1790814742176
 21
57.1790814742176
 62
7
  0
LINE
  6
BYLAYER
  8
0
 10
-106.303149045782
 11
-105.595245819976
 20
57.1790814742176
 21
57.4737588935724
 62
7
  0
LINE
  6
BYLAYER
  8
0
 10
-105.595245819976
 11
-105.301415174815
 20
57.4737588935724
 21
58.1799685709917
 62
7
  0
LINE
  6
BYLAYER
  8
0
 10
-105.301415174815
 11
-105.301415174815
 20
58.1799685709917
 21
64.1116217967982
 62
7
  0
LINE
  6
BYLAYER
  8
0
 10
-102.352100658686
 11
-100.321536142557
 20
62.2140008290563
 21
62.2140008290563
 62
7
  0
LINE
  6
BYLAYER
  8
0
 10
-102.31484259417
 11
-102.31484259417
 20
64.065049216153
 21
58.1799685709917
 62
7
  0
LINE
  6
BYLAYER
  8
0
 10
-102.31484259417
 11
-102.026092594169
 20
58.1799685709917
 21
57.4737588935724
 62
7
  0
LINE
  6
BYLAYER
  8
0
 10
-102.026092594169
 11
-101.318189368363
 20
57.4737588935724
 21
57.1790814742176
 62
7
  0
LINE
  6
BYLAYER
  8
0
 10
-101.318189368363
 11
-101.318189368363
 20
57.1790814742176
 21
57.1790814742176
 62
7
  0
LINE
  6
BYLAYER
  8
0
 10
-101.318189368363
 11
-100.61113291675
 20
57.1790814742176
 21
57.4737588935724
 62
7
  0
LINE
  6
BYLAYER
  8
0
 10
-100.61113291675
 11
-100.316455497395
 20
57.4737588935724
 21
58.1799685709917
 62
7
  0
LINE
  6
BYLAYER
  8
0
 10
-100.316455497395
 11
-100.316455497395
 20
58.1799685709917
 21
64.1116217967982
 62
7
  0
LINE
  6
BYLAYER
  8
0
 10
-97.3214151748146
 11
-95.2950845296533
 20
62.2140008290563
 21
62.2140008290563
 62
7
  0
LINE
  6
BYLAYER
  8
0
 10
-97.2850038844921
 11
-97.2850038844921
 20
64.065049216153
 21
58.1799685709917
 62
7
  0
LINE
  6
BYLAYER
  8
0
 10
-97.2850038844921
 11
-96.9954071102986
 20
58.1799685709917
 21
57.4737588935724
 62
7
  0
LINE
  6
BYLAYER
  8
0
 10
-96.9954071102986
 11
-96.287503884492
 20
57.4737588935724
 21
57.1790814742176
 62
7
  0
LINE
  6
BYLAYER
  8
0
 10
-96.287503884492
 11
-96.287503884492
 20
57.1790814742176
 21
57.1790814742176
 62
7
  0
LINE
  6
BYLAYER
  8
0
 10
-96.287503884492
 11
-95.5804474328792
 20
57.1790814742176
 21
57.4737588935724
 62
7
  0
LINE
  6
BYLAYER
  8
0
 10
-95.5804474328792
 11
-95.2866167877178
 20
57.4737588935724
 21
58.1799685709917
 62
7
  0
LINE
  6
BYLAYER
  8
0
 10
-95.2866167877178
 11
-95.2866167877178
 20
58.1799685709917
 21
64.1116217967982
 62
7
  0
LINE
  6
BYLAYER
  8
0
 10
-92.295810336105
 11
-90.265245819976
 20
62.236863732282
 21
62.236863732282
 62
7
  0
LINE
  6
BYLAYER
  8
0
 10
-92.2585522715888
 11
-92.2585522715888
 20
64.0938395387336
 21
58.203678248411
 62
7
  0
LINE
  6
BYLAYER
  8
0
 10
-92.2585522715888
 11
-91.9647216264275
 20
58.203678248411
 21
57.5008556677659
 62
7
  0
LINE
  6
BYLAYER
  8
0
 10
-91.9647216264275
 11
-91.2576651748146
 20
57.5008556677659
 21
57.2061782484111
 62
7
  0
LINE
  6
BYLAYER
  8
0
 10
-91.2576651748146
 11
-91.2576651748146
 20
57.2061782484111
 21
57.2061782484111
 62
7
  0
LINE
  6
BYLAYER
  8
0
 10
-91.2576651748146
 11
-90.5497619490083
 20
57.2061782484111
 21
57.5008556677659
 62
7
  0
LINE
  6
BYLAYER
  8
0
 10
-90.5497619490083
 11
-90.2559313038469
 20
57.5008556677659
 21
58.203678248411
 62
7
  0
LINE
  6
BYLAYER
  8
0
 10
-90.2559313038469
 11
-90.2559313038469
 20
58.203678248411
 21
64.134484700024
 62
7
  0
LINE
  6
BYLAYER
  8
0
 10
-87.3523425941696
 11
-85.3217780780404
 20
62.236863732282
 21
62.236863732282
 62
7
  0
LINE
  6
BYLAYER
  8
0
 10
-87.3159313038469
 11
-87.3159313038469
 20
64.0938395387336
 21
58.203678248411
 62
7
  0
LINE
  6
BYLAYER
  8
0
 10
-87.3159313038469
 11
-87.0212538844921
 20
58.203678248411
 21
57.5008556677659
 62
7
  0
LINE
  6
BYLAYER
  8
0
 10
-87.0212538844921
 11
-86.3141974328791
 20
57.5008556677659
 21
57.2061782484111
 62
7
  0
LINE
  6
BYLAYER
  8
0
 10
-86.3141974328791
 11
-86.3141974328791
 20
57.2061782484111
 21
57.2061782484111
 62
7
  0
LINE
  6
BYLAYER
  8
0
 10
-86.3141974328791
 11
-85.6062942070727
 20
57.2061782484111
 21
57.5008556677659
 62
7
  0
LINE
  6
BYLAYER
  8
0
 10
-85.6062942070727
 11
-85.3124635619115
 20
57.5008556677659
 21
58.203678248411
 62
7
  0
LINE
  6
BYLAYER
  8
0
 10
-85.3124635619115
 11
-85.3124635619115
 20
58.203678248411
 21
64.134484700024
 62
7
  0
LINE
  6
BYLAYER
  8
0
 10
-117.29165307804
 11
-115.265745819976
 20
-11.7457975580406
 21
-11.7457975580406
 62
7
  0
LINE
  6
BYLAYER
  8
0
 10
-117.259560336105
 11
-117.259560336105
 20
-13.5968459451372
 21
-7.71176529997607
 62
7
  0
LINE
  6
BYLAYER
  8
0
 10
-117.259560336105
 11
-116.965560336105
 20
-7.71176529997607
 21
-7.00470884836315
 62
7
  0
LINE
  6
BYLAYER
  8
0
 10
-116.965560336105
 11
-116.257995819976
 20
-7.00470884836315
 21
-6.71087820320187
 62
7
  0
LINE
  6
BYLAYER
  8
0
 10
-116.257995819976
 11
-116.257995819976
 20
-6.71087820320187
 21
-6.71087820320187
 62
7
  0
LINE
  6
BYLAYER
  8
0
 10
-116.257995819976
 11
-115.550600658686
 20
-6.71087820320187
 21
-7.00470884836315
 62
7
  0
LINE
  6
BYLAYER
  8
0
 10
-115.550600658686
 11
-115.256600658686
 20
-7.00470884836315
 21
-7.71176529997607
 62
7
  0
LINE
  6
BYLAYER
  8
0
 10
-115.256600658686
 11
-115.256600658686
 20
-7.71176529997607
 21
-13.6425717515889
 62
7
  0
LINE
  6
BYLAYER
  8
0
 10
-112.307201465137
 11
-110.281294207073
 20
-11.7457975580406
 21
-11.7457975580406
 62
7
  0
LINE
  6
BYLAYER
  8
0
 10
-112.270451465137
 11
-112.270451465137
 20
-13.5968459451372
 21
-7.71176529997607
 62
7
  0
LINE
  6
BYLAYER
  8
0
 10
-112.270451465137
 11
-111.980770013524
 20
-7.71176529997607
 21
-7.00470884836315
 62
7
  0
LINE
  6
BYLAYER
  8
0
 10
-111.980770013524
 11
-111.273713561911
 20
-7.00470884836315
 21
-6.71087820320187
 62
7
  0
LINE
  6
BYLAYER
  8
0
 10
-111.273713561911
 11
-111.273713561911
 20
-6.71087820320187
 21
-6.71087820320187
 62
7
  0
LINE
  6
BYLAYER
  8
0
 10
-111.273713561911
 11
-110.565810336105
 20
-6.71087820320187
 21
-7.00470884836315
 62
7
  0
LINE
  6
BYLAYER
  8
0
 10
-110.565810336105
 11
-110.271979690944
 20
-7.00470884836315
 21
-7.71176529997607
 62
7
  0
LINE
  6
BYLAYER
  8
0
 10
-110.271979690944
 11
-110.271979690944
 20
-7.71176529997607
 21
-13.6425717515889
 62
7
  0
LINE
  6
BYLAYER
  8
0
 10
-107.322665174815
 11
-105.292100658686
 20
-11.7457975580406
 21
-11.7457975580406
 62
7
  0
LINE
  6
BYLAYER
  8
0
 10
-107.286253884492
 11
-107.286253884492
 20
-13.5968459451372
 21
-7.71176529997607
 62
7
  0
LINE
  6
BYLAYER
  8
0
 10
-107.286253884492
 11
-106.996657110299
 20
-7.71176529997607
 21
-7.00470884836315
 62
7
  0
LINE
  6
BYLAYER
  8
0
 10
-106.996657110299
 11
-106.284520013524
 20
-7.00470884836315
 21
-6.71087820320187
 62
7
  0
LINE
  6
BYLAYER
  8
0
 10
-106.284520013524
 11
-106.284520013524
 20
-6.71087820320187
 21
-6.71087820320187
 62
7
  0
LINE
  6
BYLAYER
  8
0
 10
-106.284520013524
 11
-105.581697432879
 20
-6.71087820320187
 21
-7.00470884836315
 62
7
  0
LINE
  6
BYLAYER
  8
0
 10
-105.581697432879
 11
-105.287866787718
 20
-7.00470884836315
 21
-7.71176529997607
 62
7
  0
LINE
  6
BYLAYER
  8
0
 10
-105.287866787718
 11
-105.287866787718
 20
-7.71176529997607
 21
-13.6425717515889
 62
7
  0
LINE
  6
BYLAYER
  8
0
 10
-102.337705497395
 11
-100.307140981266
 20
-11.7457975580406
 21
-11.7457975580406
 62
7
  0
LINE
  6
BYLAYER
  8
0
 10
-102.301294207073
 11
-102.301294207073
 20
-13.5968459451372
 21
-7.71176529997607
 62
7
  0
LINE
  6
BYLAYER
  8
0
 10
-102.301294207073
 11
-102.007463561911
 20
-7.71176529997607
 21
-7.00470884836315
 62
7
  0
LINE
  6
BYLAYER
  8
0
 10
-102.007463561911
 11
-101.299560336105
 20
-7.00470884836315
 21
-6.71087820320187
 62
7
  0
LINE
  6
BYLAYER
  8
0
 10
-101.299560336105
 11
-101.299560336105
 20
-6.71087820320187
 21
-6.71087820320187
 62
7
  0
LINE
  6
BYLAYER
  8
0
 10
-101.299560336105
 11
-100.59673775546
 20
-6.71087820320187
 21
-7.00470884836315
 62
7
  0
LINE
  6
BYLAYER
  8
0
 10
-100.59673775546
 11
-100.302907110298
 20
-7.00470884836315
 21
-7.71176529997607
 62
7
  0
LINE
  6
BYLAYER
  8
0
 10
-100.302907110298
 11
-100.302907110298
 20
-7.71176529997607
 21
-13.6425717515889
 62
7
  0
LINE
  6
BYLAYER
  8
0
 10
-97.3078667877179
 11
-95.2773022715888
 20
-11.7457975580406
 21
-11.7457975580406
 62
7
  0
LINE
  6
BYLAYER
  8
0
 10
-97.2706087232018
 11
-97.2706087232018
 20
-13.5968459451372
 21
-7.71176529997607
 62
7
  0
LINE
  6
BYLAYER
  8
0
 10
-97.2706087232018
 11
-96.9818587232017
 20
-7.71176529997607
 21
-7.00470884836315
 62
7
  0
LINE
  6
BYLAYER
  8
0
 10
-96.9818587232017
 11
-96.2697216264276
 20
-7.00470884836315
 21
-6.71087820320187
 62
7
  0
LINE
  6
BYLAYER
  8
0
 10
-96.2697216264276
 11
-96.2697216264276
 20
-6.71087820320187
 21
-6.71087820320187
 62
7
  0
LINE
  6
BYLAYER
  8
0
 10
-96.2697216264276
 11
-95.5668990457824
 20
-6.71087820320187
 21
-7.00470884836315
 62
7
  0
LINE
  6
BYLAYER
  8
0
 10
-95.5668990457824
 11
-95.2722216264275
 20
-7.00470884836315
 21
-7.71176529997607
 62
7
  0
LINE
  6
BYLAYER
  8
0
 10
-95.2722216264275
 11
-95.2722216264275
 20
-7.71176529997607
 21
-13.6425717515889
 62
7
  0
LINE
  6
BYLAYER
  8
0
 10
-92.277181303847
 11
-90.2466167877179
 20
-11.7678136870728
 21
-11.7678136870728
 62
7
  0
LINE
  6
BYLAYER
  8
0
 10
-92.2407700135243
 11
-92.2407700135243
 20
-13.6239427193309
 21
-7.73547497739534
 62
7
  0
LINE
  6
BYLAYER
  8
0
 10
-92.2407700135243
 11
-91.9511732393308
 20
-7.73547497739534
 21
-7.02757175158885
 62
7
  0
LINE
  6
BYLAYER
  8
0
 10
-91.9511732393308
 11
-91.2432700135243
 20
-7.02757175158885
 21
-6.73797497739545
 62
7
  0
LINE
  6
BYLAYER
  8
0
 10
-91.2432700135243
 11
-91.2432700135243
 20
-6.73797497739545
 21
-6.73797497739545
 62
7
  0
LINE
  6
BYLAYER
  8
0
 10
-91.2432700135243
 11
-90.5362135619115
 20
-6.73797497739545
 21
-7.02757175158885
 62
7
  0
LINE
  6
BYLAYER
  8
0
 10
-90.5362135619115
 11
-90.2415361425566
 20
-7.02757175158885
 21
-7.73547497739534
 62
7
  0
LINE
  6
BYLAYER
  8
0
 10
-90.2415361425566
 11
-90.2415361425566
 20
-7.73547497739534
 21
-13.6662814290083
 62
7
  0
LINE
  6
BYLAYER
  8
0
 10
-87.3387942070727
 11
-85.3082296909437
 20
-11.7678136870728
 21
-11.7678136870728
 62
7
  0
LINE
  6
BYLAYER
  8
0
 10
-87.3015361425567
 11
-87.3015361425567
 20
-13.6239427193309
 21
-7.73547497739534
 62
7
  0
LINE
  6
BYLAYER
  8
0
 10
-87.3015361425567
 11
-87.0077054973953
 20
-7.73547497739534
 21
-7.02757175158885
 62
7
  0
LINE
  6
BYLAYER
  8
0
 10
-87.0077054973953
 11
-86.3006490457824
 20
-7.02757175158885
 21
-6.73797497739545
 62
7
  0
LINE
  6
BYLAYER
  8
0
 10
-86.3006490457824
 11
-86.3006490457824
 20
-6.73797497739545
 21
-6.73797497739545
 62
7
  0
LINE
  6
BYLAYER
  8
0
 10
-86.3006490457824
 11
-85.592745819976
 20
-6.73797497739545
 21
-7.02757175158885
 62
7
  0
LINE
  6
BYLAYER
  8
0
 10
-85.592745819976
 11
-85.2989151748146
 20
-7.02757175158885
 21
-7.73547497739534
 62
7
  0
LINE
  6
BYLAYER
  8
0
 10
-85.2989151748146
 11
-85.2989151748146
 20
-7.73547497739534
 21
-13.6662814290083
 62
7
  0
LINE
  6
BYLAYER
  8
0
 10
-100.284278078041
 11
-100.284278078041
 20
3.07021050647566
 21
2.06847663550778
 62
7
  0
LINE
  6
BYLAYER
  8
0
 10
-100.284278078041
 11
-100.578955497395
 20
2.06847663550778
 21
1.36142018389486
 62
7
  0
LINE
  6
BYLAYER
  8
0
 10
-100.578955497395
 11
-101.286011949008
 20
1.36142018389486
 21
1.06758953873376
 62
7
  0
LINE
  6
BYLAYER
  8
0
 10
-101.286011949008
 11
-101.286011949008
 20
1.06758953873376
 21
1.06758953873376
 62
7
  0
LINE
  6
BYLAYER
  8
0
 10
-101.286011949008
 11
-101.993915174815
 20
1.06758953873376
 21
1.36142018389486
 62
7
  0
LINE
  6
BYLAYER
  8
0
 10
-101.993915174815
 11
-102.287745819976
 20
1.36142018389486
 21
2.06847663550778
 62
7
  0
LINE
  6
BYLAYER
  8
0
 10
-102.287745819976
 11
-102.287745819976
 20
2.06847663550778
 21
3.07021050647566
 62
7
  0
LINE
  6
BYLAYER
  8
0
 10
-110.345649045782
 11
-110.345649045782
 20
3.11678308712075
 21
2.11420244195941
 62
7
  0
LINE
  6
BYLAYER
  8
0
 10
-110.345649045782
 11
-110.639479690944
 20
2.11420244195941
 21
1.40799276454018
 62
7
  0
LINE
  6
BYLAYER
  8
0
 10
-110.639479690944
 11
-111.34738291675
 20
1.40799276454018
 21
1.11331534518533
 62
7
  0
LINE
  6
BYLAYER
  8
0
 10
-111.34738291675
 11
-111.34738291675
 20
1.11331534518533
 21
1.11331534518533
 62
7
  0
LINE
  6
BYLAYER
  8
0
 10
-111.34738291675
 11
-112.054439368363
 20
1.11331534518533
 21
1.40799276454018
 62
7
  0
LINE
  6
BYLAYER
  8
0
 10
-112.054439368363
 11
-112.348524045782
 20
1.40799276454018
 21
2.11420244195941
 62
7
  0
LINE
  6
BYLAYER
  8
0
 10
-112.348524045782
 11
-112.348524045782
 20
2.11420244195941
 21
3.11678308712075
 62
7
  0
LINE
  6
BYLAYER
  8
0
 10
-105.360689368363
 11
-105.360689368363
 20
3.11678308712075
 21
2.11420244195941
 62
7
  0
LINE
  6
BYLAYER
  8
0
 10
-105.360689368363
 11
-105.655366787718
 20
2.11420244195941
 21
1.40799276454018
 62
7
  0
LINE
  6
BYLAYER
  8
0
 10
-105.655366787718
 11
-106.358189368363
 20
1.40799276454018
 21
1.11331534518533
 62
7
  0
LINE
  6
BYLAYER
  8
0
 10
-106.358189368363
 11
-106.358189368363
 20
1.11331534518533
 21
1.11331534518533
 62
7
  0
LINE
  6
BYLAYER
  8
0
 10
-106.358189368363
 11
-107.070326465137
 20
1.11331534518533
 21
1.40799276454018
 62
7
  0
LINE
  6
BYLAYER
  8
0
 10
-107.070326465137
 11
-107.359076465137
 20
1.40799276454018
 21
2.11420244195941
 62
7
  0
LINE
  6
BYLAYER
  8
0
 10
-107.359076465137
 11
-107.359076465137
 20
2.11420244195941
 21
3.11678308712075
 62
7
  0
LINE
  6
BYLAYER
  8
0
 10
-115.288693400621
 11
-115.288693400621
 20
3.11678308712075
 21
2.11420244195941
 62
7
  0
LINE
  6
BYLAYER
  8
0
 10
-115.288693400621
 11
-115.582693400621
 20
2.11420244195941
 21
1.40799276454018
 62
7
  0
LINE
  6
BYLAYER
  8
0
 10
-115.582693400621
 11
-116.285685336105
 20
1.40799276454018
 21
1.11331534518533
 62
7
  0
LINE
  6
BYLAYER
  8
0
 10
-116.285685336105
 11
-116.285685336105
 20
1.11331534518533
 21
1.11331534518533
 62
7
  0
LINE
  6
BYLAYER
  8
0
 10
-116.285685336105
 11
-116.99765307804
 20
1.11331534518533
 21
1.40799276454018
 62
7
  0
LINE
  6
BYLAYER
  8
0
 10
-116.99765307804
 11
-117.287080497395
 20
1.40799276454018
 21
2.11420244195941
 62
7
  0
LINE
  6
BYLAYER
  8
0
 10
-117.287080497395
 11
-117.287080497395
 20
2.11420244195941
 21
3.11678308712075
 62
7
  0
LINE
  6
BYLAYER
  8
0
 10
-55.2858506586857
 11
-55.2858506586857
 20
3.07529115163683
 21
2.06847663550778
 62
7
  0
LINE
  6
BYLAYER
  8
0
 10
-55.2858506586857
 11
-55.579681303847
 20
2.06847663550778
 21
1.36142018389486
 62
7
  0
LINE
  6
BYLAYER
  8
0
 10
-55.579681303847
 11
-56.2833506586857
 20
1.36142018389486
 21
1.06758953873376
 62
7
  0
LINE
  6
BYLAYER
  8
0
 10
-56.2833506586857
 11
-56.2833506586857
 20
1.06758953873376
 21
1.06758953873376
 62
7
  0
LINE
  6
BYLAYER
  8
0
 10
-56.2833506586857
 11
-56.9946409812662
 20
1.06758953873376
 21
1.36142018389486
 62
7
  0
LINE
  6
BYLAYER
  8
0
 10
-56.9946409812662
 11
-57.2842377554599
 20
1.36142018389486
 21
2.06847663550778
 62
7
  0
LINE
  6
BYLAYER
  8
0
 10
-57.2842377554599
 11
-57.2842377554599
 20
2.06847663550778
 21
3.07529115163683
 62
7
  0
LINE
  6
BYLAYER
  8
0
 10
-50.2966571102985
 11
-50.2966571102985
 20
3.19383953873373
 21
2.18871857099177
 62
7
  0
LINE
  6
BYLAYER
  8
0
 10
-50.2966571102985
 11
-50.5904877554599
 20
2.18871857099177
 21
1.48504921615299
 62
7
  0
LINE
  6
BYLAYER
  8
0
 10
-50.5904877554599
 11
-51.2975442070728
 20
1.48504921615299
 21
1.19121857099177
 62
7
  0
LINE
  6
BYLAYER
  8
0
 10
-51.2975442070728
 11
-51.2975442070728
 20
1.19121857099177
 21
1.19121857099177
 62
7
  0
LINE
  6
BYLAYER
  8
0
 10
-51.2975442070728
 11
-52.0054474328792
 20
1.19121857099177
 21
1.48504921615299
 62
7
  0
LINE
  6
BYLAYER
  8
0
 10
-52.0054474328792
 11
-52.300124852234
 20
1.48504921615299
 21
2.18871857099177
 62
7
  0
LINE
  6
BYLAYER
  8
0
 10
-52.300124852234
 11
-52.300124852234
 20
2.18871857099177
 21
3.19383953873373
 62
7
  0
LINE
  6
BYLAYER
  8
0
 10
-35.1639554973954
 11
-35.1639554973954
 20
3.08968631292717
 21
2.08287179679823
 62
7
  0
LINE
  6
BYLAYER
  8
0
 10
-35.1639554973954
 11
-35.4586329167501
 20
2.08287179679823
 21
1.37496857099168
 62
7
  0
LINE
  6
BYLAYER
  8
0
 10
-35.4586329167501
 11
-36.1648425941695
 20
1.37496857099168
 21
1.08029115163694
 62
7
  0
LINE
  6
BYLAYER
  8
0
 10
-36.1648425941695
 11
-36.1648425941695
 20
1.08029115163694
 21
1.08029115163694
 62
7
  0
LINE
  6
BYLAYER
  8
0
 10
-36.1648425941695
 11
-36.872745819976
 20
1.08029115163694
 21
1.37496857099168
 62
7
  0
LINE
  6
BYLAYER
  8
0
 10
-36.872745819976
 11
-37.1674232393308
 20
1.37496857099168
 21
2.08287179679823
 62
7
  0
LINE
  6
BYLAYER
  8
0
 10
-37.1674232393308
 11
-37.1674232393308
 20
2.08287179679823
 21
3.08968631292717
 62
7
  0
LINE
  6
BYLAYER
  8
0
 10
-30.3127861425567
 11
-30.3127861425567
 20
3.084605667766
 21
2.08287179679823
 62
7
  0
LINE
  6
BYLAYER
  8
0
 10
-30.3127861425567
 11
-30.6066167877179
 20
2.08287179679823
 21
1.37496857099168
 62
7
  0
LINE
  6
BYLAYER
  8
0
 10
-30.6066167877179
 11
-31.3136732393309
 20
1.37496857099168
 21
1.08029115163694
 62
7
  0
LINE
  6
BYLAYER
  8
0
 10
-31.3136732393309
 11
-31.3136732393309
 20
1.08029115163694
 21
1.08029115163694
 62
7
  0
LINE
  6
BYLAYER
  8
0
 10
-31.3136732393309
 11
-32.0215764651372
 20
1.08029115163694
 21
1.37496857099168
 62
7
  0
LINE
  6
BYLAYER
  8
0
 10
-32.0215764651372
 11
-32.3162538844921
 20
1.37496857099168
 21
2.08287179679823
 62
7
  0
LINE
  6
BYLAYER
  8
0
 10
-32.3162538844921
 11
-32.3162538844921
 20
2.08287179679823
 21
3.084605667766
 62
7
  0
LINE
  6
BYLAYER
  8
0
 10
-45.1372619490083
 11
-45.1372619490083
 20
3.11678308712075
 21
2.11420244195941
 62
7
  0
LINE
  6
BYLAYER
  8
0
 10
-45.1372619490083
 11
-45.4310925941696
 20
2.11420244195941
 21
1.40799276454018
 62
7
  0
LINE
  6
BYLAYER
  8
0
 10
-45.4310925941696
 11
-46.1398425941695
 20
1.40799276454018
 21
1.11331534518533
 62
7
  0
LINE
  6
BYLAYER
  8
0
 10
-46.1398425941695
 11
-46.1398425941695
 20
1.11331534518533
 21
1.11331534518533
 62
7
  0
LINE
  6
BYLAYER
  8
0
 10
-46.1398425941695
 11
-46.8460522715888
 20
1.11331534518533
 21
1.40799276454018
 62
7
  0
LINE
  6
BYLAYER
  8
0
 10
-46.8460522715888
 11
-47.1356490457825
 20
1.40799276454018
 21
2.11420244195941
 62
7
  0
LINE
  6
BYLAYER
  8
0
 10
-47.1356490457825
 11
-47.1356490457825
 20
2.11420244195941
 21
3.11678308712075
 62
7
  0
LINE
  6
BYLAYER
  8
0
 10
-40.1946409812662
 11
-40.1946409812662
 20
3.11678308712075
 21
2.11420244195941
 62
7
  0
LINE
  6
BYLAYER
  8
0
 10
-40.1946409812662
 11
-40.4884716264276
 20
2.11420244195941
 21
1.40799276454018
 62
7
  0
LINE
  6
BYLAYER
  8
0
 10
-40.4884716264276
 11
-41.196374852234
 20
1.40799276454018
 21
1.11331534518533
 62
7
  0
LINE
  6
BYLAYER
  8
0
 10
-41.196374852234
 11
-41.196374852234
 20
1.11331534518533
 21
1.11331534518533
 62
7
  0
LINE
  6
BYLAYER
  8
0
 10
-41.196374852234
 11
-41.9034313038469
 20
1.11331534518533
 21
1.40799276454018
 62
7
  0
LINE
  6
BYLAYER
  8
0
 10
-41.9034313038469
 11
-42.1972619490082
 20
1.40799276454018
 21
2.11420244195941
 62
7
  0
LINE
  6
BYLAYER
  8
0
 10
-42.1972619490082
 11
-42.1972619490082
 20
2.11420244195941
 21
3.11678308712075
 62
7
  0
LINE
  6
BYLAYER
  8
0
 10
-40.1946409812662
 11
-40.1946409812662
 20
3.11678308712075
 21
2.11420244195941
 62
7
  0
LINE
  6
BYLAYER
  8
0
 10
-40.1946409812662
 11
-40.4884716264276
 20
2.11420244195941
 21
1.40799276454018
 62
7
  0
LINE
  6
BYLAYER
  8
0
 10
-40.4884716264276
 11
-41.196374852234
 20
1.40799276454018
 21
1.11331534518533
 62
7
  0
LINE
  6
BYLAYER
  8
0
 10
-41.196374852234
 11
-41.196374852234
 20
1.11331534518533
 21
1.11331534518533
 62
7
  0
LINE
  6
BYLAYER
  8
0
 10
-41.196374852234
 11
-41.9034313038469
 20
1.11331534518533
 21
1.40799276454018
 62
7
  0
LINE
  6
BYLAYER
  8
0
 10
-41.9034313038469
 11
-42.1972619490082
 20
1.40799276454018
 21
2.11420244195941
 62
7
  0
LINE
  6
BYLAYER
  8
0
 10
-42.1972619490082
 11
-42.1972619490082
 20
2.11420244195941
 21
3.11678308712075
 62
7
  0
LINE
  6
BYLAYER
  8
0
 10
-25.1948829167501
 11
-25.1948829167501
 20
3.08968631292717
 21
2.08287179679823
 62
7
  0
LINE
  6
BYLAYER
  8
0
 10
-25.1948829167501
 11
-25.4887135619114
 20
2.08287179679823
 21
1.37496857099168
 62
7
  0
LINE
  6
BYLAYER
  8
0
 10
-25.4887135619114
 11
-26.1966167877179
 20
1.37496857099168
 21
1.08029115163694
 62
7
  0
LINE
  6
BYLAYER
  8
0
 10
-26.1966167877179
 11
-26.1966167877179
 20
1.08029115163694
 21
1.08029115163694
 62
7
  0
LINE
  6
BYLAYER
  8
0
 10
-26.1966167877179
 11
-26.9036732393309
 20
1.08029115163694
 21
1.37496857099168
 62
7
  0
LINE
  6
BYLAYER
  8
0
 10
-26.9036732393309
 11
-27.1932700135243
 20
1.37496857099168
 21
2.08287179679823
 62
7
  0
LINE
  6
BYLAYER
  8
0
 10
-27.1932700135243
 11
-27.1932700135243
 20
2.08287179679823
 21
3.08968631292717
 62
7
  0
LINE
  6
BYLAYER
  8
0
 10
-36.1648425941695
 11
-35.4586329167501
 20
5.2015411516368
 21
5.4953717967982
 62
7
  0
LINE
  6
BYLAYER
  8
0
 10
-35.4586329167501
 11
-35.1639554973954
 20
5.4953717967982
 21
6.19904115163698
 62
7
  0
LINE
  6
BYLAYER
  8
0
 10
-35.1639554973954
 11
-35.1639554973954
 20
6.19904115163698
 21
22.2090008290562
 62
7
  0
LINE
  6
BYLAYER
  8
0
 10
-35.1639554973954
 11
-35.4586329167501
 20
22.2090008290562
 21
22.9169040548627
 62
7
  0
LINE
  6
BYLAYER
  8
0
 10
-35.4586329167501
 11
-36.1648425941695
 20
22.9169040548627
 21
23.2107347000241
 62
7
  0
LINE
  6
BYLAYER
  8
0
 10
-36.1648425941695
 11
-36.1648425941695
 20
23.2107347000241
 21
23.2107347000241
 62
7
  0
LINE
  6
BYLAYER
  8
0
 10
-36.1648425941695
 11
-36.872745819976
 20
23.2107347000241
 21
22.9169040548627
 62
7
  0
LINE
  6
BYLAYER
  8
0
 10
-36.872745819976
 11
-37.1674232393308
 20
22.9169040548627
 21
22.2090008290562
 62
7
  0
LINE
  6
BYLAYER
  8
0
 10
-37.1674232393308
 11
-37.1674232393308
 20
22.2090008290562
 21
6.19904115163698
 62
7
  0
LINE
  6
BYLAYER
  8
0
 10
-37.1674232393308
 11
-36.872745819976
 20
6.19904115163698
 21
5.4953717967982
 62
7
  0
LINE
  6
BYLAYER
  8
0
 10
-36.872745819976
 11
-36.1648425941695
 20
5.4953717967982
 21
5.2015411516368
 62
7
  0
LINE
  6
BYLAYER
  8
0
 10
-36.1648425941695
 11
-36.1648425941695
 20
5.2015411516368
 21
5.2015411516368
 62
7
  0
LINE
  6
BYLAYER
  8
0
 10
-36.1648425941695
 11
-36.1648425941695
 20
5.2015411516368
 21
5.2015411516368
 62
7
  0
LINE
  6
BYLAYER
  8
0
 10
-96.2553264651373
 11
-95.5482700135243
 20
5.11432340970148
 21
5.40900082905628
 62
7
  0
LINE
  6
BYLAYER
  8
0
 10
-95.5482700135243
 11
-95.254439368363
 20
5.40900082905628
 21
6.11690405486266
 62
7
  0
LINE
  6
BYLAYER
  8
0
 10
-95.254439368363
 11
-95.254439368363
 20
6.11690405486266
 21
22.126863732282
 62
7
  0
LINE
  6
BYLAYER
  8
0
 10
-95.254439368363
 11
-95.5482700135243
 20
22.126863732282
 21
22.8347669580886
 62
7
  0
LINE
  6
BYLAYER
  8
0
 10
-95.5482700135243
 11
-96.2553264651373
 20
22.8347669580886
 21
23.1235169580886
 62
7
  0
LINE
  6
BYLAYER
  8
0
 10
-96.2553264651373
 11
-96.2553264651373
 20
23.1235169580886
 21
23.1235169580886
 62
7
  0
LINE
  6
BYLAYER
  8
0
 10
-96.2553264651373
 11
-96.9632296909437
 20
23.1235169580886
 21
22.8347669580886
 62
7
  0
LINE
  6
BYLAYER
  8
0
 10
-96.9632296909437
 11
-97.257060336105
 20
22.8347669580886
 21
22.126863732282
 62
7
  0
LINE
  6
BYLAYER
  8
0
 10
-97.257060336105
 11
-97.257060336105
 20
22.126863732282
 21
6.11690405486266
 62
7
  0
LINE
  6
BYLAYER
  8
0
 10
-97.257060336105
 11
-96.9632296909437
 20
6.11690405486266
 21
5.40900082905628
 62
7
  0
LINE
  6
BYLAYER
  8
0
 10
-96.9632296909437
 11
-96.2553264651373
 20
5.40900082905628
 21
5.11432340970148
 62
7
  0
LINE
  6
BYLAYER
  8
0
 10
-96.2553264651373
 11
-96.2553264651373
 20
5.11432340970148
 21
5.11432340970148
 62
7
  0
LINE
  6
BYLAYER
  8
0
 10
-96.2553264651373
 11
-96.2553264651373
 20
5.11432340970148
 21
5.11432340970148
 62
7
  0
LINE
  6
BYLAYER
  8
0
 10
-96.2553264651373
 11
-95.5482700135243
 20
27.4420653451853
 21
27.7367427645401
 62
7
  0
LINE
  6
BYLAYER
  8
0
 10
-95.5482700135243
 11
-95.254439368363
 20
27.7367427645401
 21
28.4429524419595
 62
7
  0
LINE
  6
BYLAYER
  8
0
 10
-95.254439368363
 11
-95.254439368363
 20
28.4429524419595
 21
44.448678248411
 62
7
  0
LINE
  6
BYLAYER
  8
0
 10
-95.254439368363
 11
-95.5482700135243
 20
44.448678248411
 21
45.1565814742175
 62
7
  0
LINE
  6
BYLAYER
  8
0
 10
-95.5482700135243
 11
-96.2553264651373
 20
45.1565814742175
 21
45.4504121193789
 62
7
  0
LINE
  6
BYLAYER
  8
0
 10
-96.2553264651373
 11
-96.2553264651373
 20
45.4504121193789
 21
45.4504121193789
 62
7
  0
LINE
  6
BYLAYER
  8
0
 10
-96.2553264651373
 11
-96.9632296909437
 20
45.4504121193789
 21
45.1565814742175
 62
7
  0
LINE
  6
BYLAYER
  8
0
 10
-96.9632296909437
 11
-97.257060336105
 20
45.1565814742175
 21
44.448678248411
 62
7
  0
LINE
  6
BYLAYER
  8
0
 10
-97.257060336105
 11
-97.257060336105
 20
44.448678248411
 21
28.4429524419595
 62
7
  0
LINE
  6
BYLAYER
  8
0
 10
-97.257060336105
 11
-96.9632296909437
 20
28.4429524419595
 21
27.7367427645401
 62
7
  0
LINE
  6
BYLAYER
  8
0
 10
-96.9632296909437
 11
-96.2553264651373
 20
27.7367427645401
 21
27.4420653451853
 62
7
  0
LINE
  6
BYLAYER
  8
0
 10
-96.2553264651373
 11
-96.2553264651373
 20
27.4420653451853
 21
27.4420653451853
 62
7
  0
LINE
  6
BYLAYER
  8
0
 10
-96.2553264651373
 11
-96.2553264651373
 20
27.4420653451853
 21
27.4420653451853
 62
7
  0
LINE
  6
BYLAYER
  8
0
 10
-101.286011949008
 11
-100.578955497395
 20
5.11008953873366
 21
5.40392018389488
 62
7
  0
LINE
  6
BYLAYER
  8
0
 10
-100.578955497395
 11
-100.284278078041
 20
5.40392018389488
 21
6.11182340970149
 62
7
  0
LINE
  6
BYLAYER
  8
0
 10
-100.284278078041
 11
-100.284278078041
 20
6.11182340970149
 21
22.1217830871209
 62
7
  0
LINE
  6
BYLAYER
  8
0
 10
-100.284278078041
 11
-100.578955497395
 20
22.1217830871209
 21
22.8296863129272
 62
7
  0
LINE
  6
BYLAYER
  8
0
 10
-100.578955497395
 11
-101.286011949008
 20
22.8296863129272
 21
23.1192830871208
 62
7
  0
LINE
  6
BYLAYER
  8
0
 10
-101.286011949008
 11
-101.286011949008
 20
23.1192830871208
 21
23.1192830871208
 62
7
  0
LINE
  6
BYLAYER
  8
0
 10
-101.286011949008
 11
-101.993915174815
 20
23.1192830871208
 21
22.8296863129272
 62
7
  0
LINE
  6
BYLAYER
  8
0
 10
-101.993915174815
 11
-102.287745819976
 20
22.8296863129272
 21
22.1217830871209
 62
7
  0
LINE
  6
BYLAYER
  8
0
 10
-102.287745819976
 11
-102.287745819976
 20
22.1217830871209
 21
6.11182340970149
 62
7
  0
LINE
  6
BYLAYER
  8
0
 10
-102.287745819976
 11
-101.993915174815
 20
6.11182340970149
 21
5.40392018389488
 62
7
  0
LINE
  6
BYLAYER
  8
0
 10
-101.993915174815
 11
-101.286011949008
 20
5.40392018389488
 21
5.11008953873366
 62
7
  0
LINE
  6
BYLAYER
  8
0
 10
-101.286011949008
 11
-101.286011949008
 20
5.11008953873366
 21
5.11008953873366
 62
7
  0
LINE
  6
BYLAYER
  8
0
 10
-101.286011949008
 11
-101.286011949008
 20
5.11008953873366
 21
5.11008953873366
 62
7
  0
LINE
  6
BYLAYER
  8
0
 10
-101.286011949008
 11
-100.578955497395
 20
27.4378314742175
 21
27.7316621193789
 62
7
  0
LINE
  6
BYLAYER
  8
0
 10
-100.578955497395
 11
-100.284278078041
 20
27.7316621193789
 21
28.4387185709918
 62
7
  0
LINE
  6
BYLAYER
  8
0
 10
-100.284278078041
 11
-100.284278078041
 20
28.4387185709918
 21
44.4452911516368
 62
7
  0
LINE
  6
BYLAYER
  8
0
 10
-100.284278078041
 11
-100.578955497395
 20
44.4452911516368
 21
45.1515008290562
 62
7
  0
LINE
  6
BYLAYER
  8
0
 10
-100.578955497395
 11
-101.286011949008
 20
45.1515008290562
 21
45.4461782484111
 62
7
  0
LINE
  6
BYLAYER
  8
0
 10
-101.286011949008
 11
-101.286011949008
 20
45.4461782484111
 21
45.4461782484111
 62
7
  0
LINE
  6
BYLAYER
  8
0
 10
-101.286011949008
 11
-101.993915174815
 20
45.4461782484111
 21
45.1515008290562
 62
7
  0
LINE
  6
BYLAYER
  8
0
 10
-101.993915174815
 11
-102.287745819976
 20
45.1515008290562
 21
44.4452911516368
 62
7
  0
LINE
  6
BYLAYER
  8
0
 10
-102.287745819976
 11
-102.287745819976
 20
44.4452911516368
 21
28.4387185709918
 62
7
  0
LINE
  6
BYLAYER
  8
0
 10
-102.287745819976
 11
-101.993915174815
 20
28.4387185709918
 21
27.7316621193789
 62
7
  0
LINE
  6
BYLAYER
  8
0
 10
-101.993915174815
 11
-101.286011949008
 20
27.7316621193789
 21
27.4378314742175
 62
7
  0
LINE
  6
BYLAYER
  8
0
 10
-101.286011949008
 11
-101.286011949008
 20
27.4378314742175
 21
27.4378314742175
 62
7
  0
LINE
  6
BYLAYER
  8
0
 10
-101.286011949008
 11
-101.286011949008
 20
27.4378314742175
 21
27.4378314742175
 62
7
  0
LINE
  6
BYLAYER
  8
0
 10
-106.316697432879
 11
-105.608794207073
 20
5.11008953873366
 21
5.40392018389488
 62
7
  0
LINE
  6
BYLAYER
  8
0
 10
-105.608794207073
 11
-105.314963561911
 20
5.40392018389488
 21
6.11182340970149
 62
7
  0
LINE
  6
BYLAYER
  8
0
 10
-105.314963561911
 11
-105.314963561911
 20
6.11182340970149
 21
22.1217830871209
 62
7
  0
LINE
  6
BYLAYER
  8
0
 10
-105.314963561911
 11
-105.608794207073
 20
22.1217830871209
 21
22.8296863129272
 62
7
  0
LINE
  6
BYLAYER
  8
0
 10
-105.608794207073
 11
-106.316697432879
 20
22.8296863129272
 21
23.1192830871208
 62
7
  0
LINE
  6
BYLAYER
  8
0
 10
-106.316697432879
 11
-106.316697432879
 20
23.1192830871208
 21
23.1192830871208
 62
7
  0
LINE
  6
BYLAYER
  8
0
 10
-106.316697432879
 11
-107.023753884492
 20
23.1192830871208
 21
22.8296863129272
 62
7
  0
LINE
  6
BYLAYER
  8
0
 10
-107.023753884492
 11
-107.318431303847
 20
22.8296863129272
 21
22.1217830871209
 62
7
  0
LINE
  6
BYLAYER
  8
0
 10
-107.318431303847
 11
-107.318431303847
 20
22.1217830871209
 21
6.11182340970149
 62
7
  0
LINE
  6
BYLAYER
  8
0
 10
-107.318431303847
 11
-107.023753884492
 20
6.11182340970149
 21
5.40392018389488
 62
7
  0
LINE
  6
BYLAYER
  8
0
 10
-107.023753884492
 11
-106.316697432879
 20
5.40392018389488
 21
5.11008953873366
 62
7
  0
LINE
  6
BYLAYER
  8
0
 10
-106.316697432879
 11
-106.316697432879
 20
5.11008953873366
 21
5.11008953873366
 62
7
  0
LINE
  6
BYLAYER
  8
0
 10
-106.316697432879
 11
-106.316697432879
 20
5.11008953873366
 21
5.11008953873366
 62
7
  0
LINE
  6
BYLAYER
  8
0
 10
-106.316697432879
 11
-105.608794207073
 20
27.4378314742175
 21
27.7316621193789
 62
7
  0
LINE
  6
BYLAYER
  8
0
 10
-105.608794207073
 11
-105.314963561911
 20
27.7316621193789
 21
28.4387185709918
 62
7
  0
LINE
  6
BYLAYER
  8
0
 10
-105.314963561911
 11
-105.314963561911
 20
28.4387185709918
 21
44.4452911516368
 62
7
  0
LINE
  6
BYLAYER
  8
0
 10
-105.314963561911
 11
-105.608794207073
 20
44.4452911516368
 21
45.1515008290562
 62
7
  0
LINE
  6
BYLAYER
  8
0
 10
-105.608794207073
 11
-106.316697432879
 20
45.1515008290562
 21
45.4461782484111
 62
7
  0
LINE
  6
BYLAYER
  8
0
 10
-106.316697432879
 11
-106.316697432879
 20
45.4461782484111
 21
45.4461782484111
 62
7
  0
LINE
  6
BYLAYER
  8
0
 10
-106.316697432879
 11
-107.023753884492
 20
45.4461782484111
 21
45.1515008290562
 62
7
  0
LINE
  6
BYLAYER
  8
0
 10
-107.023753884492
 11
-107.318431303847
 20
45.1515008290562
 21
44.4452911516368
 62
7
  0
LINE
  6
BYLAYER
  8
0
 10
-107.318431303847
 11
-107.318431303847
 20
44.4452911516368
 21
28.4387185709918
 62
7
  0
LINE
  6
BYLAYER
  8
0
 10
-107.318431303847
 11
-107.023753884492
 20
28.4387185709918
 21
27.7316621193789
 62
7
  0
LINE
  6
BYLAYER
  8
0
 10
-107.023753884492
 11
-106.316697432879
 20
27.7316621193789
 21
27.4378314742175
 62
7
  0
LINE
  6
BYLAYER
  8
0
 10
-106.316697432879
 11
-106.316697432879
 20
27.4378314742175
 21
27.4378314742175
 62
7
  0
LINE
  6
BYLAYER
  8
0
 10
-106.316697432879
 11
-106.316697432879
 20
27.4378314742175
 21
27.4378314742175
 62
7
  0
LINE
  6
BYLAYER
  8
0
 10
-111.259318400621
 11
-110.552261949008
 20
5.11008953873366
 21
5.40392018389488
 62
7
  0
LINE
  6
BYLAYER
  8
0
 10
-110.552261949008
 11
-110.258431303847
 20
5.40392018389488
 21
6.11182340970149
 62
7
  0
LINE
  6
BYLAYER
  8
0
 10
-110.258431303847
 11
-110.258431303847
 20
6.11182340970149
 21
22.1217830871209
 62
7
  0
LINE
  6
BYLAYER
  8
0
 10
-110.258431303847
 11
-110.552261949008
 20
22.1217830871209
 21
22.8296863129272
 62
7
  0
LINE
  6
BYLAYER
  8
0
 10
-110.552261949008
 11
-111.259318400621
 20
22.8296863129272
 21
23.1192830871208
 62
7
  0
LINE
  6
BYLAYER
  8
0
 10
-111.259318400621
 11
-111.259318400621
 20
23.1192830871208
 21
23.1192830871208
 62
7
  0
LINE
  6
BYLAYER
  8
0
 10
-111.259318400621
 11
-111.967221626428
 20
23.1192830871208
 21
22.8296863129272
 62
7
  0
LINE
  6
BYLAYER
  8
0
 10
-111.967221626428
 11
-112.256649045782
 20
22.8296863129272
 21
22.1217830871209
 62
7
  0
LINE
  6
BYLAYER
  8
0
 10
-112.256649045782
 11
-112.256649045782
 20
22.1217830871209
 21
6.11182340970149
 62
7
  0
LINE
  6
BYLAYER
  8
0
 10
-112.256649045782
 11
-111.967221626428
 20
6.11182340970149
 21
5.40392018389488
 62
7
  0
LINE
  6
BYLAYER
  8
0
 10
-111.967221626428
 11
-111.259318400621
 20
5.40392018389488
 21
5.11008953873366
 62
7
  0
LINE
  6
BYLAYER
  8
0
 10
-111.259318400621
 11
-111.259318400621
 20
5.11008953873366
 21
5.11008953873366
 62
7
  0
LINE
  6
BYLAYER
  8
0
 10
-111.259318400621
 11
-111.259318400621
 20
5.11008953873366
 21
5.11008953873366
 62
7
  0
LINE
  6
BYLAYER
  8
0
 10
-111.259318400621
 11
-110.552261949008
 20
27.4378314742175
 21
27.7316621193789
 62
7
  0
LINE
  6
BYLAYER
  8
0
 10
-110.552261949008
 11
-110.258431303847
 20
27.7316621193789
 21
28.4387185709918
 62
7
  0
LINE
  6
BYLAYER
  8
0
 10
-110.258431303847
 11
-110.258431303847
 20
28.4387185709918
 21
44.4452911516368
 62
7
  0
LINE
  6
BYLAYER
  8
0
 10
-110.258431303847
 11
-110.552261949008
 20
44.4452911516368
 21
45.1515008290562
 62
7
  0
LINE
  6
BYLAYER
  8
0
 10
-110.552261949008
 11
-111.259318400621
 20
45.1515008290562
 21
45.4461782484111
 62
7
  0
LINE
  6
BYLAYER
  8
0
 10
-111.259318400621
 11
-111.259318400621
 20
45.4461782484111
 21
45.4461782484111
 62
7
  0
LINE
  6
BYLAYER
  8
0
 10
-111.259318400621
 11
-111.967221626428
 20
45.4461782484111
 21
45.1515008290562
 62
7
  0
LINE
  6
BYLAYER
  8
0
 10
-111.967221626428
 11
-112.256649045782
 20
45.1515008290562
 21
44.4452911516368
 62
7
  0
LINE
  6
BYLAYER
  8
0
 10
-112.256649045782
 11
-112.256649045782
 20
44.4452911516368
 21
28.4387185709918
 62
7
  0
LINE
  6
BYLAYER
  8
0
 10
-112.256649045782
 11
-111.967221626428
 20
28.4387185709918
 21
27.7316621193789
 62
7
  0
LINE
  6
BYLAYER
  8
0
 10
-111.967221626428
 11
-111.259318400621
 20
27.7316621193789
 21
27.4378314742175
 62
7
  0
LINE
  6
BYLAYER
  8
0
 10
-111.259318400621
 11
-111.259318400621
 20
27.4378314742175
 21
27.4378314742175
 62
7
  0
LINE
  6
BYLAYER
  8
0
 10
-111.259318400621
 11
-111.259318400621
 20
27.4378314742175
 21
27.4378314742175
 62
7
  0
LINE
  6
BYLAYER
  8
0
 10
-26.7893587232018
 11
-26.2093184006212
 20
-17.5013217515888
 21
-16.9272088483631
 62
7
  0
LINE
  6
BYLAYER
  8
0
 10
-26.2093184006212
 11
-25.1948829167501
 20
-16.9272088483631
 21
-17.9103136870728
 62
7
  0
LINE
  6
BYLAYER
  8
0
 10
-25.1948829167501
 11
-24.1973829167501
 20
-17.9103136870728
 21
-16.9416040096535
 62
7
  0
LINE
  6
BYLAYER
  8
0
 10
-24.1973829167501
 11
-23.573310336105
 20
-16.9416040096535
 21
-17.5656765902986
 62
7
  0
LINE
  6
BYLAYER
  8
0
 10
-23.573310336105
 11
-24.5750442070728
 20
-17.5656765902986
 21
-18.5352330419115
 62
7
  0
LINE
  6
BYLAYER
  8
0
 10
-24.5750442070728
 11
-23.6190361425566
 20
-18.5352330419115
 21
-19.4861604612664
 62
7
  0
LINE
  6
BYLAYER
  8
0
 10
-23.6190361425566
 11
-24.1973829167501
 20
-19.4861604612664
 21
-20.0602733644921
 62
7
  0
LINE
  6
BYLAYER
  8
0
 10
-24.1973829167501
 11
-25.1491571102986
 20
-20.0602733644921
 21
-19.1093459451373
 62
7
  0
LINE
  6
BYLAYER
  8
0
 10
-25.1491571102986
 11
-26.1178667877179
 20
-19.1093459451373
 21
-20.111079816105
 62
7
  0
LINE
  6
BYLAYER
  8
0
 10
-26.1178667877179
 11
-26.7436329167502
 20
-20.111079816105
 21
-19.4861604612664
 62
7
  0
LINE
  6
BYLAYER
  8
0
 10
-26.7436329167502
 11
-25.7732296909437
 20
-19.4861604612664
 21
-18.4844265902985
 62
7
  0
LINE
  6
BYLAYER
  8
0
 10
-25.7732296909437
 11
-26.7893587232018
 20
-18.4844265902985
 21
-17.5013217515888
 62
7
  0
LINE
  6
BYLAYER
  8
0
 10
-26.7893587232018
 11
-26.7893587232018
 20
-17.5013217515888
 21
-17.5013217515888
 62
7
  0
LINE
  6
BYLAYER
  8
0
 10
-23.398874852234
 11
-22.6681087232018
 20
-20.2719669128792
 21
-18.498821751589
 62
7
  0
LINE
  6
BYLAYER
  8
0
 10
-22.6681087232018
 11
-23.398874852234
 20
-18.498821751589
 21
-16.734144332234
 62
7
  0
LINE
  6
BYLAYER
  8
0
 10
-23.398874852234
 11
-25.1677861425567
 20
-16.734144332234
 21
-15.999144332234
 62
7
  0
LINE
  6
BYLAYER
  8
0
 10
-25.1677861425567
 11
-26.9366974328792
 20
-15.999144332234
 21
-16.734144332234
 62
7
  0
LINE
  6
BYLAYER
  8
0
 10
-26.9366974328792
 11
-27.6666167877179
 20
-16.734144332234
 21
-18.498821751589
 62
7
  0
LINE
  6
BYLAYER
  8
0
 10
-27.6666167877179
 11
-26.9366974328792
 20
-18.498821751589
 21
-20.2719669128792
 62
7
  0
LINE
  6
BYLAYER
  8
0
 10
-26.9366974328792
 11
-25.1677861425567
 20
-20.2719669128792
 21
-21.0027330419115
 62
7
  0
LINE
  6
BYLAYER
  8
0
 10
-25.1677861425567
 11
-23.398874852234
 20
-21.0027330419115
 21
-20.2719669128792
 62
7
  0
LINE
  6
BYLAYER
  8
0
 10
-23.398874852234
 11
-23.398874852234
 20
-20.2719669128792
 21
-20.2719669128792
 62
7
  0
LINE
  6
BYLAYER
  8
0
 10
-25.1677861425567
 11
-23.8070200135244
 20
-22.0036201386856
 21
-21.7284185257824
 62
7
  0
LINE
  6
BYLAYER
  8
0
 10
-23.8070200135244
 11
-22.6909716264276
 20
-21.7284185257824
 21
-20.9739427193308
 62
7
  0
LINE
  6
BYLAYER
  8
0
 10
-22.6909716264276
 11
-21.9432700135243
 20
-20.9739427193308
 21
-19.8629749773953
 62
7
  0
LINE
  6
BYLAYER
  8
0
 10
-21.9432700135243
 11
-21.6621409812662
 20
-19.8629749773953
 21
-18.5030556225567
 62
7
  0
LINE
  6
BYLAYER
  8
0
 10
-21.6621409812662
 11
-21.9432700135243
 20
-18.5030556225567
 21
-17.1389023967502
 62
7
  0
LINE
  6
BYLAYER
  8
0
 10
-21.9432700135243
 11
-22.6909716264276
 20
-17.1389023967502
 21
-16.0262411064276
 62
7
  0
LINE
  6
BYLAYER
  8
0
 10
-22.6909716264276
 11
-23.8070200135244
 20
-16.0262411064276
 21
-15.273458848363
 62
7
  0
LINE
  6
BYLAYER
  8
0
 10
-23.8070200135244
 11
-25.1677861425567
 20
-15.273458848363
 21
-15.0024911064277
 62
7
  0
LINE
  6
BYLAYER
  8
0
 10
-25.1677861425567
 11
-27.6437538844921
 20
-15.0024911064277
 21
-16.0262411064276
 62
7
  0
LINE
  6
BYLAYER
  8
0
 10
-27.6437538844921
 11
-28.6675038844921
 20
-16.0262411064276
 21
-18.5030556225567
 62
7
  0
LINE
  6
BYLAYER
  8
0
 10
-28.6675038844921
 11
-27.6437538844921
 20
-18.5030556225567
 21
-20.9739427193308
 62
7
  0
LINE
  6
BYLAYER
  8
0
 10
-27.6437538844921
 11
-25.1677861425567
 20
-20.9739427193308
 21
-22.0036201386856
 62
7
  0
LINE
  6
BYLAYER
  8
0
 10
-25.1677861425567
 11
-25.1677861425567
 20
-22.0036201386856
 21
-22.0036201386856
 62
7
  0
LINE
  6
BYLAYER
  8
0
 10
-119.262520013524
 11
-118.683665174815
 20
70.4971459903465
 21
71.0763395387337
 62
7
  0
LINE
  6
BYLAYER
  8
0
 10
-118.683665174815
 11
-117.673040174815
 20
71.0763395387337
 21
70.0923879258305
 62
7
  0
LINE
  6
BYLAYER
  8
0
 10
-117.673040174815
 11
-116.671560336105
 20
70.0923879258305
 21
71.0619443774434
 62
7
  0
LINE
  6
BYLAYER
  8
0
 10
-116.671560336105
 11
-116.046810336105
 20
71.0619443774434
 21
70.4370250226046
 62
7
  0
LINE
  6
BYLAYER
  8
0
 10
-116.046810336105
 11
-117.048205497395
 20
70.4370250226046
 21
69.4683153451852
 62
7
  0
LINE
  6
BYLAYER
  8
0
 10
-117.048205497395
 11
-116.09727807804
 20
69.4683153451852
 21
68.5165411516369
 62
7
  0
LINE
  6
BYLAYER
  8
0
 10
-116.09727807804
 11
-116.671560336105
 20
68.5165411516369
 21
67.9432750226047
 62
7
  0
LINE
  6
BYLAYER
  8
0
 10
-116.671560336105
 11
-117.627060336105
 20
67.9432750226047
 21
68.8942024419595
 62
7
  0
LINE
  6
BYLAYER
  8
0
 10
-117.627060336105
 11
-118.591790174815
 20
68.8942024419595
 21
67.8924685709917
 62
7
  0
LINE
  6
BYLAYER
  8
0
 10
-118.591790174815
 11
-119.216624852234
 20
67.8924685709917
 21
68.5165411516369
 62
7
  0
LINE
  6
BYLAYER
  8
0
 10
-119.216624852234
 11
-118.24723775546
 20
68.5165411516369
 21
69.5191217967982
 62
7
  0
LINE
  6
BYLAYER
  8
0
 10
-118.24723775546
 11
-119.262520013524
 20
69.5191217967982
 21
70.4971459903465
 62
7
  0
LINE
  6
BYLAYER
  8
0
 10
-119.262520013524
 11
-119.262520013524
 20
70.4971459903465
 21
70.4971459903465
 62
7
  0
LINE
  6
BYLAYER
  8
0
 10
-115.872120819976
 11
-115.141693400621
 20
67.7315814742175
 21
69.5047266355079
 62
7
  0
LINE
  6
BYLAYER
  8
0
 10
-115.141693400621
 11
-115.872120819976
 20
69.5047266355079
 21
71.2685572806692
 62
7
  0
LINE
  6
BYLAYER
  8
0
 10
-115.872120819976
 11
-117.64086275546
 20
71.2685572806692
 21
72.0035572806691
 62
7
  0
LINE
  6
BYLAYER
  8
0
 10
-117.64086275546
 11
-119.409520013524
 20
72.0035572806691
 21
71.2685572806692
 62
7
  0
LINE
  6
BYLAYER
  8
0
 10
-119.409520013524
 11
-120.140032110299
 20
71.2685572806692
 21
69.5047266355079
 62
7
  0
LINE
  6
BYLAYER
  8
0
 10
-120.140032110299
 11
-119.409520013524
 20
69.5047266355079
 21
67.7315814742175
 62
7
  0
LINE
  6
BYLAYER
  8
0
 10
-119.409520013524
 11
-117.64086275546
 20
67.7315814742175
 21
67.0008153451853
 62
7
  0
LINE
  6
BYLAYER
  8
0
 10
-117.64086275546
 11
-115.872120819976
 20
67.0008153451853
 21
67.7315814742175
 62
7
  0
LINE
  6
BYLAYER
  8
0
 10
-115.872120819976
 11
-115.872120819976
 20
67.7315814742175
 21
67.7315814742175
 62
7
  0
LINE
  6
BYLAYER
  8
0
 10
-117.64086275546
 11
-115.169298239331
 20
65.999928248411
 21
67.0287588935723
 62
7
  0
LINE
  6
BYLAYER
  8
0
 10
-115.169298239331
 11
-114.140298239331
 20
67.0287588935723
 21
69.4996459903465
 62
7
  0
LINE
  6
BYLAYER
  8
0
 10
-114.140298239331
 11
-115.169298239331
 20
69.4996459903465
 21
71.9764605064757
 62
7
  0
LINE
  6
BYLAYER
  8
0
 10
-115.169298239331
 11
-117.64086275546
 20
71.9764605064757
 21
73.0010572806692
 62
7
  0
LINE
  6
BYLAYER
  8
0
 10
-117.64086275546
 11
-120.117084529653
 20
73.0010572806692
 21
71.9764605064757
 62
7
  0
LINE
  6
BYLAYER
  8
0
 10
-120.117084529653
 11
-121.141511949008
 20
71.9764605064757
 21
69.4996459903465
 62
7
  0
LINE
  6
BYLAYER
  8
0
 10
-121.141511949008
 11
-120.117084529653
 20
69.4996459903465
 21
67.0287588935723
 62
7
  0
LINE
  6
BYLAYER
  8
0
 10
-120.117084529653
 11
-117.64086275546
 20
67.0287588935723
 21
65.999928248411
 62
7
  0
LINE
  6
BYLAYER
  8
0
 10
-117.64086275546
 11
-117.64086275546
 20
65.999928248411
 21
65.999928248411
 62
7
  0
LINE
  6
BYLAYER
  8
0
 10
-78.4535925941696
 11
-78.4535925941696
 20
-28.6643459451373
 21
-29.8642249773954
 62
7
  0
LINE
  6
BYLAYER
  8
0
 10
-78.4535925941696
 11
-65.3980280780404
 20
-29.8642249773954
 21
-29.8642249773954
 62
7
  0
LINE
  6
BYLAYER
  8
0
 10
-65.3980280780404
 11
-65.3980280780404
 20
-29.8642249773954
 21
-28.6787411064277
 62
7
  0
LINE
  6
BYLAYER
  8
0
 10
-65.3980280780404
 11
-78.4535925941696
 20
-28.6787411064277
 21
-28.6643459451373
 62
7
  0
LINE
  6
BYLAYER
  8
0
 10
-78.4535925941696
 11
-78.4535925941696
 20
-28.6643459451373
 21
-28.6643459451373
 62
7
  0
LINE
  6
BYLAYER
  8
0
 10
-78.4535925941696
 11
-78.4535925941696
 20
-28.6643459451373
 21
-29.8642249773954
 62
7
  0
LINE
  6
BYLAYER
  8
0
 10
-78.4535925941696
 11
-65.3980280780404
 20
-29.8642249773954
 21
-29.8642249773954
 62
7
  0
LINE
  6
BYLAYER
  8
0
 10
-65.3980280780404
 11
-65.3980280780404
 20
-29.8642249773954
 21
-28.6787411064277
 62
7
  0
LINE
  6
BYLAYER
  8
0
 10
-65.3980280780404
 11
-78.4535925941696
 20
-28.6787411064277
 21
-28.6643459451373
 62
7
  0
LINE
  6
BYLAYER
  8
0
 10
-78.4535925941696
 11
-78.4535925941696
 20
-28.6643459451373
 21
-28.6643459451373
 62
7
  0
LINE
  6
BYLAYER
  8
0
 10
-112.867596626428
 11
-29.7522216264275
 20
77.443234700024
 21
77.443234700024
 62
7
  0
LINE
  6
BYLAYER
  8
0
 10
-112.867596626428
 11
-29.7522216264275
 20
-26.7955152999761
 21
-26.7955152999761
 62
7
  0
LINE
  6
BYLAYER
  8
0
 10
-119.065052271589
 11
-118.486197432879
 20
-17.6393459451374
 21
-17.0601523967502
 62
7
  0
LINE
  6
BYLAYER
  8
0
 10
-118.486197432879
 11
-117.47548775546
 20
-17.0601523967502
 21
-18.0432572354598
 62
7
  0
LINE
  6
BYLAYER
  8
0
 10
-117.47548775546
 11
-116.478495819976
 20
-18.0432572354598
 21
-17.0745475580405
 62
7
  0
LINE
  6
BYLAYER
  8
0
 10
-116.478495819976
 11
-115.853830497395
 20
-17.0745475580405
 21
-17.6986201386858
 62
7
  0
LINE
  6
BYLAYER
  8
0
 10
-115.853830497395
 11
-116.85065307804
 20
-17.6986201386858
 21
-18.6681765902987
 62
7
  0
LINE
  6
BYLAYER
  8
0
 10
-116.85065307804
 11
-115.899810336105
 20
-18.6681765902987
 21
-19.6191040096533
 62
7
  0
LINE
  6
BYLAYER
  8
0
 10
-115.899810336105
 11
-116.478495819976
 20
-19.6191040096533
 21
-20.1932169128793
 62
7
  0
LINE
  6
BYLAYER
  8
0
 10
-116.478495819976
 11
-117.42950791675
 20
-20.1932169128793
 21
-19.2431362677179
 62
7
  0
LINE
  6
BYLAYER
  8
0
 10
-117.42950791675
 11
-118.39423775546
 20
-19.2431362677179
 21
-20.2440233644921
 62
7
  0
LINE
  6
BYLAYER
  8
0
 10
-118.39423775546
 11
-119.019072432879
 20
-20.2440233644921
 21
-19.6191040096533
 62
7
  0
LINE
  6
BYLAYER
  8
0
 10
-119.019072432879
 11
-118.049770013524
 20
-19.6191040096533
 21
-18.6182169128793
 62
7
  0
LINE
  6
BYLAYER
  8
0
 10
-118.049770013524
 11
-119.065052271589
 20
-18.6182169128793
 21
-17.6393459451374
 62
7
  0
LINE
  6
BYLAYER
  8
0
 10
-119.065052271589
 11
-119.065052271589
 20
-17.6393459451374
 21
-17.6393459451374
 62
7
  0
LINE
  6
BYLAYER
  8
0
 10
-115.674568400621
 11
-114.944225658686
 20
-20.4049104612663
 21
-18.6317652999759
 62
7
  0
LINE
  6
BYLAYER
  8
0
 10
-114.944225658686
 11
-115.674568400621
 20
-18.6317652999759
 21
-16.8670878806211
 62
7
  0
LINE
  6
BYLAYER
  8
0
 10
-115.674568400621
 11
-117.443395013524
 20
-16.8670878806211
 21
-16.1320878806212
 62
7
  0
LINE
  6
BYLAYER
  8
0
 10
-117.443395013524
 11
-119.212052271589
 20
-16.1320878806212
 21
-16.8670878806211
 62
7
  0
LINE
  6
BYLAYER
  8
0
 10
-119.212052271589
 11
-119.947136949008
 20
-16.8670878806211
 21
-18.6317652999759
 62
7
  0
LINE
  6
BYLAYER
  8
0
 10
-119.947136949008
 11
-119.212052271589
 20
-18.6317652999759
 21
-20.4049104612663
 62
7
  0
LINE
  6
BYLAYER
  8
0
 10
-119.212052271589
 11
-117.443395013524
 20
-20.4049104612663
 21
-21.1356765902986
 62
7
  0
LINE
  6
BYLAYER
  8
0
 10
-117.443395013524
 11
-115.674568400621
 20
-21.1356765902986
 21
-20.4049104612663
 62
7
  0
LINE
  6
BYLAYER
  8
0
 10
-115.674568400621
 11
-115.674568400621
 20
-20.4049104612663
 21
-20.4049104612663
 62
7
  0
LINE
  6
BYLAYER
  8
0
 10
-117.443395013524
 11
-114.971745819976
 20
-22.1374104612663
 21
-21.108579816105
 62
7
  0
LINE
  6
BYLAYER
  8
0
 10
-114.971745819976
 11
-113.942661142557
 20
-21.108579816105
 21
-18.6359991709438
 62
7
  0
LINE
  6
BYLAYER
  8
0
 10
-113.942661142557
 11
-114.971745819976
 20
-18.6359991709438
 21
-16.1608782032018
 62
7
  0
LINE
  6
BYLAYER
  8
0
 10
-114.971745819976
 11
-117.443395013524
 20
-16.1608782032018
 21
-15.1362814290083
 62
7
  0
LINE
  6
BYLAYER
  8
0
 10
-117.443395013524
 11
-119.919532110299
 20
-15.1362814290083
 21
-16.1608782032018
 62
7
  0
LINE
  6
BYLAYER
  8
0
 10
-119.919532110299
 11
-120.943959529653
 20
-16.1608782032018
 21
-18.6359991709438
 62
7
  0
LINE
  6
BYLAYER
  8
0
 10
-120.943959529653
 11
-119.919532110299
 20
-18.6359991709438
 21
-21.108579816105
 62
7
  0
LINE
  6
BYLAYER
  8
0
 10
-119.919532110299
 11
-117.443395013524
 20
-21.108579816105
 21
-22.1374104612663
 62
7
  0
LINE
  6
BYLAYER
  8
0
 10
-117.443395013524
 11
-117.443395013524
 20
-22.1374104612663
 21
-22.1374104612663
 62
7
  0
LINE
  6
BYLAYER
  8
0
 10
-26.8020603361051
 11
-26.2237135619114
 20
70.2854524419595
 21
70.8604121193788
 62
7
  0
LINE
  6
BYLAYER
  8
0
 10
-26.2237135619114
 11
-25.2135119490082
 20
70.8604121193788
 21
69.8773072806691
 62
7
  0
LINE
  6
BYLAYER
  8
0
 10
-25.2135119490082
 11
-24.2117780780405
 20
69.8773072806691
 21
70.846863732282
 62
7
  0
LINE
  6
BYLAYER
  8
0
 10
-24.2117780780405
 11
-23.5919393683631
 20
70.846863732282
 21
70.2219443774434
 62
7
  0
LINE
  6
BYLAYER
  8
0
 10
-23.5919393683631
 11
-24.589439368363
 20
70.2219443774434
 21
69.2566217967982
 62
7
  0
LINE
  6
BYLAYER
  8
0
 10
-24.589439368363
 11
-23.6376651748147
 20
69.2566217967982
 21
68.3014605064755
 62
7
  0
LINE
  6
BYLAYER
  8
0
 10
-23.6376651748147
 11
-24.2117780780405
 20
68.3014605064755
 21
67.7265008290563
 62
7
  0
LINE
  6
BYLAYER
  8
0
 10
-24.2117780780405
 11
-25.1677861425567
 20
67.7265008290563
 21
68.6782750226047
 62
7
  0
LINE
  6
BYLAYER
  8
0
 10
-25.1677861425567
 11
-26.1322619490082
 20
68.6782750226047
 21
67.6807750226045
 62
7
  0
LINE
  6
BYLAYER
  8
0
 10
-26.1322619490082
 11
-26.7563345296534
 20
67.6807750226045
 21
68.3014605064755
 62
7
  0
LINE
  6
BYLAYER
  8
0
 10
-26.7563345296534
 11
-25.787624852234
 20
68.3014605064755
 21
69.3023476032498
 62
7
  0
LINE
  6
BYLAYER
  8
0
 10
-25.787624852234
 11
-26.8020603361051
 20
69.3023476032498
 21
70.2854524419595
 62
7
  0
LINE
  6
BYLAYER
  8
0
 10
-26.8020603361051
 11
-26.8020603361051
 20
70.2854524419595
 21
70.2854524419595
 62
7
  0
LINE
  6
BYLAYER
  8
0
 10
-23.4132700135244
 11
-22.6816571102985
 20
67.5156540548626
 21
69.2896459903465
 62
7
  0
LINE
  6
BYLAYER
  8
0
 10
-22.6816571102985
 11
-23.4132700135244
 20
69.2896459903465
 21
71.0534766355078
 62
7
  0
LINE
  6
BYLAYER
  8
0
 10
-23.4132700135244
 11
-25.1804877554598
 20
71.0534766355078
 21
71.7884766355078
 62
7
  0
LINE
  6
BYLAYER
  8
0
 10
-25.1804877554598
 11
-26.9493990457825
 20
71.7884766355078
 21
71.0534766355078
 62
7
  0
LINE
  6
BYLAYER
  8
0
 10
-26.9493990457825
 11
-27.6843990457824
 20
71.0534766355078
 21
69.2896459903465
 62
7
  0
LINE
  6
BYLAYER
  8
0
 10
-27.6843990457824
 11
-26.9493990457825
 20
69.2896459903465
 21
67.5156540548626
 62
7
  0
LINE
  6
BYLAYER
  8
0
 10
-26.9493990457825
 11
-25.1804877554598
 20
67.5156540548626
 21
66.7857347000239
 62
7
  0
LINE
  6
BYLAYER
  8
0
 10
-25.1804877554598
 11
-23.4132700135244
 20
66.7857347000239
 21
67.5156540548626
 62
7
  0
LINE
  6
BYLAYER
  8
0
 10
-23.4132700135244
 11
-23.4132700135244
 20
67.5156540548626
 21
67.5156540548626
 62
7
  0
LINE
  6
BYLAYER
  8
0
 10
-25.1804877554598
 11
-22.7096006586856
 20
65.7840008290563
 21
66.8128314742176
 62
7
  0
LINE
  6
BYLAYER
  8
0
 10
-22.7096006586856
 11
-21.6807700135243
 20
66.8128314742176
 21
69.2845653451853
 62
7
  0
LINE
  6
BYLAYER
  8
0
 10
-21.6807700135243
 11
-22.7096006586856
 20
69.2845653451853
 21
71.7605330871207
 62
7
  0
LINE
  6
BYLAYER
  8
0
 10
-22.7096006586856
 11
-25.1804877554598
 20
71.7605330871207
 21
72.7851298613143
 62
7
  0
LINE
  6
BYLAYER
  8
0
 10
-25.1804877554598
 11
-27.6573022715889
 20
72.7851298613143
 21
71.7605330871207
 62
7
  0
LINE
  6
BYLAYER
  8
0
 10
-27.6573022715889
 11
-28.6818990457825
 20
71.7605330871207
 21
69.2845653451853
 62
7
  0
LINE
  6
BYLAYER
  8
0
 10
-28.6818990457825
 11
-27.6573022715889
 20
69.2845653451853
 21
66.8128314742176
 62
7
  0
LINE
  6
BYLAYER
  8
0
 10
-27.6573022715889
 11
-25.1804877554598
 20
66.8128314742176
 21
65.7840008290563
 62
7
  0
LINE
  6
BYLAYER
  8
0
 10
-25.1804877554598
 11
-25.1804877554598
 20
65.7840008290563
 21
65.7840008290563
 62
7
  0
LINE
  6
BYLAYER
  8
0
 10
-112.867596626428
 11
-112.867596626428
 20
79.5017427645402
 21
67.5427508290562
 62
7
  0
LINE
  6
BYLAYER
  8
0
 10
-112.867596626428
 11
-29.7522216264275
 20
67.5427508290562
 21
67.5427508290562
 62
7
  0
LINE
  6
BYLAYER
  8
0
 10
-29.7522216264275
 11
-29.7522216264275
 20
67.5427508290562
 21
79.3273072806691
 62
7
  0
LINE
  6
BYLAYER
  8
0
 10
-112.853878884492
 11
-112.853878884492
 20
-28.5043056225566
 21
-16.854386267718
 62
7
  0
LINE
  6
BYLAYER
  8
0
 10
-112.853878884492
 11
-29.7378264651373
 20
-16.854386267718
 21
-16.7942652999761
 62
7
  0
LINE
  6
BYLAYER
  8
0
 10
-29.7378264651373
 11
-29.7378264651373
 20
-16.7942652999761
 21
-28.7066846548148
 62
7
  0
LINE
  6
BYLAYER
  8
0
 10
-82.3216571102986
 11
-80.2910925941695
 20
-11.7170072354599
 21
-11.7170072354599
 62
7
  0
LINE
  6
BYLAYER
  8
0
 10
-82.285245819976
 11
-82.285245819976
 20
-13.5731362677179
 21
-7.68466852578243
 62
7
  0
LINE
  6
BYLAYER
  8
0
 10
-82.285245819976
 11
-81.9956490457824
 20
-7.68466852578243
 21
-6.97676529997605
 62
7
  0
LINE
  6
BYLAYER
  8
0
 10
-81.9956490457824
 11
-81.2835119490082
 20
-6.97676529997605
 21
-6.68716852578248
 62
7
  0
LINE
  6
BYLAYER
  8
0
 10
-81.2835119490082
 11
-81.2835119490082
 20
-6.68716852578248
 21
-6.68716852578248
 62
7
  0
LINE
  6
BYLAYER
  8
0
 10
-81.2835119490082
 11
-80.580689368363
 20
-6.68716852578248
 21
-6.97676529997605
 62
7
  0
LINE
  6
BYLAYER
  8
0
 10
-80.580689368363
 11
-80.2868587232018
 20
-6.97676529997605
 21
-7.68466852578243
 62
7
  0
LINE
  6
BYLAYER
  8
0
 10
-80.2868587232018
 11
-80.2868587232018
 20
-7.68466852578243
 21
-13.6154749773953
 62
7
  0
LINE
  6
BYLAYER
  8
0
 10
-77.3375442070728
 11
-75.3069796909437
 20
-11.7170072354599
 21
-11.7170072354599
 62
7
  0
LINE
  6
BYLAYER
  8
0
 10
-77.3011329167502
 11
-77.3011329167502
 20
-13.5731362677179
 21
-7.68466852578243
 62
7
  0
LINE
  6
BYLAYER
  8
0
 10
-77.3011329167502
 11
-77.0115361425567
 20
-7.68466852578243
 21
-6.97676529997605
 62
7
  0
LINE
  6
BYLAYER
  8
0
 10
-77.0115361425567
 11
-76.2985522715889
 20
-6.97676529997605
 21
-6.68716852578248
 62
7
  0
LINE
  6
BYLAYER
  8
0
 10
-76.2985522715889
 11
-76.2985522715889
 20
-6.68716852578248
 21
-6.68716852578248
 62
7
  0
LINE
  6
BYLAYER
  8
0
 10
-76.2985522715889
 11
-75.5923425941695
 20
-6.68716852578248
 21
-6.97676529997605
 62
7
  0
LINE
  6
BYLAYER
  8
0
 10
-75.5923425941695
 11
-75.2976651748147
 20
-6.97676529997605
 21
-7.68466852578243
 62
7
  0
LINE
  6
BYLAYER
  8
0
 10
-75.2976651748147
 11
-75.2976651748147
 20
-7.68466852578243
 21
-13.6154749773953
 62
7
  0
LINE
  6
BYLAYER
  8
0
 10
-72.3534313038469
 11
-70.3220200135243
 20
-11.7170072354599
 21
-11.7170072354599
 62
7
  0
LINE
  6
BYLAYER
  8
0
 10
-72.3161732393308
 11
-72.3161732393308
 20
-13.5731362677179
 21
-7.68466852578243
 62
7
  0
LINE
  6
BYLAYER
  8
0
 10
-72.3161732393308
 11
-72.0223425941695
 20
-7.68466852578243
 21
-6.97676529997605
 62
7
  0
LINE
  6
BYLAYER
  8
0
 10
-72.0223425941695
 11
-71.3144393683631
 20
-6.97676529997605
 21
-6.68716852578248
 62
7
  0
LINE
  6
BYLAYER
  8
0
 10
-71.3144393683631
 11
-71.3144393683631
 20
-6.68716852578248
 21
-6.68716852578248
 62
7
  0
LINE
  6
BYLAYER
  8
0
 10
-71.3144393683631
 11
-70.6065361425566
 20
-6.68716852578248
 21
-6.97676529997605
 62
7
  0
LINE
  6
BYLAYER
  8
0
 10
-70.6065361425566
 11
-70.3127054973954
 20
-6.97676529997605
 21
-7.68466852578243
 62
7
  0
LINE
  6
BYLAYER
  8
0
 10
-70.3127054973954
 11
-70.3127054973954
 20
-7.68466852578243
 21
-13.6154749773953
 62
7
  0
LINE
  6
BYLAYER
  8
0
 10
-67.3684716264276
 11
-65.3379071102985
 20
-11.7170072354599
 21
-11.7170072354599
 62
7
  0
LINE
  6
BYLAYER
  8
0
 10
-67.3312135619115
 11
-67.3312135619115
 20
-13.5731362677179
 21
-7.68466852578243
 62
7
  0
LINE
  6
BYLAYER
  8
0
 10
-67.3312135619115
 11
-67.0373829167501
 20
-7.68466852578243
 21
-6.97676529997605
 62
7
  0
LINE
  6
BYLAYER
  8
0
 10
-67.0373829167501
 11
-66.3303264651372
 20
-6.97676529997605
 21
-6.68716852578248
 62
7
  0
LINE
  6
BYLAYER
  8
0
 10
-66.3303264651372
 11
-66.3303264651372
 20
-6.68716852578248
 21
-6.68716852578248
 62
7
  0
LINE
  6
BYLAYER
  8
0
 10
-66.3303264651372
 11
-65.6224232393309
 20
-6.68716852578248
 21
-6.97676529997605
 62
7
  0
LINE
  6
BYLAYER
  8
0
 10
-65.6224232393309
 11
-65.3285925941696
 20
-6.97676529997605
 21
-7.68466852578243
 62
7
  0
LINE
  6
BYLAYER
  8
0
 10
-65.3285925941696
 11
-65.3285925941696
 20
-7.68466852578243
 21
-13.6154749773953
 62
7
  0
LINE
  6
BYLAYER
  8
0
 10
-62.3377861425567
 11
-60.3072216264275
 20
-11.7170072354599
 21
-11.7170072354599
 62
7
  0
LINE
  6
BYLAYER
  8
0
 10
-62.3013748522341
 11
-62.3013748522341
 20
-13.5731362677179
 21
-7.68466852578243
 62
7
  0
LINE
  6
BYLAYER
  8
0
 10
-62.3013748522341
 11
-62.0066974328792
 20
-7.68466852578243
 21
-6.97676529997605
 62
7
  0
LINE
  6
BYLAYER
  8
0
 10
-62.0066974328792
 11
-61.2987942070727
 20
-6.97676529997605
 21
-6.68716852578248
 62
7
  0
LINE
  6
BYLAYER
  8
0
 10
-61.2987942070727
 11
-61.2987942070727
 20
-6.68716852578248
 21
-6.68716852578248
 62
7
  0
LINE
  6
BYLAYER
  8
0
 10
-61.2987942070727
 11
-60.5925845296534
 20
-6.68716852578248
 21
-6.97676529997605
 62
7
  0
LINE
  6
BYLAYER
  8
0
 10
-60.5925845296534
 11
-60.2979071102985
 20
-6.97676529997605
 21
-7.68466852578243
 62
7
  0
LINE
  6
BYLAYER
  8
0
 10
-60.2979071102985
 11
-60.2979071102985
 20
-7.68466852578243
 21
-13.6154749773953
 62
7
  0
LINE
  6
BYLAYER
  8
0
 10
-57.3071006586857
 11
-55.2765361425566
 20
-11.7457975580406
 21
-11.7457975580406
 62
7
  0
LINE
  6
BYLAYER
  8
0
 10
-57.270689368363
 11
-57.270689368363
 20
-13.5968459451372
 21
-7.71176529997607
 62
7
  0
LINE
  6
BYLAYER
  8
0
 10
-57.270689368363
 11
-56.9802458199759
 20
-7.71176529997607
 21
-7.00047497739544
 62
7
  0
LINE
  6
BYLAYER
  8
0
 10
-56.9802458199759
 11
-56.2689554973953
 20
-7.00047497739544
 21
-6.71087820320187
 62
7
  0
LINE
  6
BYLAYER
  8
0
 10
-56.2689554973953
 11
-56.2689554973953
 20
-6.71087820320187
 21
-6.71087820320187
 62
7
  0
LINE
  6
BYLAYER
  8
0
 10
-56.2689554973953
 11
-55.5610522715889
 20
-6.71087820320187
 21
-7.00047497739544
 62
7
  0
LINE
  6
BYLAYER
  8
0
 10
-55.5610522715889
 11
-55.2672216264275
 20
-7.00047497739544
 21
-7.71176529997607
 62
7
  0
LINE
  6
BYLAYER
  8
0
 10
-55.2672216264275
 11
-55.2672216264275
 20
-7.71176529997607
 21
-13.6425717515889
 62
7
  0
LINE
  6
BYLAYER
  8
0
 10
-52.3644796909437
 11
-50.3330684006211
 20
-11.7457975580406
 21
-11.7457975580406
 62
7
  0
LINE
  6
BYLAYER
  8
0
 10
-52.3272216264275
 11
-52.3272216264275
 20
-13.5968459451372
 21
-7.71176529997607
 62
7
  0
LINE
  6
BYLAYER
  8
0
 10
-52.3272216264275
 11
-52.037624852234
 20
-7.71176529997607
 21
-7.00047497739544
 62
7
  0
LINE
  6
BYLAYER
  8
0
 10
-52.037624852234
 11
-51.3305684006211
 20
-7.00047497739544
 21
-6.71087820320187
 62
7
  0
LINE
  6
BYLAYER
  8
0
 10
-51.3305684006211
 11
-51.3305684006211
 20
-6.71087820320187
 21
-6.71087820320187
 62
7
  0
LINE
  6
BYLAYER
  8
0
 10
-51.3305684006211
 11
-50.6226651748147
 20
-6.71087820320187
 21
-7.00047497739544
 62
7
  0
LINE
  6
BYLAYER
  8
0
 10
-50.6226651748147
 11
-50.3288345296533
 20
-7.00047497739544
 21
-7.71176529997607
 62
7
  0
LINE
  6
BYLAYER
  8
0
 10
-50.3288345296533
 11
-50.3288345296533
 20
-7.71176529997607
 21
-13.6425717515889
 62
7
  0
LINE
  6
BYLAYER
  8
0
 10
-47.3786732393309
 11
-45.3489554973954
 20
-11.7457975580406
 21
-11.7457975580406
 62
7
  0
LINE
  6
BYLAYER
  8
0
 10
-47.3422619490082
 11
-47.3422619490082
 20
-13.5968459451372
 21
-7.71176529997607
 62
7
  0
LINE
  6
BYLAYER
  8
0
 10
-47.3422619490082
 11
-47.0535119490083
 20
-7.71176529997607
 21
-7.00047497739544
 62
7
  0
LINE
  6
BYLAYER
  8
0
 10
-47.0535119490083
 11
-46.3413748522341
 20
-7.00047497739544
 21
-6.71087820320187
 62
7
  0
LINE
  6
BYLAYER
  8
0
 10
-46.3413748522341
 11
-46.3413748522341
 20
-6.71087820320187
 21
-6.71087820320187
 62
7
  0
LINE
  6
BYLAYER
  8
0
 10
-46.3413748522341
 11
-45.6385522715889
 20
-6.71087820320187
 21
-7.00047497739544
 62
7
  0
LINE
  6
BYLAYER
  8
0
 10
-45.6385522715889
 11
-45.3447216264276
 20
-7.00047497739544
 21
-7.71176529997607
 62
7
  0
LINE
  6
BYLAYER
  8
0
 10
-45.3447216264276
 11
-45.3447216264276
 20
-7.71176529997607
 21
-13.6425717515889
 62
7
  0
LINE
  6
BYLAYER
  8
0
 10
-42.3488345296534
 11
-40.3191167877179
 20
-11.7457975580406
 21
-11.7457975580406
 62
7
  0
LINE
  6
BYLAYER
  8
0
 10
-42.3124232393308
 11
-42.3124232393308
 20
-13.5968459451372
 21
-7.71176529997607
 62
7
  0
LINE
  6
BYLAYER
  8
0
 10
-42.3124232393308
 11
-42.0228264651373
 20
-7.71176529997607
 21
-7.00047497739544
 62
7
  0
LINE
  6
BYLAYER
  8
0
 10
-42.0228264651373
 11
-41.3106893683631
 20
-7.00047497739544
 21
-6.71087820320187
 62
7
  0
LINE
  6
BYLAYER
  8
0
 10
-41.3106893683631
 11
-41.3106893683631
 20
-6.71087820320187
 21
-6.71087820320187
 62
7
  0
LINE
  6
BYLAYER
  8
0
 10
-41.3106893683631
 11
-40.6087135619115
 20
-6.71087820320187
 21
-7.00047497739544
 62
7
  0
LINE
  6
BYLAYER
  8
0
 10
-40.6087135619115
 11
-40.3140361425566
 20
-7.00047497739544
 21
-7.71176529997607
 62
7
  0
LINE
  6
BYLAYER
  8
0
 10
-40.3140361425566
 11
-40.3140361425566
 20
-7.71176529997607
 21
-13.6425717515889
 62
7
  0
LINE
  6
BYLAYER
  8
0
 10
-37.3647216264276
 11
-35.333310336105
 20
-11.7457975580406
 21
-11.7457975580406
 62
7
  0
LINE
  6
BYLAYER
  8
0
 10
-37.328310336105
 11
-37.328310336105
 20
-13.5968459451372
 21
-7.71176529997607
 62
7
  0
LINE
  6
BYLAYER
  8
0
 10
-37.328310336105
 11
-37.0378667877179
 20
-7.71176529997607
 21
-7.00047497739544
 62
7
  0
LINE
  6
BYLAYER
  8
0
 10
-37.0378667877179
 11
-36.3265764651373
 20
-7.00047497739544
 21
-6.71087820320187
 62
7
  0
LINE
  6
BYLAYER
  8
0
 10
-36.3265764651373
 11
-36.3265764651373
 20
-6.71087820320187
 21
-6.71087820320187
 62
7
  0
LINE
  6
BYLAYER
  8
0
 10
-36.3265764651373
 11
-35.6186732393307
 20
-6.71087820320187
 21
-7.00047497739544
 62
7
  0
LINE
  6
BYLAYER
  8
0
 10
-35.6186732393307
 11
-35.323995819976
 20
-7.00047497739544
 21
-7.71176529997607
 62
7
  0
LINE
  6
BYLAYER
  8
0
 10
-35.323995819976
 11
-35.323995819976
 20
-7.71176529997607
 21
-13.6425717515889
 62
7
  0
LINE
  6
BYLAYER
  8
0
 10
-32.3568990457825
 11
-30.3263345296533
 20
-11.6949911064277
 21
-11.6949911064277
 62
7
  0
LINE
  6
BYLAYER
  8
0
 10
-32.3204877554598
 11
-32.3204877554598
 20
-13.5460394935245
 21
-7.66095884836304
 62
7
  0
LINE
  6
BYLAYER
  8
0
 10
-32.3204877554598
 11
-32.0308909812663
 20
-7.66095884836304
 21
-6.95390239675012
 62
7
  0
LINE
  6
BYLAYER
  8
0
 10
-32.0308909812663
 11
-31.3187538844921
 20
-6.95390239675012
 21
-6.66007175158884
 62
7
  0
LINE
  6
BYLAYER
  8
0
 10
-31.3187538844921
 11
-31.3187538844921
 20
-6.66007175158884
 21
-6.66007175158884
 62
7
  0
LINE
  6
BYLAYER
  8
0
 10
-31.3187538844921
 11
-30.6167780780405
 20
-6.66007175158884
 21
-6.95390239675012
 62
7
  0
LINE
  6
BYLAYER
  8
0
 10
-30.6167780780405
 11
-30.3221006586856
 20
-6.95390239675012
 21
-7.66095884836304
 62
7
  0
LINE
  6
BYLAYER
  8
0
 10
-30.3221006586856
 11
-30.3221006586856
 20
-7.66095884836304
 21
-13.5917652999761
 62
7
  0
LINE
  6
BYLAYER
  8
0
 10
-27.327060336105
 11
-25.2956490457824
 20
-11.6949911064277
 21
-11.6949911064277
 62
7
  0
LINE
  6
BYLAYER
  8
0
 10
-27.2889554973954
 11
-27.2889554973954
 20
-13.5460394935245
 21
-7.66095884836304
 62
7
  0
LINE
  6
BYLAYER
  8
0
 10
-27.2889554973954
 11
-27.0002054973953
 20
-7.66095884836304
 21
-6.95390239675012
 62
7
  0
LINE
  6
BYLAYER
  8
0
 10
-27.0002054973953
 11
-26.2931490457824
 20
-6.95390239675012
 21
-6.66007175158884
 62
7
  0
LINE
  6
BYLAYER
  8
0
 10
-26.2931490457824
 11
-26.2931490457824
 20
-6.66007175158884
 21
-6.66007175158884
 62
7
  0
LINE
  6
BYLAYER
  8
0
 10
-26.2931490457824
 11
-25.585245819976
 20
-6.66007175158884
 21
-6.95390239675012
 62
7
  0
LINE
  6
BYLAYER
  8
0
 10
-25.585245819976
 11
-25.2914151748147
 20
-6.95390239675012
 21
-7.66095884836304
 62
7
  0
LINE
  6
BYLAYER
  8
0
 10
-25.2914151748147
 11
-25.2914151748147
 20
-7.66095884836304
 21
-13.5917652999761
 62
7
  0
LINE
  6
BYLAYER
  8
0
 10
-82.2573022715888
 11
-80.2267377554599
 20
62.2969847000241
 21
62.2969847000241
 62
7
  0
LINE
  6
BYLAYER
  8
0
 10
-82.2208909812663
 11
-82.2208909812663
 20
64.1522669580885
 21
58.2671863129272
 62
7
  0
LINE
  6
BYLAYER
  8
0
 10
-82.2208909812663
 11
-81.927060336105
 20
58.2671863129272
 21
57.5601298613143
 62
7
  0
LINE
  6
BYLAYER
  8
0
 10
-81.927060336105
 11
-81.2191571102985
 20
57.5601298613143
 21
57.266299216153
 62
7
  0
LINE
  6
BYLAYER
  8
0
 10
-81.2191571102985
 11
-81.2191571102985
 20
57.266299216153
 21
57.266299216153
 62
7
  0
LINE
  6
BYLAYER
  8
0
 10
-81.2191571102985
 11
-80.5121006586856
 20
57.266299216153
 21
57.5601298613143
 62
7
  0
LINE
  6
BYLAYER
  8
0
 10
-80.5121006586856
 11
-80.2174232393308
 20
57.5601298613143
 21
58.2671863129272
 62
7
  0
LINE
  6
BYLAYER
  8
0
 10
-80.2174232393308
 11
-80.2174232393308
 20
58.2671863129272
 21
64.194605667766
 62
7
  0
LINE
  6
BYLAYER
  8
0
 10
-77.2681087232018
 11
-75.242624852234
 20
62.2969847000241
 21
62.2969847000241
 62
7
  0
LINE
  6
BYLAYER
  8
0
 10
-77.2359313038469
 11
-77.2359313038469
 20
64.1522669580885
 21
58.2671863129272
 62
7
  0
LINE
  6
BYLAYER
  8
0
 10
-77.2359313038469
 11
-76.9421006586857
 20
58.2671863129272
 21
57.5601298613143
 62
7
  0
LINE
  6
BYLAYER
  8
0
 10
-76.9421006586857
 11
-76.2350442070728
 20
57.5601298613143
 21
57.266299216153
 62
7
  0
LINE
  6
BYLAYER
  8
0
 10
-76.2350442070728
 11
-76.2350442070728
 20
57.266299216153
 21
57.266299216153
 62
7
  0
LINE
  6
BYLAYER
  8
0
 10
-76.2350442070728
 11
-75.5271409812663
 20
57.266299216153
 21
57.5601298613143
 62
7
  0
LINE
  6
BYLAYER
  8
0
 10
-75.5271409812663
 11
-75.233310336105
 20
57.5601298613143
 21
58.2671863129272
 62
7
  0
LINE
  6
BYLAYER
  8
0
 10
-75.233310336105
 11
-75.233310336105
 20
58.2671863129272
 21
64.194605667766
 62
7
  0
LINE
  6
BYLAYER
  8
0
 10
-72.283995819976
 11
-70.2585119490083
 20
62.2969847000241
 21
62.2969847000241
 62
7
  0
LINE
  6
BYLAYER
  8
0
 10
-72.2467377554598
 11
-72.2467377554598
 20
64.1522669580885
 21
58.2671863129272
 62
7
  0
LINE
  6
BYLAYER
  8
0
 10
-72.2467377554598
 11
-71.9579877554599
 20
58.2671863129272
 21
57.5601298613143
 62
7
  0
LINE
  6
BYLAYER
  8
0
 10
-71.9579877554599
 11
-71.2500845296533
 20
57.5601298613143
 21
57.266299216153
 62
7
  0
LINE
  6
BYLAYER
  8
0
 10
-71.2500845296533
 11
-71.2500845296533
 20
57.266299216153
 21
57.266299216153
 62
7
  0
LINE
  6
BYLAYER
  8
0
 10
-71.2500845296533
 11
-70.5430280780405
 20
57.266299216153
 21
57.5601298613143
 62
7
  0
LINE
  6
BYLAYER
  8
0
 10
-70.5430280780405
 11
-70.2491974328792
 20
57.5601298613143
 21
58.2671863129272
 62
7
  0
LINE
  6
BYLAYER
  8
0
 10
-70.2491974328792
 11
-70.2491974328792
 20
58.2671863129272
 21
64.194605667766
 62
7
  0
LINE
  6
BYLAYER
  8
0
 10
-67.2990361425566
 11
-65.2684716264276
 20
62.2969847000241
 21
62.2969847000241
 62
7
  0
LINE
  6
BYLAYER
  8
0
 10
-67.2626248522341
 11
-67.2626248522341
 20
64.1522669580885
 21
58.2671863129272
 62
7
  0
LINE
  6
BYLAYER
  8
0
 10
-67.2626248522341
 11
-66.973874852234
 20
58.2671863129272
 21
57.5601298613143
 62
7
  0
LINE
  6
BYLAYER
  8
0
 10
-66.973874852234
 11
-66.2608909812662
 20
57.5601298613143
 21
57.266299216153
 62
7
  0
LINE
  6
BYLAYER
  8
0
 10
-66.2608909812662
 11
-66.2608909812662
 20
57.266299216153
 21
57.266299216153
 62
7
  0
LINE
  6
BYLAYER
  8
0
 10
-66.2608909812662
 11
-65.5580684006211
 20
57.266299216153
 21
57.5601298613143
 62
7
  0
LINE
  6
BYLAYER
  8
0
 10
-65.5580684006211
 11
-65.2633909812662
 20
57.5601298613143
 21
58.2671863129272
 62
7
  0
LINE
  6
BYLAYER
  8
0
 10
-65.2633909812662
 11
-65.2633909812662
 20
58.2671863129272
 21
64.194605667766
 62
7
  0
LINE
  6
BYLAYER
  8
0
 10
-62.2691974328791
 11
-60.242866787718
 20
62.2969847000241
 21
62.2969847000241
 62
7
  0
LINE
  6
BYLAYER
  8
0
 10
-62.231939368363
 11
-62.231939368363
 20
64.1522669580885
 21
58.2671863129272
 62
7
  0
LINE
  6
BYLAYER
  8
0
 10
-62.231939368363
 11
-61.9423425941695
 20
58.2671863129272
 21
57.5601298613143
 62
7
  0
LINE
  6
BYLAYER
  8
0
 10
-61.9423425941695
 11
-61.2352861425566
 20
57.5601298613143
 21
57.266299216153
 62
7
  0
LINE
  6
BYLAYER
  8
0
 10
-61.2352861425566
 11
-61.2352861425566
 20
57.266299216153
 21
57.266299216153
 62
7
  0
LINE
  6
BYLAYER
  8
0
 10
-61.2352861425566
 11
-60.5273829167502
 20
57.266299216153
 21
57.5601298613143
 62
7
  0
LINE
  6
BYLAYER
  8
0
 10
-60.5273829167502
 11
-60.2335522715889
 20
57.5601298613143
 21
58.2671863129272
 62
7
  0
LINE
  6
BYLAYER
  8
0
 10
-60.2335522715889
 11
-60.2335522715889
 20
58.2671863129272
 21
64.194605667766
 62
7
  0
LINE
  6
BYLAYER
  8
0
 10
-57.2376651748147
 11
-55.2130280780405
 20
62.3249282484111
 21
62.3249282484111
 62
7
  0
LINE
  6
BYLAYER
  8
0
 10
-57.2063345296533
 11
-57.2063345296533
 20
64.1759766355078
 21
58.2908959903465
 62
7
  0
LINE
  6
BYLAYER
  8
0
 10
-57.2063345296533
 11
-56.9125038844921
 20
58.2908959903465
 21
57.5829927645402
 62
7
  0
LINE
  6
BYLAYER
  8
0
 10
-56.9125038844921
 11
-56.2046006586857
 20
57.5829927645402
 21
57.2891621193789
 62
7
  0
LINE
  6
BYLAYER
  8
0
 10
-56.2046006586857
 11
-56.2046006586857
 20
57.2891621193789
 21
57.2891621193789
 62
7
  0
LINE
  6
BYLAYER
  8
0
 10
-56.2046006586857
 11
-55.4975442070727
 20
57.2891621193789
 21
57.5829927645402
 62
7
  0
LINE
  6
BYLAYER
  8
0
 10
-55.4975442070727
 11
-55.2037135619114
 20
57.5829927645402
 21
58.2908959903465
 62
7
  0
LINE
  6
BYLAYER
  8
0
 10
-55.2037135619114
 11
-55.2037135619114
 20
58.2908959903465
 21
64.2217024419594
 62
7
  0
LINE
  6
BYLAYER
  8
0
 10
-52.300124852234
 11
-50.2687135619115
 20
62.3249282484111
 21
62.3249282484111
 62
7
  0
LINE
  6
BYLAYER
  8
0
 10
-52.2637135619114
 11
-52.2637135619114
 20
64.1759766355078
 21
58.2908959903465
 62
7
  0
LINE
  6
BYLAYER
  8
0
 10
-52.2637135619114
 11
-51.9690361425566
 20
58.2908959903465
 21
57.5829927645402
 62
7
  0
LINE
  6
BYLAYER
  8
0
 10
-51.9690361425566
 11
-51.2611329167502
 20
57.5829927645402
 21
57.2891621193789
 62
7
  0
LINE
  6
BYLAYER
  8
0
 10
-51.2611329167502
 11
-51.2611329167502
 20
57.2891621193789
 21
57.2891621193789
 62
7
  0
LINE
  6
BYLAYER
  8
0
 10
-51.2611329167502
 11
-50.5540764651373
 20
57.2891621193789
 21
57.5829927645402
 62
7
  0
LINE
  6
BYLAYER
  8
0
 10
-50.5540764651373
 11
-50.260245819976
 20
57.5829927645402
 21
58.2908959903465
 62
7
  0
LINE
  6
BYLAYER
  8
0
 10
-50.260245819976
 11
-50.260245819976
 20
58.2908959903465
 21
64.2217024419594
 62
7
  0
LINE
  6
BYLAYER
  8
0
 10
-47.3151651748147
 11
-45.2846006586856
 20
62.3249282484111
 21
62.3249282484111
 62
7
  0
LINE
  6
BYLAYER
  8
0
 10
-47.2779071102986
 11
-47.2779071102986
 20
64.1759766355078
 21
58.2908959903465
 62
7
  0
LINE
  6
BYLAYER
  8
0
 10
-47.2779071102986
 11
-46.9840764651373
 20
58.2908959903465
 21
57.5829927645402
 62
7
  0
LINE
  6
BYLAYER
  8
0
 10
-46.9840764651373
 11
-46.2770200135243
 20
57.5829927645402
 21
57.2891621193789
 62
7
  0
LINE
  6
BYLAYER
  8
0
 10
-46.2770200135243
 11
-46.2770200135243
 20
57.2891621193789
 21
57.2891621193789
 62
7
  0
LINE
  6
BYLAYER
  8
0
 10
-46.2770200135243
 11
-45.5691167877179
 20
57.2891621193789
 21
57.5829927645402
 62
7
  0
LINE
  6
BYLAYER
  8
0
 10
-45.5691167877179
 11
-45.2752861425567
 20
57.5829927645402
 21
58.2908959903465
 62
7
  0
LINE
  6
BYLAYER
  8
0
 10
-45.2752861425567
 11
-45.2752861425567
 20
58.2908959903465
 21
64.2217024419594
 62
7
  0
LINE
  6
BYLAYER
  8
0
 10
-42.2844796909437
 11
-40.2547619490082
 20
62.3249282484111
 21
62.3249282484111
 62
7
  0
LINE
  6
BYLAYER
  8
0
 10
-42.2480684006211
 11
-42.2480684006211
 20
64.1759766355078
 21
58.2908959903465
 62
7
  0
LINE
  6
BYLAYER
  8
0
 10
-42.2480684006211
 11
-41.9542377554598
 20
58.2908959903465
 21
57.5829927645402
 62
7
  0
LINE
  6
BYLAYER
  8
0
 10
-41.9542377554598
 11
-41.2471813038469
 20
57.5829927645402
 21
57.2891621193789
 62
7
  0
LINE
  6
BYLAYER
  8
0
 10
-41.2471813038469
 11
-41.2471813038469
 20
57.2891621193789
 21
57.2891621193789
 62
7
  0
LINE
  6
BYLAYER
  8
0
 10
-41.2471813038469
 11
-40.5392780780405
 20
57.2891621193789
 21
57.5829927645402
 62
7
  0
LINE
  6
BYLAYER
  8
0
 10
-40.5392780780405
 11
-40.2446006586857
 20
57.5829927645402
 21
58.2908959903465
 62
7
  0
LINE
  6
BYLAYER
  8
0
 10
-40.2446006586857
 11
-40.2446006586857
 20
58.2908959903465
 21
64.2217024419594
 62
7
  0
LINE
  6
BYLAYER
  8
0
 10
-37.300366787718
 11
-35.2698022715889
 20
62.3249282484111
 21
62.3249282484111
 62
7
  0
LINE
  6
BYLAYER
  8
0
 10
-37.2639554973954
 11
-37.2639554973954
 20
64.1759766355078
 21
58.2908959903465
 62
7
  0
LINE
  6
BYLAYER
  8
0
 10
-37.2639554973954
 11
-36.9692780780404
 20
58.2908959903465
 21
57.5829927645402
 62
7
  0
LINE
  6
BYLAYER
  8
0
 10
-36.9692780780404
 11
-36.261374852234
 20
57.5829927645402
 21
57.2891621193789
 62
7
  0
LINE
  6
BYLAYER
  8
0
 10
-36.261374852234
 11
-36.261374852234
 20
57.2891621193789
 21
57.2891621193789
 62
7
  0
LINE
  6
BYLAYER
  8
0
 10
-36.261374852234
 11
-35.5551651748146
 20
57.2891621193789
 21
57.5829927645402
 62
7
  0
LINE
  6
BYLAYER
  8
0
 10
-35.5551651748146
 11
-35.2604877554599
 20
57.5829927645402
 21
58.2908959903465
 62
7
  0
LINE
  6
BYLAYER
  8
0
 10
-35.2604877554599
 11
-35.2604877554599
 20
58.2908959903465
 21
64.2217024419594
 62
7
  0
LINE
  6
BYLAYER
  8
0
 10
-32.2925442070728
 11
-30.2628264651372
 20
62.2741217967981
 21
62.2741217967981
 62
7
  0
LINE
  6
BYLAYER
  8
0
 10
-32.2561329167501
 11
-32.2561329167501
 20
64.1302508290563
 21
58.2400895387336
 62
7
  0
LINE
  6
BYLAYER
  8
0
 10
-32.2561329167501
 11
-31.9623022715888
 20
58.2400895387336
 21
57.5321863129272
 62
7
  0
LINE
  6
BYLAYER
  8
0
 10
-31.9623022715888
 11
-31.2535522715888
 20
57.5321863129272
 21
57.2383556677659
 62
7
  0
LINE
  6
BYLAYER
  8
0
 10
-31.2535522715888
 11
-31.2535522715888
 20
57.2383556677659
 21
57.2383556677659
 62
7
  0
LINE
  6
BYLAYER
  8
0
 10
-31.2535522715888
 11
-30.5473425941696
 20
57.2383556677659
 21
57.5321863129272
 62
7
  0
LINE
  6
BYLAYER
  8
0
 10
-30.5473425941696
 11
-30.2526651748147
 20
57.5321863129272
 21
58.2400895387336
 62
7
  0
LINE
  6
BYLAYER
  8
0
 10
-30.2526651748147
 11
-30.2526651748147
 20
58.2400895387336
 21
64.1708959903466
 62
7
  0
LINE
  6
BYLAYER
  8
0
 10
-27.2618587232018
 11
-25.2312942070728
 20
62.2741217967981
 21
62.2741217967981
 62
7
  0
LINE
  6
BYLAYER
  8
0
 10
-27.2254474328792
 11
-27.2254474328792
 20
64.1302508290563
 21
58.2400895387336
 62
7
  0
LINE
  6
BYLAYER
  8
0
 10
-27.2254474328792
 11
-26.9316167877179
 20
58.2400895387336
 21
57.5321863129272
 62
7
  0
LINE
  6
BYLAYER
  8
0
 10
-26.9316167877179
 11
-26.2237135619114
 20
57.5321863129272
 21
57.2383556677659
 62
7
  0
LINE
  6
BYLAYER
  8
0
 10
-26.2237135619114
 11
-26.2237135619114
 20
57.2383556677659
 21
57.2383556677659
 62
7
  0
LINE
  6
BYLAYER
  8
0
 10
-26.2237135619114
 11
-25.5166571102985
 20
57.2383556677659
 21
57.5321863129272
 62
7
  0
LINE
  6
BYLAYER
  8
0
 10
-25.5166571102985
 11
-25.2228264651373
 20
57.5321863129272
 21
58.2400895387336
 62
7
  0
LINE
  6
BYLAYER
  8
0
 10
-25.2228264651373
 11
-25.2228264651373
 20
58.2400895387336
 21
64.1708959903466
 62
7
  0
LINE
  6
BYLAYER
  8
0
 10
-80.254681303847
 11
-80.254681303847
 20
3.02956534518526
 21
2.02275082905621
 62
7
  0
LINE
  6
BYLAYER
  8
0
 10
-80.254681303847
 11
-80.5485119490083
 20
2.02275082905621
 21
1.32077502260458
 62
7
  0
LINE
  6
BYLAYER
  8
0
 10
-80.5485119490083
 11
-81.2564151748147
 20
1.32077502260458
 21
1.0269443774433
 62
7
  0
LINE
  6
BYLAYER
  8
0
 10
-81.2564151748147
 11
-81.2564151748147
 20
1.0269443774433
 21
1.0269443774433
 62
7
  0
LINE
  6
BYLAYER
  8
0
 10
-81.2564151748147
 11
-81.9634716264276
 20
1.0269443774433
 21
1.32077502260458
 62
7
  0
LINE
  6
BYLAYER
  8
0
 10
-81.9634716264276
 11
-82.2573022715888
 20
1.32077502260458
 21
2.02275082905621
 62
7
  0
LINE
  6
BYLAYER
  8
0
 10
-82.2573022715888
 11
-82.2573022715888
 20
2.02275082905621
 21
3.02956534518526
 62
7
  0
LINE
  6
BYLAYER
  8
0
 10
-90.2694796909438
 11
-90.2694796909438
 20
3.11678308712075
 21
2.11420244195941
 62
7
  0
LINE
  6
BYLAYER
  8
0
 10
-90.2694796909438
 11
-90.563310336105
 20
2.11420244195941
 21
1.40799276454018
 62
7
  0
LINE
  6
BYLAYER
  8
0
 10
-90.563310336105
 11
-91.2712135619114
 20
1.40799276454018
 21
1.11331534518533
 62
7
  0
LINE
  6
BYLAYER
  8
0
 10
-91.2712135619114
 11
-91.2712135619114
 20
1.11331534518533
 21
1.11331534518533
 62
7
  0
LINE
  6
BYLAYER
  8
0
 10
-91.2712135619114
 11
-91.9782700135244
 20
1.11331534518533
 21
1.40799276454018
 62
7
  0
LINE
  6
BYLAYER
  8
0
 10
-91.9782700135244
 11
-92.2729474328792
 20
1.40799276454018
 21
2.11420244195941
 62
7
  0
LINE
  6
BYLAYER
  8
0
 10
-92.2729474328792
 11
-92.2729474328792
 20
2.11420244195941
 21
3.11678308712075
 62
7
  0
LINE
  6
BYLAYER
  8
0
 10
-85.2853667877179
 11
-85.2853667877179
 20
3.02956534518526
 21
2.02783147421761
 62
7
  0
LINE
  6
BYLAYER
  8
0
 10
-85.2853667877179
 11
-85.5791974328792
 20
2.02783147421761
 21
1.32077502260458
 62
7
  0
LINE
  6
BYLAYER
  8
0
 10
-85.5791974328792
 11
-86.2862538844921
 20
1.32077502260458
 21
1.0269443774433
 62
7
  0
LINE
  6
BYLAYER
  8
0
 10
-86.2862538844921
 11
-86.2862538844921
 20
1.0269443774433
 21
1.0269443774433
 62
7
  0
LINE
  6
BYLAYER
  8
0
 10
-86.2862538844921
 11
-86.9941571102985
 20
1.0269443774433
 21
1.32077502260458
 62
7
  0
LINE
  6
BYLAYER
  8
0
 10
-86.9941571102985
 11
-87.2879877554598
 20
1.32077502260458
 21
2.02783147421761
 62
7
  0
LINE
  6
BYLAYER
  8
0
 10
-87.2879877554598
 11
-87.2879877554598
 20
2.02783147421761
 21
3.02956534518526
 62
7
  0
LINE
  6
BYLAYER
  8
0
 10
-70.1983909812663
 11
-70.1983909812663
 20
3.08968631292717
 21
2.08287179679823
 62
7
  0
LINE
  6
BYLAYER
  8
0
 10
-70.1983909812663
 11
-70.4922216264275
 20
2.08287179679823
 21
1.37496857099168
 62
7
  0
LINE
  6
BYLAYER
  8
0
 10
-70.4922216264275
 11
-71.1941974328792
 20
1.37496857099168
 21
1.08029115163694
 62
7
  0
LINE
  6
BYLAYER
  8
0
 10
-71.1941974328792
 11
-71.1941974328792
 20
1.08029115163694
 21
1.08029115163694
 62
7
  0
LINE
  6
BYLAYER
  8
0
 10
-71.1941974328792
 11
-71.9071813038469
 20
1.08029115163694
 21
1.37496857099168
 62
7
  0
LINE
  6
BYLAYER
  8
0
 10
-71.9071813038469
 11
-72.1967780780404
 20
1.37496857099168
 21
2.08287179679823
 62
7
  0
LINE
  6
BYLAYER
  8
0
 10
-72.1967780780404
 11
-72.1967780780404
 20
2.08287179679823
 21
3.08968631292717
 62
7
  0
LINE
  6
BYLAYER
  8
0
 10
-65.3421409812663
 11
-65.3421409812663
 20
3.084605667766
 21
2.08287179679823
 62
7
  0
LINE
  6
BYLAYER
  8
0
 10
-65.3421409812663
 11
-65.6368184006211
 20
2.08287179679823
 21
1.37496857099168
 62
7
  0
LINE
  6
BYLAYER
  8
0
 10
-65.6368184006211
 11
-66.3430280780405
 20
1.37496857099168
 21
1.08029115163694
 62
7
  0
LINE
  6
BYLAYER
  8
0
 10
-66.3430280780405
 11
-66.3430280780405
 20
1.08029115163694
 21
1.08029115163694
 62
7
  0
LINE
  6
BYLAYER
  8
0
 10
-66.3430280780405
 11
-67.050931303847
 20
1.08029115163694
 21
1.37496857099168
 62
7
  0
LINE
  6
BYLAYER
  8
0
 10
-67.050931303847
 11
-67.3456087232017
 20
1.37496857099168
 21
2.08287179679823
 62
7
  0
LINE
  6
BYLAYER
  8
0
 10
-67.3456087232017
 11
-67.3456087232017
 20
2.08287179679823
 21
3.084605667766
 62
7
  0
LINE
  6
BYLAYER
  8
0
 10
-95.166374852234
 11
-95.166374852234
 20
3.20315405486261
 21
2.20226695808859
 62
7
  0
LINE
  6
BYLAYER
  8
0
 10
-95.166374852234
 11
-95.4610522715889
 20
2.20226695808859
 21
1.49436373228204
 62
7
  0
LINE
  6
BYLAYER
  8
0
 10
-95.4610522715889
 11
-96.1681087232017
 20
1.49436373228204
 21
1.2005330871207
 62
7
  0
LINE
  6
BYLAYER
  8
0
 10
-96.1681087232017
 11
-96.1681087232017
 20
1.2005330871207
 21
1.2005330871207
 62
7
  0
LINE
  6
BYLAYER
  8
0
 10
-96.1681087232017
 11
-96.8760119490082
 20
1.2005330871207
 21
1.49436373228204
 62
7
  0
LINE
  6
BYLAYER
  8
0
 10
-96.8760119490082
 11
-97.1698425941695
 20
1.49436373228204
 21
2.20226695808859
 62
7
  0
LINE
  6
BYLAYER
  8
0
 10
-97.1698425941695
 11
-97.1698425941695
 20
2.20226695808859
 21
3.20315405486261
 62
7
  0
LINE
  6
BYLAYER
  8
0
 10
-75.2239958199759
 11
-75.2239958199759
 20
3.11678308712075
 21
2.11420244195941
 62
7
  0
LINE
  6
BYLAYER
  8
0
 10
-75.2239958199759
 11
-75.5178264651372
 20
2.11420244195941
 21
1.40799276454018
 62
7
  0
LINE
  6
BYLAYER
  8
0
 10
-75.5178264651372
 11
-76.2257296909438
 20
1.40799276454018
 21
1.11331534518533
 62
7
  0
LINE
  6
BYLAYER
  8
0
 10
-76.2257296909438
 11
-76.2257296909438
 20
1.11331534518533
 21
1.11331534518533
 62
7
  0
LINE
  6
BYLAYER
  8
0
 10
-76.2257296909438
 11
-76.9327861425566
 20
1.11331534518533
 21
1.40799276454018
 62
7
  0
LINE
  6
BYLAYER
  8
0
 10
-76.9327861425566
 11
-77.2266167877179
 20
1.40799276454018
 21
2.11420244195941
 62
7
  0
LINE
  6
BYLAYER
  8
0
 10
-77.2266167877179
 11
-77.2266167877179
 20
2.11420244195941
 21
3.11678308712075
 62
7
  0
LINE
  6
BYLAYER
  8
0
 10
-75.2239958199759
 11
-75.2239958199759
 20
3.11678308712075
 21
2.11420244195941
 62
7
  0
LINE
  6
BYLAYER
  8
0
 10
-75.2239958199759
 11
-75.5178264651372
 20
2.11420244195941
 21
1.40799276454018
 62
7
  0
LINE
  6
BYLAYER
  8
0
 10
-75.5178264651372
 11
-76.2257296909438
 20
1.40799276454018
 21
1.11331534518533
 62
7
  0
LINE
  6
BYLAYER
  8
0
 10
-76.2257296909438
 11
-76.2257296909438
 20
1.11331534518533
 21
1.11331534518533
 62
7
  0
LINE
  6
BYLAYER
  8
0
 10
-76.2257296909438
 11
-76.9327861425566
 20
1.11331534518533
 21
1.40799276454018
 62
7
  0
LINE
  6
BYLAYER
  8
0
 10
-76.9327861425566
 11
-77.2266167877179
 20
1.40799276454018
 21
2.11420244195941
 62
7
  0
LINE
  6
BYLAYER
  8
0
 10
-77.2266167877179
 11
-77.2266167877179
 20
2.11420244195941
 21
3.11678308712075
 62
7
  0
LINE
  6
BYLAYER
  8
0
 10
-60.2242377554599
 11
-60.2242377554599
 20
3.08968631292717
 21
2.08287179679823
 62
7
  0
LINE
  6
BYLAYER
  8
0
 10
-60.2242377554599
 11
-60.5180684006212
 20
2.08287179679823
 21
1.37496857099168
 62
7
  0
LINE
  6
BYLAYER
  8
0
 10
-60.5180684006212
 11
-61.2259716264276
 20
1.37496857099168
 21
1.08029115163694
 62
7
  0
LINE
  6
BYLAYER
  8
0
 10
-61.2259716264276
 11
-61.2259716264276
 20
1.08029115163694
 21
1.08029115163694
 62
7
  0
LINE
  6
BYLAYER
  8
0
 10
-61.2259716264276
 11
-61.9330280780405
 20
1.08029115163694
 21
1.37496857099168
 62
7
  0
LINE
  6
BYLAYER
  8
0
 10
-61.9330280780405
 11
-62.2268587232017
 20
1.37496857099168
 21
2.08287179679823
 62
7
  0
LINE
  6
BYLAYER
  8
0
 10
-62.2268587232017
 11
-62.2268587232017
 20
2.08287179679823
 21
3.08968631292717
 62
7
  0
LINE
  6
BYLAYER
  8
0
 10
-115.242798239331
 11
-115.242798239331
 20
47.6698072806692
 21
48.6706943774433
 62
7
  0
LINE
  6
BYLAYER
  8
0
 10
-115.242798239331
 11
-115.53688291675
 20
48.6706943774433
 21
49.3828314742176
 62
7
  0
LINE
  6
BYLAYER
  8
0
 10
-115.53688291675
 11
-116.24427807804
 20
49.3828314742176
 21
49.6724282484111
 62
7
  0
LINE
  6
BYLAYER
  8
0
 10
-116.24427807804
 11
-116.24427807804
 20
49.6724282484111
 21
49.6724282484111
 62
7
  0
LINE
  6
BYLAYER
  8
0
 10
-116.24427807804
 11
-116.95175791675
 20
49.6724282484111
 21
49.3828314742176
 62
7
  0
LINE
  6
BYLAYER
  8
0
 10
-116.95175791675
 11
-117.241185336105
 20
49.3828314742176
 21
48.6706943774433
 62
7
  0
LINE
  6
BYLAYER
  8
0
 10
-117.241185336105
 11
-117.241185336105
 20
48.6706943774433
 21
47.6698072806692
 62
7
  0
LINE
  6
BYLAYER
  8
0
 10
-65.3014958199759
 11
-65.3014958199759
 20
47.6054524419595
 21
48.611420183895
 62
7
  0
LINE
  6
BYLAYER
  8
0
 10
-65.3014958199759
 11
-65.5953264651373
 20
48.611420183895
 21
49.3184766355078
 62
7
  0
LINE
  6
BYLAYER
  8
0
 10
-65.5953264651373
 11
-66.2973022715889
 20
49.3184766355078
 21
49.6123072806692
 62
7
  0
LINE
  6
BYLAYER
  8
0
 10
-66.2973022715889
 11
-66.2973022715889
 20
49.6123072806692
 21
49.6123072806692
 62
7
  0
LINE
  6
BYLAYER
  8
0
 10
-66.2973022715889
 11
-67.0102861425566
 20
49.6123072806692
 21
49.3184766355078
 62
7
  0
LINE
  6
BYLAYER
  8
0
 10
-67.0102861425566
 11
-67.2990361425566
 20
49.3184766355078
 21
48.611420183895
 62
7
  0
LINE
  6
BYLAYER
  8
0
 10
-67.2990361425566
 11
-67.2990361425566
 20
48.611420183895
 21
47.6054524419595
 62
7
  0
LINE
  6
BYLAYER
  8
0
 10
-60.2699635619114
 11
-60.2699635619114
 20
47.6969040548626
 21
48.6986379258305
 62
7
  0
LINE
  6
BYLAYER
  8
0
 10
-60.2699635619114
 11
-60.5637942070728
 20
48.6986379258305
 21
49.4056943774433
 62
7
  0
LINE
  6
BYLAYER
  8
0
 10
-60.5637942070728
 11
-61.2716974328792
 20
49.4056943774433
 21
49.6995250226045
 62
7
  0
LINE
  6
BYLAYER
  8
0
 10
-61.2716974328792
 11
-61.2716974328792
 20
49.6995250226045
 21
49.6995250226045
 62
7
  0
LINE
  6
BYLAYER
  8
0
 10
-61.2716974328792
 11
-61.9787538844921
 20
49.6995250226045
 21
49.4056943774433
 62
7
  0
LINE
  6
BYLAYER
  8
0
 10
-61.9787538844921
 11
-62.2691974328791
 20
49.4056943774433
 21
48.6986379258305
 62
7
  0
LINE
  6
BYLAYER
  8
0
 10
-62.2691974328791
 11
-62.2691974328791
 20
48.6986379258305
 21
47.6969040548626
 62
7
  0
LINE
  6
BYLAYER
  8
0
 10
-55.240124852234
 11
-55.240124852234
 20
47.6054524419595
 21
48.611420183895
 62
7
  0
LINE
  6
BYLAYER
  8
0
 10
-55.240124852234
 11
-55.5339554973953
 20
48.611420183895
 21
49.3184766355078
 62
7
  0
LINE
  6
BYLAYER
  8
0
 10
-55.5339554973953
 11
-56.2418587232017
 20
49.3184766355078
 21
49.6123072806692
 62
7
  0
LINE
  6
BYLAYER
  8
0
 10
-56.2418587232017
 11
-56.2418587232017
 20
49.6123072806692
 21
49.6123072806692
 62
7
  0
LINE
  6
BYLAYER
  8
0
 10
-56.2418587232017
 11
-56.9489151748147
 20
49.6123072806692
 21
49.3184766355078
 62
7
  0
LINE
  6
BYLAYER
  8
0
 10
-56.9489151748147
 11
-57.2376651748147
 20
49.3184766355078
 21
48.611420183895
 62
7
  0
LINE
  6
BYLAYER
  8
0
 10
-57.2376651748147
 11
-57.2376651748147
 20
48.611420183895
 21
47.6054524419595
 62
7
  0
LINE
  6
BYLAYER
  8
0
 10
-50.2094393683631
 11
-50.2094393683631
 20
47.6969040548626
 21
48.6986379258305
 62
7
  0
LINE
  6
BYLAYER
  8
0
 10
-50.2094393683631
 11
-50.5041167877179
 20
48.6986379258305
 21
49.4056943774433
 62
7
  0
LINE
  6
BYLAYER
  8
0
 10
-50.5041167877179
 11
-51.2103264651373
 20
49.4056943774433
 21
49.6995250226045
 62
7
  0
LINE
  6
BYLAYER
  8
0
 10
-51.2103264651373
 11
-51.2103264651373
 20
49.6995250226045
 21
49.6995250226045
 62
7
  0
LINE
  6
BYLAYER
  8
0
 10
-51.2103264651373
 11
-51.9190764651372
 20
49.6995250226045
 21
49.4056943774433
 62
7
  0
LINE
  6
BYLAYER
  8
0
 10
-51.9190764651372
 11
-52.2129071102985
 20
49.4056943774433
 21
48.6986379258305
 62
7
  0
LINE
  6
BYLAYER
  8
0
 10
-52.2129071102985
 11
-52.2129071102985
 20
48.6986379258305
 21
47.6969040548626
 62
7
  0
LINE
  6
BYLAYER
  8
0
 10
-45.178753884492
 11
-45.178753884492
 20
47.6054524419595
 21
48.611420183895
 62
7
  0
LINE
  6
BYLAYER
  8
0
 10
-45.178753884492
 11
-45.4725845296534
 20
48.611420183895
 21
49.3184766355078
 62
7
  0
LINE
  6
BYLAYER
  8
0
 10
-45.4725845296534
 11
-46.1804877554599
 20
49.3184766355078
 21
49.6123072806692
 62
7
  0
LINE
  6
BYLAYER
  8
0
 10
-46.1804877554599
 11
-46.1804877554599
 20
49.6123072806692
 21
49.6123072806692
 62
7
  0
LINE
  6
BYLAYER
  8
0
 10
-46.1804877554599
 11
-46.8875442070727
 20
49.6123072806692
 21
49.3184766355078
 62
7
  0
LINE
  6
BYLAYER
  8
0
 10
-46.8875442070727
 11
-47.181374852234
 20
49.3184766355078
 21
48.611420183895
 62
7
  0
LINE
  6
BYLAYER
  8
0
 10
-47.181374852234
 11
-47.181374852234
 20
48.611420183895
 21
47.6054524419595
 62
7
  0
LINE
  6
BYLAYER
  8
0
 10
-40.2403667877179
 11
-40.2403667877179
 20
47.6054524419595
 21
48.611420183895
 62
7
  0
LINE
  6
BYLAYER
  8
0
 10
-40.2403667877179
 11
-40.5341974328792
 20
48.611420183895
 21
49.3184766355078
 62
7
  0
LINE
  6
BYLAYER
  8
0
 10
-40.5341974328792
 11
-41.2421006586856
 20
49.3184766355078
 21
49.6123072806692
 62
7
  0
LINE
  6
BYLAYER
  8
0
 10
-41.2421006586856
 11
-41.2421006586856
 20
49.6123072806692
 21
49.6123072806692
 62
7
  0
LINE
  6
BYLAYER
  8
0
 10
-41.2421006586856
 11
-41.9491571102986
 20
49.6123072806692
 21
49.3184766355078
 62
7
  0
LINE
  6
BYLAYER
  8
0
 10
-41.9491571102986
 11
-42.2387538844921
 20
49.3184766355078
 21
48.611420183895
 62
7
  0
LINE
  6
BYLAYER
  8
0
 10
-42.2387538844921
 11
-42.2387538844921
 20
48.611420183895
 21
47.6054524419595
 62
7
  0
LINE
  6
BYLAYER
  8
0
 10
-40.2403667877179
 11
-40.2403667877179
 20
47.6054524419595
 21
48.611420183895
 62
7
  0
LINE
  6
BYLAYER
  8
0
 10
-40.2403667877179
 11
-40.5341974328792
 20
48.611420183895
 21
49.3184766355078
 62
7
  0
LINE
  6
BYLAYER
  8
0
 10
-40.5341974328792
 11
-41.2421006586856
 20
49.3184766355078
 21
49.6123072806692
 62
7
  0
LINE
  6
BYLAYER
  8
0
 10
-41.2421006586856
 11
-41.2421006586856
 20
49.6123072806692
 21
49.6123072806692
 62
7
  0
LINE
  6
BYLAYER
  8
0
 10
-41.2421006586856
 11
-41.9491571102986
 20
49.6123072806692
 21
49.3184766355078
 62
7
  0
LINE
  6
BYLAYER
  8
0
 10
-41.9491571102986
 11
-42.2387538844921
 20
49.3184766355078
 21
48.611420183895
 62
7
  0
LINE
  6
BYLAYER
  8
0
 10
-42.2387538844921
 11
-42.2387538844921
 20
48.611420183895
 21
47.6054524419595
 62
7
  0
LINE
  6
BYLAYER
  8
0
 10
-25.2355280780405
 11
-25.2355280780405
 20
47.6367830871207
 21
48.6435976032498
 62
7
  0
LINE
  6
BYLAYER
  8
0
 10
-25.2355280780405
 11
-25.5302054973953
 20
48.6435976032498
 21
49.3506540548628
 62
7
  0
LINE
  6
BYLAYER
  8
0
 10
-25.5302054973953
 11
-26.2381087232018
 20
49.3506540548628
 21
49.6410976032498
 62
7
  0
LINE
  6
BYLAYER
  8
0
 10
-26.2381087232018
 11
-26.2381087232018
 20
49.6410976032498
 21
49.6410976032498
 62
7
  0
LINE
  6
BYLAYER
  8
0
 10
-26.2381087232018
 11
-26.9493990457825
 20
49.6410976032498
 21
49.3506540548628
 62
7
  0
LINE
  6
BYLAYER
  8
0
 10
-26.9493990457825
 11
-27.2389958199759
 20
49.3506540548628
 21
48.6435976032498
 62
7
  0
LINE
  6
BYLAYER
  8
0
 10
-27.2389958199759
 11
-27.2389958199759
 20
48.6435976032498
 21
47.6367830871207
 62
7
  0
LINE
  6
BYLAYER
  8
0
 10
-42.9559716264276
 11
-42.9559716264276
 20
30.7275492161529
 21
31.6776298613144
 62
7
  0
LINE
  6
BYLAYER
  8
0
 10
-43.525003884492
 11
-43.525003884492
 20
30.7275492161529
 21
31.6776298613144
 62
7
  0
LINE
  6
BYLAYER
  8
0
 10
-42.9559716264276
 11
-42.9559716264276
 20
39.7262185709917
 21
38.733799216153
 62
7
  0
LINE
  6
BYLAYER
  8
0
 10
-43.525003884492
 11
-43.525003884492
 20
39.6618637322821
 21
38.7575088935725
 62
7
  0
LINE
  6
BYLAYER
  8
0
 10
-39.777181303847
 11
-38.738189368363
 20
34.8513395387336
 21
34.8513395387336
 62
7
  0
LINE
  6
BYLAYER
  8
0
 10
-39.777181303847
 11
-38.7153264651372
 20
35.4728717967982
 21
35.4728717967982
 62
7
  0
LINE
  6
BYLAYER
  8
0
 10
-47.6962135619115
 11
-46.7910119490082
 20
34.8513395387336
 21
34.8513395387336
 62
7
  0
LINE
  6
BYLAYER
  8
0
 10
-47.7190764651372
 11
-46.7910119490082
 20
35.4728717967982
 21
35.4728717967982
 62
7
  0
LINE
  6
BYLAYER
  8
0
 10
-43.2167780780404
 11
-40.7458909812663
 20
31.7055734097015
 21
32.7344040548628
 62
7
  0
LINE
  6
BYLAYER
  8
0
 10
-40.7458909812663
 11
-39.717060336105
 20
32.7344040548628
 21
35.2052911516369
 62
7
  0
LINE
  6
BYLAYER
  8
0
 10
-39.717060336105
 11
-40.7458909812663
 20
35.2052911516369
 21
37.6821056677659
 62
7
  0
LINE
  6
BYLAYER
  8
0
 10
-40.7458909812663
 11
-43.2167780780404
 20
37.6821056677659
 21
38.7067024419595
 62
7
  0
LINE
  6
BYLAYER
  8
0
 10
-43.2167780780404
 11
-45.6935925941695
 20
38.7067024419595
 21
37.6821056677659
 62
7
  0
LINE
  6
BYLAYER
  8
0
 10
-45.6935925941695
 11
-46.7181893683631
 20
37.6821056677659
 21
35.2052911516369
 62
7
  0
LINE
  6
BYLAYER
  8
0
 10
-46.7181893683631
 11
-45.6935925941695
 20
35.2052911516369
 21
32.7344040548628
 62
7
  0
LINE
  6
BYLAYER
  8
0
 10
-45.6935925941695
 11
-43.2167780780404
 20
32.7344040548628
 21
31.7055734097015
 62
7
  0
LINE
  6
BYLAYER
  8
0
 10
-43.2167780780404
 11
-43.2167780780404
 20
31.7055734097015
 21
31.7055734097015
 62
7
  0
LINE
  6
BYLAYER
  8
0
 10
-43.2167780780404
 11
-41.4673425941695
 20
30.7038395387337
 21
31.0620250226047
 62
7
  0
LINE
  6
BYLAYER
  8
0
 10
-41.4673425941695
 11
-40.0379877554599
 20
31.0620250226047
 21
32.0265008290562
 62
7
  0
LINE
  6
BYLAYER
  8
0
 10
-40.0379877554599
 11
-39.0735119490082
 20
32.0265008290562
 21
33.455855667766
 62
7
  0
LINE
  6
BYLAYER
  8
0
 10
-39.0735119490082
 11
-38.7153264651372
 20
33.455855667766
 21
35.2052911516369
 62
7
  0
LINE
  6
BYLAYER
  8
0
 10
-38.7153264651372
 11
-39.0735119490082
 20
35.2052911516369
 21
36.9606540548627
 62
7
  0
LINE
  6
BYLAYER
  8
0
 10
-39.0735119490082
 11
-40.0379877554599
 20
36.9606540548627
 21
38.3891621193788
 62
7
  0
LINE
  6
BYLAYER
  8
0
 10
-40.0379877554599
 11
-41.4673425941695
 20
38.3891621193788
 21
39.3536379258305
 62
7
  0
LINE
  6
BYLAYER
  8
0
 10
-41.4673425941695
 11
-43.2167780780404
 20
39.3536379258305
 21
39.7075895387337
 62
7
  0
LINE
  6
BYLAYER
  8
0
 10
-43.2167780780404
 11
-44.9729877554599
 20
39.7075895387337
 21
39.3536379258305
 62
7
  0
LINE
  6
BYLAYER
  8
0
 10
-44.9729877554599
 11
-46.4006490457825
 20
39.3536379258305
 21
38.3891621193788
 62
7
  0
LINE
  6
BYLAYER
  8
0
 10
-46.4006490457825
 11
-47.3659716264276
 20
38.3891621193788
 21
36.9606540548627
 62
7
  0
LINE
  6
BYLAYER
  8
0
 10
-47.3659716264276
 11
-47.7190764651372
 20
36.9606540548627
 21
35.2052911516369
 62
7
  0
LINE
  6
BYLAYER
  8
0
 10
-47.7190764651372
 11
-47.3659716264276
 20
35.2052911516369
 21
33.455855667766
 62
7
  0
LINE
  6
BYLAYER
  8
0
 10
-47.3659716264276
 11
-46.4006490457825
 20
33.455855667766
 21
32.0265008290562
 62
7
  0
LINE
  6
BYLAYER
  8
0
 10
-46.4006490457825
 11
-44.9729877554599
 20
32.0265008290562
 21
31.0620250226047
 62
7
  0
LINE
  6
BYLAYER
  8
0
 10
-44.9729877554599
 11
-43.2167780780404
 20
31.0620250226047
 21
30.7038395387337
 62
7
  0
LINE
  6
BYLAYER
  8
0
 10
-43.2167780780404
 11
-43.2167780780404
 20
30.7038395387337
 21
30.7038395387337
 62
7
  0
LINE
  6
BYLAYER
  8
0
 10
-26.1966167877179
 11
-25.4887135619114
 20
5.2015411516368
 21
5.4953717967982
 62
7
  0
LINE
  6
BYLAYER
  8
0
 10
-25.4887135619114
 11
-25.1948829167501
 20
5.4953717967982
 21
6.19904115163698
 62
7
  0
LINE
  6
BYLAYER
  8
0
 10
-25.1948829167501
 11
-25.1948829167501
 20
6.19904115163698
 21
22.2090008290562
 62
7
  0
LINE
  6
BYLAYER
  8
0
 10
-25.1948829167501
 11
-25.4887135619114
 20
22.2090008290562
 21
22.9169040548627
 62
7
  0
LINE
  6
BYLAYER
  8
0
 10
-25.4887135619114
 11
-26.1966167877179
 20
22.9169040548627
 21
23.2107347000241
 62
7
  0
LINE
  6
BYLAYER
  8
0
 10
-26.1966167877179
 11
-26.1966167877179
 20
23.2107347000241
 21
23.2107347000241
 62
7
  0
LINE
  6
BYLAYER
  8
0
 10
-26.1966167877179
 11
-26.9036732393309
 20
23.2107347000241
 21
22.9169040548627
 62
7
  0
LINE
  6
BYLAYER
  8
0
 10
-26.9036732393309
 11
-27.1932700135243
 20
22.9169040548627
 21
22.2090008290562
 62
7
  0
LINE
  6
BYLAYER
  8
0
 10
-27.1932700135243
 11
-27.1932700135243
 20
22.2090008290562
 21
6.19904115163698
 62
7
  0
LINE
  6
BYLAYER
  8
0
 10
-27.1932700135243
 11
-26.9036732393309
 20
6.19904115163698
 21
5.4953717967982
 62
7
  0
LINE
  6
BYLAYER
  8
0
 10
-26.9036732393309
 11
-26.1966167877179
 20
5.4953717967982
 21
5.2015411516368
 62
7
  0
LINE
  6
BYLAYER
  8
0
 10
-26.1966167877179
 11
-26.1966167877179
 20
5.2015411516368
 21
5.2015411516368
 62
7
  0
LINE
  6
BYLAYER
  8
0
 10
-26.1966167877179
 11
-26.1966167877179
 20
5.2015411516368
 21
5.2015411516368
 62
7
  0
LINE
  6
BYLAYER
  8
0
 10
-116.377475658686
 11
-115.669995819976
 20
5.11432340970148
 21
5.40900082905628
 62
7
  0
LINE
  6
BYLAYER
  8
0
 10
-115.669995819976
 11
-115.375995819976
 20
5.40900082905628
 21
6.11690405486266
 62
7
  0
LINE
  6
BYLAYER
  8
0
 10
-115.375995819976
 11
-115.375995819976
 20
6.11690405486266
 21
22.126863732282
 62
7
  0
LINE
  6
BYLAYER
  8
0
 10
-115.375995819976
 11
-115.669995819976
 20
22.126863732282
 21
22.8347669580886
 62
7
  0
LINE
  6
BYLAYER
  8
0
 10
-115.669995819976
 11
-116.377475658686
 20
22.8347669580886
 21
23.1235169580886
 62
7
  0
LINE
  6
BYLAYER
  8
0
 10
-116.377475658686
 11
-116.377475658686
 20
23.1235169580886
 21
23.1235169580886
 62
7
  0
LINE
  6
BYLAYER
  8
0
 10
-116.377475658686
 11
-117.085040174815
 20
23.1235169580886
 21
22.8347669580886
 62
7
  0
LINE
  6
BYLAYER
  8
0
 10
-117.085040174815
 11
-117.374467594169
 20
22.8347669580886
 21
22.126863732282
 62
7
  0
LINE
  6
BYLAYER
  8
0
 10
-117.374467594169
 11
-117.374467594169
 20
22.126863732282
 21
6.11690405486266
 62
7
  0
LINE
  6
BYLAYER
  8
0
 10
-117.374467594169
 11
-117.085040174815
 20
6.11690405486266
 21
5.40900082905628
 62
7
  0
LINE
  6
BYLAYER
  8
0
 10
-117.085040174815
 11
-116.377475658686
 20
5.40900082905628
 21
5.11432340970148
 62
7
  0
LINE
  6
BYLAYER
  8
0
 10
-116.377475658686
 11
-116.377475658686
 20
5.11432340970148
 21
5.11432340970148
 62
7
  0
LINE
  6
BYLAYER
  8
0
 10
-116.377475658686
 11
-116.377475658686
 20
5.11432340970148
 21
5.11432340970148
 62
7
  0
LINE
  6
BYLAYER
  8
0
 10
-31.1350038844921
 11
-30.4271006586856
 20
5.2015411516368
 21
5.4953717967982
 62
7
  0
LINE
  6
BYLAYER
  8
0
 10
-30.4271006586856
 11
-30.1332700135243
 20
5.4953717967982
 21
6.19904115163698
 62
7
  0
LINE
  6
BYLAYER
  8
0
 10
-30.1332700135243
 11
-30.1332700135243
 20
6.19904115163698
 21
22.2090008290562
 62
7
  0
LINE
  6
BYLAYER
  8
0
 10
-30.1332700135243
 11
-30.4271006586856
 20
22.2090008290562
 21
22.9169040548627
 62
7
  0
LINE
  6
BYLAYER
  8
0
 10
-30.4271006586856
 11
-31.1350038844921
 20
22.9169040548627
 21
23.2107347000241
 62
7
  0
LINE
  6
BYLAYER
  8
0
 10
-31.1350038844921
 11
-31.1350038844921
 20
23.2107347000241
 21
23.2107347000241
 62
7
  0
LINE
  6
BYLAYER
  8
0
 10
-31.1350038844921
 11
-31.8462942070727
 20
23.2107347000241
 21
22.9169040548627
 62
7
  0
LINE
  6
BYLAYER
  8
0
 10
-31.8462942070727
 11
-32.1358909812662
 20
22.9169040548627
 21
22.2090008290562
 62
7
  0
LINE
  6
BYLAYER
  8
0
 10
-32.1358909812662
 11
-32.1358909812662
 20
22.2090008290562
 21
6.19904115163698
 62
7
  0
LINE
  6
BYLAYER
  8
0
 10
-32.1358909812662
 11
-31.8462942070727
 20
6.19904115163698
 21
5.4953717967982
 62
7
  0
LINE
  6
BYLAYER
  8
0
 10
-31.8462942070727
 11
-31.1350038844921
 20
5.4953717967982
 21
5.2015411516368
 62
7
  0
LINE
  6
BYLAYER
  8
0
 10
-31.1350038844921
 11
-31.1350038844921
 20
5.2015411516368
 21
5.2015411516368
 62
7
  0
LINE
  6
BYLAYER
  8
0
 10
-31.1350038844921
 11
-31.1350038844921
 20
5.2015411516368
 21
5.2015411516368
 62
7
  0
LINE
  6
BYLAYER
  8
0
 10
-41.108310336105
 11
-40.4012538844921
 20
5.10500889357243
 21
5.39883953873371
 62
7
  0
LINE
  6
BYLAYER
  8
0
 10
-40.4012538844921
 11
-40.1074232393308
 20
5.39883953873371
 21
6.10758953873361
 62
7
  0
LINE
  6
BYLAYER
  8
0
 10
-40.1074232393308
 11
-40.1074232393308
 20
6.10758953873361
 21
22.117549216153
 62
7
  0
LINE
  6
BYLAYER
  8
0
 10
-40.1074232393308
 11
-40.4012538844921
 20
22.117549216153
 21
22.8254524419595
 62
7
  0
LINE
  6
BYLAYER
  8
0
 10
-40.4012538844921
 11
-41.108310336105
 20
22.8254524419595
 21
23.1192830871208
 62
7
  0
LINE
  6
BYLAYER
  8
0
 10
-41.108310336105
 11
-41.108310336105
 20
23.1192830871208
 21
23.1192830871208
 62
7
  0
LINE
  6
BYLAYER
  8
0
 10
-41.108310336105
 11
-41.8162135619115
 20
23.1192830871208
 21
22.8254524419595
 62
7
  0
LINE
  6
BYLAYER
  8
0
 10
-41.8162135619115
 11
-42.105810336105
 20
22.8254524419595
 21
22.117549216153
 62
7
  0
LINE
  6
BYLAYER
  8
0
 10
-42.105810336105
 11
-42.105810336105
 20
22.117549216153
 21
6.10758953873361
 62
7
  0
LINE
  6
BYLAYER
  8
0
 10
-42.105810336105
 11
-41.8162135619115
 20
6.10758953873361
 21
5.39883953873371
 62
7
  0
LINE
  6
BYLAYER
  8
0
 10
-41.8162135619115
 11
-41.108310336105
 20
5.39883953873371
 21
5.10500889357243
 62
7
  0
LINE
  6
BYLAYER
  8
0
 10
-41.108310336105
 11
-41.108310336105
 20
5.10500889357243
 21
5.10500889357243
 62
7
  0
LINE
  6
BYLAYER
  8
0
 10
-41.108310336105
 11
-41.108310336105
 20
5.10500889357243
 21
5.10500889357243
 62
7
  0
LINE
  6
BYLAYER
  8
0
 10
-46.1398425941695
 11
-45.4310925941696
 20
5.10500889357243
 21
5.39883953873371
 62
7
  0
LINE
  6
BYLAYER
  8
0
 10
-45.4310925941696
 11
-45.1372619490083
 20
5.39883953873371
 21
6.10758953873361
 62
7
  0
LINE
  6
BYLAYER
  8
0
 10
-45.1372619490083
 11
-45.1372619490083
 20
6.10758953873361
 21
22.117549216153
 62
7
  0
LINE
  6
BYLAYER
  8
0
 10
-45.1372619490083
 11
-45.4310925941696
 20
22.117549216153
 21
22.8254524419595
 62
7
  0
LINE
  6
BYLAYER
  8
0
 10
-45.4310925941696
 11
-46.1398425941695
 20
22.8254524419595
 21
23.1192830871208
 62
7
  0
LINE
  6
BYLAYER
  8
0
 10
-46.1398425941695
 11
-46.1398425941695
 20
23.1192830871208
 21
23.1192830871208
 62
7
  0
LINE
  6
BYLAYER
  8
0
 10
-46.1398425941695
 11
-46.8460522715888
 20
23.1192830871208
 21
22.8254524419595
 62
7
  0
LINE
  6
BYLAYER
  8
0
 10
-46.8460522715888
 11
-47.1356490457825
 20
22.8254524419595
 21
22.117549216153
 62
7
  0
LINE
  6
BYLAYER
  8
0
 10
-47.1356490457825
 11
-47.1356490457825
 20
22.117549216153
 21
6.10758953873361
 62
7
  0
LINE
  6
BYLAYER
  8
0
 10
-47.1356490457825
 11
-46.8460522715888
 20
6.10758953873361
 21
5.39883953873371
 62
7
  0
LINE
  6
BYLAYER
  8
0
 10
-46.8460522715888
 11
-46.1398425941695
 20
5.39883953873371
 21
5.10500889357243
 62
7
  0
LINE
  6
BYLAYER
  8
0
 10
-46.1398425941695
 11
-46.1398425941695
 20
5.10500889357243
 21
5.10500889357243
 62
7
  0
LINE
  6
BYLAYER
  8
0
 10
-46.1398425941695
 11
-46.1398425941695
 20
5.10500889357243
 21
5.10500889357243
 62
7
  0
LINE
  6
BYLAYER
  8
0
 10
-116.377475658686
 11
-115.669995819976
 20
27.4420653451853
 21
27.7367427645401
 62
7
  0
LINE
  6
BYLAYER
  8
0
 10
-115.669995819976
 11
-115.375995819976
 20
27.7367427645401
 21
28.4429524419595
 62
7
  0
LINE
  6
BYLAYER
  8
0
 10
-115.375995819976
 11
-115.375995819976
 20
28.4429524419595
 21
44.448678248411
 62
7
  0
LINE
  6
BYLAYER
  8
0
 10
-115.375995819976
 11
-115.669995819976
 20
44.448678248411
 21
45.1565814742175
 62
7
  0
LINE
  6
BYLAYER
  8
0
 10
-115.669995819976
 11
-116.377475658686
 20
45.1565814742175
 21
45.4504121193789
 62
7
  0
LINE
  6
BYLAYER
  8
0
 10
-116.377475658686
 11
-116.377475658686
 20
45.4504121193789
 21
45.4504121193789
 62
7
  0
LINE
  6
BYLAYER
  8
0
 10
-116.377475658686
 11
-117.085040174815
 20
45.4504121193789
 21
45.1565814742175
 62
7
  0
LINE
  6
BYLAYER
  8
0
 10
-117.085040174815
 11
-117.374467594169
 20
45.1565814742175
 21
44.448678248411
 62
7
  0
LINE
  6
BYLAYER
  8
0
 10
-117.374467594169
 11
-117.374467594169
 20
44.448678248411
 21
28.4429524419595
 62
7
  0
LINE
  6
BYLAYER
  8
0
 10
-117.374467594169
 11
-117.085040174815
 20
28.4429524419595
 21
27.7367427645401
 62
7
  0
LINE
  6
BYLAYER
  8
0
 10
-117.085040174815
 11
-116.377475658686
 20
27.7367427645401
 21
27.4420653451853
 62
7
  0
LINE
  6
BYLAYER
  8
0
 10
-116.377475658686
 11
-116.377475658686
 20
27.4420653451853
 21
27.4420653451853
 62
7
  0
LINE
  6
BYLAYER
  8
0
 10
-116.377475658686
 11
-116.377475658686
 20
27.4420653451853
 21
27.4420653451853
 62
7
  0
LINE
  6
BYLAYER
  8
0
 10
-18.7577054973953
 11
-18.8593184006212
 20
63.7068637322821
 21
64.1251701838949
 62
7
  0
LINE
  6
BYLAYER
  8
0
 10
-18.8593184006212
 11
-19.4435925941696
 20
64.1251701838949
 21
64.4562588935724
 62
7
  0
LINE
  6
BYLAYER
  8
0
 10
-19.4435925941696
 11
-123.369628884492
 20
64.4562588935724
 21
64.4333959903466
 62
7
  0
LINE
  6
BYLAYER
  8
0
 10
-123.369628884492
 11
-123.985318400621
 20
64.4333959903466
 21
63.8169443774434
 62
7
  0
LINE
  6
BYLAYER
  8
0
 10
-18.8686329167502
 11
-19.5765361425566
 20
-13.1048701386858
 21
-13.6205556225567
 62
7
  0
LINE
  6
BYLAYER
  8
0
 10
-19.5765361425566
 11
-20.7340764651373
 20
-13.6205556225567
 21
-13.6205556225567
 62
7
  0
LINE
  6
BYLAYER
  8
0
 10
-20.7340764651373
 11
-24.0093990457824
 20
-13.6205556225567
 21
-13.6205556225567
 62
7
  0
LINE
  6
BYLAYER
  8
0
 10
-24.0093990457824
 11
-29.0959716264275
 20
-13.6205556225567
 21
-13.6239427193309
 62
7
  0
LINE
  6
BYLAYER
  8
0
 10
-29.0959716264275
 11
-35.6923425941695
 20
-13.6239427193309
 21
-13.6281765902986
 62
7
  0
LINE
  6
BYLAYER
  8
0
 10
-35.6923425941695
 11
-43.506374852234
 20
-13.6281765902986
 21
-13.6332572354598
 62
7
  0
LINE
  6
BYLAYER
  8
0
 10
-43.506374852234
 11
-52.2264554973954
 20
-13.6332572354598
 21
-13.6425717515889
 62
7
  0
LINE
  6
BYLAYER
  8
0
 10
-52.2264554973954
 11
-61.5612942070727
 20
-13.6425717515889
 21
-13.6476523967503
 62
7
  0
LINE
  6
BYLAYER
  8
0
 10
-61.5612942070727
 11
-71.2043587232017
 20
-13.6476523967503
 21
-13.651886267718
 62
7
  0
LINE
  6
BYLAYER
  8
0
 10
-71.2043587232017
 11
-80.8567377554598
 20
-13.651886267718
 21
-13.651886267718
 62
7
  0
LINE
  6
BYLAYER
  8
0
 10
-80.8567377554598
 11
-90.2144393683631
 20
-13.651886267718
 21
-13.6569669128791
 62
7
  0
LINE
  6
BYLAYER
  8
0
 10
-90.2144393683631
 11
-98.9844796909437
 20
-13.6569669128791
 21
-13.6569669128791
 62
7
  0
LINE
  6
BYLAYER
  8
0
 10
-98.9844796909437
 11
-106.854399045782
 20
-13.6569669128791
 21
-13.6569669128791
 62
7
  0
LINE
  6
BYLAYER
  8
0
 10
-106.854399045782
 11
-113.533753884492
 20
-13.6569669128791
 21
-13.651886267718
 62
7
  0
LINE
  6
BYLAYER
  8
0
 10
-113.533753884492
 11
-118.715927271589
 20
-13.651886267718
 21
-13.6425717515889
 62
7
  0
LINE
  6
BYLAYER
  8
0
 10
-118.715927271589
 11
-122.106241787718
 20
-13.6425717515889
 21
-13.6332572354598
 62
7
  0
LINE
  6
BYLAYER
  8
0
 10
-122.106241787718
 11
-123.392576465137
 20
-13.6332572354598
 21
-13.6205556225567
 62
7
  0
LINE
  6
BYLAYER
  8
0
 10
-123.392576465137
 11
-123.916390981266
 20
-13.6205556225567
 21
-13.3394265902985
 62
7
  0
LINE
  6
BYLAYER
  8
0
 10
-123.916390981266
 11
-124.054076465137
 20
-13.3394265902985
 21
-13.0591443322341
 62
7
  0
LINE
  6
BYLAYER
  8
0
 10
-91.316939368363
 11
-51.4321813038469
 20
45.4410976032499
 21
45.4410976032499
 62
7
  0
LINE
  6
BYLAYER
  8
0
 10
-51.4321813038469
 11
-51.4321813038469
 20
45.4410976032499
 21
5.20662179679815
 62
7
  0
LINE
  6
BYLAYER
  8
0
 10
-51.4321813038469
 11
-91.316939368363
 20
5.20662179679815
 21
5.20662179679815
 62
7
  0
LINE
  6
BYLAYER
  8
0
 10
-91.316939368363
 11
-91.316939368363
 20
5.20662179679815
 21
45.4410976032499
 62
7
  0
LINE
  6
BYLAYER
  8
0
 10
-91.316939368363
 11
-91.316939368363
 20
45.4410976032499
 21
45.4410976032499
 62
7
  0
LINE
  6
BYLAYER
  8
0
 10
-123.259463561911
 11
-124.054076465137
 20
3.26327502260463
 21
3.92460566776597
 62
7
  0
LINE
  6
BYLAYER
  8
0
 10
-124.054076465137
 11
-124.040358723202
 20
3.92460566776597
 21
46.8746863129271
 62
7
  0
LINE
  6
BYLAYER
  8
0
 10
-124.040358723202
 11
-123.259463561911
 20
46.8746863129271
 21
47.3979927645402
 62
7
  0
LINE
  6
BYLAYER
  8
0
 10
-123.259463561911
 11
-19.733189368363
 20
47.3979927645402
 21
47.4259363129272
 62
7
  0
LINE
  6
BYLAYER
  8
0
 10
-19.733189368363
 11
-18.8686329167502
 20
47.4259363129272
 21
46.8103314742175
 62
7
  0
LINE
  6
BYLAYER
  8
0
 10
-18.8686329167502
 11
-18.8686329167502
 20
46.8103314742175
 21
4.05839599034655
 62
7
  0
LINE
  6
BYLAYER
  8
0
 10
-18.8686329167502
 11
-19.7094796909437
 20
4.05839599034655
 21
3.43771050647567
 62
7
  0
LINE
  6
BYLAYER
  8
0
 10
-19.7094796909437
 11
-123.259463561911
 20
3.43771050647567
 21
3.26327502260463
 62
7
  0
LINE
  6
BYLAYER
  8
0
 10
-123.259463561911
 11
-123.259463561911
 20
3.26327502260463
 21
3.26327502260463
 62
7
  0
LINE
  6
BYLAYER
  8
0
 10
-123.002128884492
 11
-123.709608723202
 20
79.4509363129272
 21
79.1613395387338
 62
7
  0
LINE
  6
BYLAYER
  8
0
 10
-123.709608723202
 11
-124.003608723202
 20
79.1613395387338
 21
78.4542830871208
 62
7
  0
LINE
  6
BYLAYER
  8
0
 10
-124.003608723202
 11
-124.003608723202
 20
78.4542830871208
 21
-27.5991040096534
 62
7
  0
LINE
  6
BYLAYER
  8
0
 10
-124.003608723202
 11
-123.608503884492
 20
-27.5991040096534
 21
-28.4357169128793
 62
7
  0
LINE
  6
BYLAYER
  8
0
 10
-123.608503884492
 11
-123.172076465137
 20
-28.4357169128793
 21
-28.5601927193308
 62
7
  0
LINE
  6
BYLAYER
  8
0
 10
-123.172076465137
 11
-19.8661329167502
 20
-28.5601927193308
 21
-28.6152330419115
 62
7
  0
LINE
  6
BYLAYER
  8
0
 10
-19.8661329167502
 11
-19.1311329167502
 20
-28.6152330419115
 21
-28.3298701386857
 62
7
  0
LINE
  6
BYLAYER
  8
0
 10
-19.1311329167502
 11
-18.8085119490082
 20
-28.3298701386857
 21
-27.635515299976
 62
7
  0
LINE
  6
BYLAYER
  8
0
 10
-18.8085119490082
 11
-18.8085119490082
 20
-27.635515299976
 21
78.4170250226047
 62
7
  0
LINE
  6
BYLAYER
  8
0
 10
-18.8085119490082
 11
-19.1023425941696
 20
78.4170250226047
 21
79.124928248411
 62
7
  0
LINE
  6
BYLAYER
  8
0
 10
-19.1023425941696
 11
-19.810245819976
 20
79.124928248411
 21
79.4145250226046
 62
7
  0
LINE
  6
BYLAYER
  8
0
 10
-19.810245819976
 11
-123.172076465137
 20
79.4145250226046
 21
79.4416217967983
 62
7
  0
LINE
  6
BYLAYER
  8
0
 10
-123.172076465137
 11
-123.002128884492
 20
79.4416217967983
 21
79.4509363129272
 62
7
  0
LINE
  6
BYLAYER
  8
0
 10
-123.002128884492
 11
-123.002128884492
 20
79.4509363129272
 21
79.4509363129272
 62
7
  0
LINE
  6
BYLAYER
  8
0
 10
124.79667765317
 11
118.378129266073
 20
-114.018337880621
 21
-112.300233041912
 62
7
  0
LINE
  6
BYLAYER
  8
0
 10
118.378129266073
 11
118.452645395105
 20
-112.300233041912
 21
-112.300233041912
 62
7
  0
LINE
  6
BYLAYER
  8
0
 10
118.452645395105
 11
124.873734104783
 20
-112.300233041912
 21
-110.582128203202
 62
7
  0
LINE
  6
BYLAYER
  8
0
 10
124.873734104783
 11
124.024419588654
 20
-110.582128203202
 21
-111.04954755804
 62
7
  0
LINE
  6
BYLAYER
  8
0
 10
124.024419588654
 11
123.179338943493
 20
-111.04954755804
 21
-112.400999170944
 62
7
  0
LINE
  6
BYLAYER
  8
0
 10
123.179338943493
 11
123.988008298331
 20
-112.400999170944
 21
-113.649991106428
 62
7
  0
LINE
  6
BYLAYER
  8
0
 10
123.988008298331
 11
124.79667765317
 20
-113.649991106428
 21
-114.018337880621
 62
7
  0
LINE
  6
BYLAYER
  8
0
 10
124.79667765317
 11
124.79667765317
 20
-114.018337880621
 21
-114.018337880621
 62
7
  0
LINE
  6
BYLAYER
  8
0
 10
124.79667765317
 11
118.378129266073
 20
-114.018337880621
 21
-112.300233041912
 62
7
  0
LINE
  6
BYLAYER
  8
0
 10
118.378129266073
 11
118.452645395105
 20
-112.300233041912
 21
-112.300233041912
 62
7
  0
LINE
  6
BYLAYER
  8
0
 10
118.452645395105
 11
124.873734104783
 20
-112.300233041912
 21
-110.582128203202
 62
7
  0
LINE
  6
BYLAYER
  8
0
 10
124.873734104783
 11
124.024419588654
 20
-110.582128203202
 21
-111.04954755804
 62
7
  0
LINE
  6
BYLAYER
  8
0
 10
124.024419588654
 11
123.179338943493
 20
-111.04954755804
 21
-112.400999170944
 62
7
  0
LINE
  6
BYLAYER
  8
0
 10
123.179338943493
 11
123.988008298331
 20
-112.400999170944
 21
-113.649991106428
 62
7
  0
LINE
  6
BYLAYER
  8
0
 10
123.988008298331
 11
124.79667765317
 20
-113.649991106428
 21
-114.018337880621
 62
7
  0
LINE
  6
BYLAYER
  8
0
 10
124.79667765317
 11
124.79667765317
 20
-114.018337880621
 21
-114.018337880621
 62
7
  0
LINE
  6
BYLAYER
  8
0
 10
47.17542765317
 11
53.5982099112345
 20
-110.489829816105
 21
-112.213015299976
 62
7
  0
LINE
  6
BYLAYER
  8
0
 10
53.5982099112345
 11
53.5245405563959
 20
-112.213015299976
 21
-112.213015299976
 62
7
  0
LINE
  6
BYLAYER
  8
0
 10
53.5245405563959
 11
47.1059921692991
 20
-112.213015299976
 21
-113.930273364492
 62
7
  0
LINE
  6
BYLAYER
  8
0
 10
47.1059921692991
 11
47.9468389434926
 20
-113.930273364492
 21
-113.456926590299
 62
7
  0
LINE
  6
BYLAYER
  8
0
 10
47.9468389434926
 11
48.7927663628474
 20
-113.456926590299
 21
-112.107168525782
 62
7
  0
LINE
  6
BYLAYER
  8
0
 10
48.7927663628474
 11
47.9840970080087
 20
-112.107168525782
 21
-110.857329816105
 62
7
  0
LINE
  6
BYLAYER
  8
0
 10
47.9840970080087
 11
47.17542765317
 20
-110.857329816105
 21
-110.489829816105
 62
7
  0
LINE
  6
BYLAYER
  8
0
 10
47.17542765317
 11
47.17542765317
 20
-110.489829816105
 21
-110.489829816105
 62
7
  0
LINE
  6
BYLAYER
  8
0
 10
47.17542765317
 11
53.5982099112345
 20
-110.489829816105
 21
-112.213015299976
 62
7
  0
LINE
  6
BYLAYER
  8
0
 10
53.5982099112345
 11
53.5245405563959
 20
-112.213015299976
 21
-112.213015299976
 62
7
  0
LINE
  6
BYLAYER
  8
0
 10
53.5245405563959
 11
47.1059921692991
 20
-112.213015299976
 21
-113.930273364492
 62
7
  0
LINE
  6
BYLAYER
  8
0
 10
47.1059921692991
 11
47.9468389434926
 20
-113.930273364492
 21
-113.456926590299
 62
7
  0
LINE
  6
BYLAYER
  8
0
 10
47.9468389434926
 11
48.7927663628474
 20
-113.456926590299
 21
-112.107168525782
 62
7
  0
LINE
  6
BYLAYER
  8
0
 10
48.7927663628474
 11
47.9840970080087
 20
-112.107168525782
 21
-110.857329816105
 62
7
  0
LINE
  6
BYLAYER
  8
0
 10
47.9840970080087
 11
47.17542765317
 20
-110.857329816105
 21
-110.489829816105
 62
7
  0
LINE
  6
BYLAYER
  8
0
 10
47.17542765317
 11
47.17542765317
 20
-110.489829816105
 21
-110.489829816105
 62
7
  0
LINE
  6
BYLAYER
  8
0
 10
54.7278066854281
 11
61.1455082983312
 20
-77.2657975580405
 21
-78.9889830419114
 62
7
  0
LINE
  6
BYLAYER
  8
0
 10
61.1455082983312
 11
61.0718389434926
 20
-78.9889830419114
 21
-78.9889830419114
 62
7
  0
LINE
  6
BYLAYER
  8
0
 10
61.0718389434926
 11
54.6507502338152
 20
-78.9889830419114
 21
-80.7062411064276
 62
7
  0
LINE
  6
BYLAYER
  8
0
 10
54.6507502338152
 11
55.494984104783
 20
-80.7062411064276
 21
-80.2328943322341
 62
7
  0
LINE
  6
BYLAYER
  8
0
 10
55.494984104783
 11
56.3451453951056
 20
-80.2328943322341
 21
-78.883136267718
 62
7
  0
LINE
  6
BYLAYER
  8
0
 10
56.3451453951056
 11
55.5356292660732
 20
-78.883136267718
 21
-77.6332975580405
 62
7
  0
LINE
  6
BYLAYER
  8
0
 10
55.5356292660732
 11
54.7278066854281
 20
-77.6332975580405
 21
-77.2657975580405
 62
7
  0
LINE
  6
BYLAYER
  8
0
 10
54.7278066854281
 11
54.7278066854281
 20
-77.2657975580405
 21
-77.2657975580405
 62
7
  0
LINE
  6
BYLAYER
  8
0
 10
54.7278066854281
 11
61.1455082983312
 20
-77.2657975580405
 21
-78.9889830419114
 62
7
  0
LINE
  6
BYLAYER
  8
0
 10
61.1455082983312
 11
61.0718389434926
 20
-78.9889830419114
 21
-78.9889830419114
 62
7
  0
LINE
  6
BYLAYER
  8
0
 10
61.0718389434926
 11
54.6507502338152
 20
-78.9889830419114
 21
-80.7062411064276
 62
7
  0
LINE
  6
BYLAYER
  8
0
 10
54.6507502338152
 11
55.494984104783
 20
-80.7062411064276
 21
-80.2328943322341
 62
7
  0
LINE
  6
BYLAYER
  8
0
 10
55.494984104783
 11
56.3451453951056
 20
-80.2328943322341
 21
-78.883136267718
 62
7
  0
LINE
  6
BYLAYER
  8
0
 10
56.3451453951056
 11
55.5356292660732
 20
-78.883136267718
 21
-77.6332975580405
 62
7
  0
LINE
  6
BYLAYER
  8
0
 10
55.5356292660732
 11
54.7278066854281
 20
-77.6332975580405
 21
-77.2657975580405
 62
7
  0
LINE
  6
BYLAYER
  8
0
 10
54.7278066854281
 11
54.7278066854281
 20
-77.2657975580405
 21
-77.2657975580405
 62
7
  0
LINE
  6
BYLAYER
  8
0
 10
110.784258298331
 11
104.36232281446
 20
-80.6977733644921
 21
-78.9796685257825
 62
7
  0
LINE
  6
BYLAYER
  8
0
 10
104.36232281446
 11
104.439379266073
 20
-78.9796685257825
 21
-78.9796685257825
 62
7
  0
LINE
  6
BYLAYER
  8
0
 10
104.439379266073
 11
110.858774427364
 20
-78.9796685257825
 21
-77.2564830419115
 62
7
  0
LINE
  6
BYLAYER
  8
0
 10
110.858774427364
 11
110.012847008009
 20
-77.2564830419115
 21
-77.7247491709437
 62
7
  0
LINE
  6
BYLAYER
  8
0
 10
110.012847008009
 11
109.167766362847
 20
-77.7247491709437
 21
-79.0804346548147
 62
7
  0
LINE
  6
BYLAYER
  8
0
 10
109.167766362847
 11
109.976435717686
 20
-79.0804346548147
 21
-80.3294265902985
 62
7
  0
LINE
  6
BYLAYER
  8
0
 10
109.976435717686
 11
110.784258298331
 20
-80.3294265902985
 21
-80.6977733644921
 62
7
  0
LINE
  6
BYLAYER
  8
0
 10
110.784258298331
 11
110.784258298331
 20
-80.6977733644921
 21
-80.6977733644921
 62
7
  0
LINE
  6
BYLAYER
  8
0
 10
110.784258298331
 11
104.36232281446
 20
-80.6977733644921
 21
-78.9796685257825
 62
7
  0
LINE
  6
BYLAYER
  8
0
 10
104.36232281446
 11
104.439379266073
 20
-78.9796685257825
 21
-78.9796685257825
 62
7
  0
LINE
  6
BYLAYER
  8
0
 10
104.439379266073
 11
110.858774427364
 20
-78.9796685257825
 21
-77.2564830419115
 62
7
  0
LINE
  6
BYLAYER
  8
0
 10
110.858774427364
 11
110.012847008009
 20
-77.2564830419115
 21
-77.7247491709437
 62
7
  0
LINE
  6
BYLAYER
  8
0
 10
110.012847008009
 11
109.167766362847
 20
-77.7247491709437
 21
-79.0804346548147
 62
7
  0
LINE
  6
BYLAYER
  8
0
 10
109.167766362847
 11
109.976435717686
 20
-79.0804346548147
 21
-80.3294265902985
 62
7
  0
LINE
  6
BYLAYER
  8
0
 10
109.976435717686
 11
110.784258298331
 20
-80.3294265902985
 21
-80.6977733644921
 62
7
  0
LINE
  6
BYLAYER
  8
0
 10
110.784258298331
 11
110.784258298331
 20
-80.6977733644921
 21
-80.6977733644921
 62
7
  0
LINE
  6
BYLAYER
  8
0
 10
166.546879266073
 11
168.270064749944
 20
-3.37035400965337
 21
3.0515814742175
 62
7
  0
LINE
  6
BYLAYER
  8
0
 10
168.270064749944
 11
168.270064749944
 20
3.0515814742175
 21
2.97875889357229
 62
7
  0
LINE
  6
BYLAYER
  8
0
 10
168.270064749944
 11
169.992403459622
 20
2.97875889357229
 21
-3.44402336449221
 62
7
  0
LINE
  6
BYLAYER
  8
0
 10
169.992403459622
 11
169.519056685428
 20
-3.44402336449221
 21
-2.59809594513737
 62
7
  0
LINE
  6
BYLAYER
  8
0
 10
169.519056685428
 11
168.164217975751
 20
-2.59809594513737
 21
-1.75386207416963
 62
7
  0
LINE
  6
BYLAYER
  8
0
 10
168.164217975751
 11
166.915226040267
 20
-1.75386207416963
 21
-2.56168465481468
 62
7
  0
LINE
  6
BYLAYER
  8
0
 10
166.915226040267
 11
166.546879266073
 20
-2.56168465481468
 21
-3.37035400965337
 62
7
  0
LINE
  6
BYLAYER
  8
0
 10
166.546879266073
 11
166.546879266073
 20
-3.37035400965337
 21
-3.37035400965337
 62
7
  0
LINE
  6
BYLAYER
  8
0
 10
166.546879266073
 11
168.270064749944
 20
-3.37035400965337
 21
3.0515814742175
 62
7
  0
LINE
  6
BYLAYER
  8
0
 10
168.270064749944
 11
168.270064749944
 20
3.0515814742175
 21
2.97875889357229
 62
7
  0
LINE
  6
BYLAYER
  8
0
 10
168.270064749944
 11
169.992403459622
 20
2.97875889357229
 21
-3.44402336449221
 62
7
  0
LINE
  6
BYLAYER
  8
0
 10
169.992403459622
 11
169.519056685428
 20
-3.44402336449221
 21
-2.59809594513737
 62
7
  0
LINE
  6
BYLAYER
  8
0
 10
169.519056685428
 11
168.164217975751
 20
-2.59809594513737
 21
-1.75386207416963
 62
7
  0
LINE
  6
BYLAYER
  8
0
 10
168.164217975751
 11
166.915226040267
 20
-1.75386207416963
 21
-2.56168465481468
 62
7
  0
LINE
  6
BYLAYER
  8
0
 10
166.915226040267
 11
166.546879266073
 20
-2.56168465481468
 21
-3.37035400965337
 62
7
  0
LINE
  6
BYLAYER
  8
0
 10
166.546879266073
 11
166.546879266073
 20
-3.37035400965337
 21
-3.37035400965337
 62
7
  0
LINE
  6
BYLAYER
  8
0
 10
169.983088943493
 11
168.260750233815
 20
54.3533959903465
 21
47.9356943774434
 62
7
  0
LINE
  6
BYLAYER
  8
0
 10
168.260750233815
 11
168.260750233815
 20
47.9356943774434
 21
48.0093637322821
 62
7
  0
LINE
  6
BYLAYER
  8
0
 10
168.260750233815
 11
166.537564749944
 20
48.0093637322821
 21
54.4270653451852
 62
7
  0
LINE
  6
BYLAYER
  8
0
 10
166.537564749944
 11
167.011758298331
 20
54.4270653451852
 21
53.581984700024
 62
7
  0
LINE
  6
BYLAYER
  8
0
 10
167.011758298331
 11
168.366597008009
 20
53.581984700024
 21
52.7360572806692
 62
7
  0
LINE
  6
BYLAYER
  8
0
 10
168.366597008009
 11
169.615588943493
 20
52.7360572806692
 21
53.5455734097014
 62
7
  0
LINE
  6
BYLAYER
  8
0
 10
169.615588943493
 11
169.983088943493
 20
53.5455734097014
 21
54.3533959903465
 62
7
  0
LINE
  6
BYLAYER
  8
0
 10
169.983088943493
 11
169.983088943493
 20
54.3533959903465
 21
54.3533959903465
 62
7
  0
LINE
  6
BYLAYER
  8
0
 10
169.983088943493
 11
168.260750233815
 20
54.3533959903465
 21
47.9356943774434
 62
7
  0
LINE
  6
BYLAYER
  8
0
 10
168.260750233815
 11
168.260750233815
 20
47.9356943774434
 21
48.0093637322821
 62
7
  0
LINE
  6
BYLAYER
  8
0
 10
168.260750233815
 11
166.537564749944
 20
48.0093637322821
 21
54.4270653451852
 62
7
  0
LINE
  6
BYLAYER
  8
0
 10
166.537564749944
 11
167.011758298331
 20
54.4270653451852
 21
53.581984700024
 62
7
  0
LINE
  6
BYLAYER
  8
0
 10
167.011758298331
 11
168.366597008009
 20
53.581984700024
 21
52.7360572806692
 62
7
  0
LINE
  6
BYLAYER
  8
0
 10
168.366597008009
 11
169.615588943493
 20
52.7360572806692
 21
53.5455734097014
 62
7
  0
LINE
  6
BYLAYER
  8
0
 10
169.615588943493
 11
169.983088943493
 20
53.5455734097014
 21
54.3533959903465
 62
7
  0
LINE
  6
BYLAYER
  8
0
 10
169.983088943493
 11
169.983088943493
 20
54.3533959903465
 21
54.3533959903465
 62
7
  0
LINE
  6
BYLAYER
  8
0
 10
-172.507596626428
 11
-174.225701465137
 20
-21.9900717515889
 21
-28.4128540096534
 62
7
  0
LINE
  6
BYLAYER
  8
0
 10
-174.225701465137
 11
-174.225701465137
 20
-28.4128540096534
 21
-28.3391846548148
 62
7
  0
LINE
  6
BYLAYER
  8
0
 10
-174.225701465137
 11
-175.948463561911
 20
-28.3391846548148
 21
-21.9164023967503
 62
7
  0
LINE
  6
BYLAYER
  8
0
 10
-175.948463561911
 11
-175.479858723202
 20
-21.9164023967503
 21
-22.7614830419114
 62
7
  0
LINE
  6
BYLAYER
  8
0
 10
-175.479858723202
 11
-174.124681303847
 20
-22.7614830419114
 21
-23.6074104612663
 62
7
  0
LINE
  6
BYLAYER
  8
0
 10
-174.124681303847
 11
-172.875096626428
 20
-23.6074104612663
 21
-22.7987411064276
 62
7
  0
LINE
  6
BYLAYER
  8
0
 10
-172.875096626428
 11
-172.507596626428
 20
-22.7987411064276
 21
-21.9900717515889
 62
7
  0
LINE
  6
BYLAYER
  8
0
 10
-172.507596626428
 11
-172.507596626428
 20
-21.9900717515889
 21
-21.9900717515889
 62
7
  0
LINE
  6
BYLAYER
  8
0
 10
-172.507596626428
 11
-174.225701465137
 20
-21.9900717515889
 21
-28.4128540096534
 62
7
  0
LINE
  6
BYLAYER
  8
0
 10
-174.225701465137
 11
-174.225701465137
 20
-28.4128540096534
 21
-28.3391846548148
 62
7
  0
LINE
  6
BYLAYER
  8
0
 10
-174.225701465137
 11
-175.948463561911
 20
-28.3391846548148
 21
-21.9164023967503
 62
7
  0
LINE
  6
BYLAYER
  8
0
 10
-175.948463561911
 11
-175.479858723202
 20
-21.9164023967503
 21
-22.7614830419114
 62
7
  0
LINE
  6
BYLAYER
  8
0
 10
-175.479858723202
 11
-174.124681303847
 20
-22.7614830419114
 21
-23.6074104612663
 62
7
  0
LINE
  6
BYLAYER
  8
0
 10
-174.124681303847
 11
-172.875096626428
 20
-23.6074104612663
 21
-22.7987411064276
 62
7
  0
LINE
  6
BYLAYER
  8
0
 10
-172.875096626428
 11
-172.507596626428
 20
-22.7987411064276
 21
-21.9900717515889
 62
7
  0
LINE
  6
BYLAYER
  8
0
 10
-172.507596626428
 11
-172.507596626428
 20
-21.9900717515889
 21
-21.9900717515889
 62
7
  0
LINE
  6
BYLAYER
  8
0
 10
-175.934661142557
 11
-174.216556303847
 20
72.9773476032499
 21
79.3958959903466
 62
7
  0
LINE
  6
BYLAYER
  8
0
 10
-174.216556303847
 11
-174.216556303847
 20
79.3958959903466
 21
79.3222266355079
 62
7
  0
LINE
  6
BYLAYER
  8
0
 10
-174.216556303847
 11
-172.493709529653
 20
79.3222266355079
 21
72.9045250226046
 62
7
  0
LINE
  6
BYLAYER
  8
0
 10
-172.493709529653
 11
-172.966971626428
 20
72.9045250226046
 21
73.7504524419595
 62
7
  0
LINE
  6
BYLAYER
  8
0
 10
-172.966971626428
 11
-174.317576465137
 20
73.7504524419595
 21
74.5946863129273
 62
7
  0
LINE
  6
BYLAYER
  8
0
 10
-174.317576465137
 11
-175.567161142557
 20
74.5946863129273
 21
73.786863732282
 62
7
  0
LINE
  6
BYLAYER
  8
0
 10
-175.567161142557
 11
-175.934661142557
 20
73.786863732282
 21
72.9773476032499
 62
7
  0
LINE
  6
BYLAYER
  8
0
 10
-175.934661142557
 11
-175.934661142557
 20
72.9773476032499
 21
72.9773476032499
 62
7
  0
LINE
  6
BYLAYER
  8
0
 10
-175.934661142557
 11
-174.216556303847
 20
72.9773476032499
 21
79.3958959903466
 62
7
  0
LINE
  6
BYLAYER
  8
0
 10
-174.216556303847
 11
-174.216556303847
 20
79.3958959903466
 21
79.3222266355079
 62
7
  0
LINE
  6
BYLAYER
  8
0
 10
-174.216556303847
 11
-172.493709529653
 20
79.3222266355079
 21
72.9045250226046
 62
7
  0
LINE
  6
BYLAYER
  8
0
 10
-172.493709529653
 11
-172.966971626428
 20
72.9045250226046
 21
73.7504524419595
 62
7
  0
LINE
  6
BYLAYER
  8
0
 10
-172.966971626428
 11
-174.317576465137
 20
73.7504524419595
 21
74.5946863129273
 62
7
  0
LINE
  6
BYLAYER
  8
0
 10
-174.317576465137
 11
-175.567161142557
 20
74.5946863129273
 21
73.786863732282
 62
7
  0
LINE
  6
BYLAYER
  8
0
 10
-175.567161142557
 11
-175.934661142557
 20
73.786863732282
 21
72.9773476032499
 62
7
  0
LINE
  6
BYLAYER
  8
0
 10
-175.934661142557
 11
-175.934661142557
 20
72.9773476032499
 21
72.9773476032499
 62
7
  0
LINE
  6
BYLAYER
  8
0
 10
-117.62248775546
 11
-124.044931303847
 20
-80.6740636870728
 21
-78.9508782032019
 62
7
  0
LINE
  6
BYLAYER
  8
0
 10
-124.044931303847
 11
-123.971431303847
 20
-78.9508782032019
 21
-78.9508782032019
 62
7
  0
LINE
  6
BYLAYER
  8
0
 10
-123.971431303847
 11
-117.54898775546
 20
-78.9508782032019
 21
-77.2327733644921
 62
7
  0
LINE
  6
BYLAYER
  8
0
 10
-117.54898775546
 11
-118.39423775546
 20
-77.2327733644921
 21
-77.7018862677179
 62
7
  0
LINE
  6
BYLAYER
  8
0
 10
-118.39423775546
 11
-119.239572432879
 20
-77.7018862677179
 21
-79.0567249773953
 62
7
  0
LINE
  6
BYLAYER
  8
0
 10
-119.239572432879
 11
-118.431072432879
 20
-79.0567249773953
 21
-80.3074104612663
 62
7
  0
LINE
  6
BYLAYER
  8
0
 10
-118.431072432879
 11
-117.62248775546
 20
-80.3074104612663
 21
-80.6740636870728
 62
7
  0
LINE
  6
BYLAYER
  8
0
 10
-117.62248775546
 11
-117.62248775546
 20
-80.6740636870728
 21
-80.6740636870728
 62
7
  0
LINE
  6
BYLAYER
  8
0
 10
-117.62248775546
 11
-124.044931303847
 20
-80.6740636870728
 21
-78.9508782032019
 62
7
  0
LINE
  6
BYLAYER
  8
0
 10
-124.044931303847
 11
-123.971431303847
 20
-78.9508782032019
 21
-78.9508782032019
 62
7
  0
LINE
  6
BYLAYER
  8
0
 10
-123.971431303847
 11
-117.54898775546
 20
-78.9508782032019
 21
-77.2327733644921
 62
7
  0
LINE
  6
BYLAYER
  8
0
 10
-117.54898775546
 11
-118.39423775546
 20
-77.2327733644921
 21
-77.7018862677179
 62
7
  0
LINE
  6
BYLAYER
  8
0
 10
-118.39423775546
 11
-119.239572432879
 20
-77.7018862677179
 21
-79.0567249773953
 62
7
  0
LINE
  6
BYLAYER
  8
0
 10
-119.239572432879
 11
-118.431072432879
 20
-79.0567249773953
 21
-80.3074104612663
 62
7
  0
LINE
  6
BYLAYER
  8
0
 10
-118.431072432879
 11
-117.62248775546
 20
-80.3074104612663
 21
-80.6740636870728
 62
7
  0
LINE
  6
BYLAYER
  8
0
 10
-117.62248775546
 11
-117.62248775546
 20
-80.6740636870728
 21
-80.6740636870728
 62
7
  0
LINE
  6
BYLAYER
  8
0
 10
-25.2770200135243
 11
-18.855931303847
 20
-77.169265299976
 21
-78.892450783847
 62
7
  0
LINE
  6
BYLAYER
  8
0
 10
-18.855931303847
 11
-18.928753884492
 20
-78.892450783847
 21
-78.892450783847
 62
7
  0
LINE
  6
BYLAYER
  8
0
 10
-18.928753884492
 11
-25.3515361425566
 20
-78.892450783847
 21
-80.6097088483632
 62
7
  0
LINE
  6
BYLAYER
  8
0
 10
-25.3515361425566
 11
-24.5056087232018
 20
-80.6097088483632
 21
-80.1363620741696
 62
7
  0
LINE
  6
BYLAYER
  8
0
 10
-24.5056087232018
 11
-23.6596813038469
 20
-80.1363620741696
 21
-78.7866040096534
 62
7
  0
LINE
  6
BYLAYER
  8
0
 10
-23.6596813038469
 11
-24.4691974328792
 20
-78.7866040096534
 21
-77.5367652999761
 62
7
  0
LINE
  6
BYLAYER
  8
0
 10
-24.4691974328792
 11
-25.2770200135243
 20
-77.5367652999761
 21
-77.169265299976
 62
7
  0
LINE
  6
BYLAYER
  8
0
 10
-25.2770200135243
 11
-25.2770200135243
 20
-77.169265299976
 21
-77.169265299976
 62
7
  0
LINE
  6
BYLAYER
  8
0
 10
-25.2770200135243
 11
-18.855931303847
 20
-77.169265299976
 21
-78.892450783847
 62
7
  0
LINE
  6
BYLAYER
  8
0
 10
-18.855931303847
 11
-18.928753884492
 20
-78.892450783847
 21
-78.892450783847
 62
7
  0
LINE
  6
BYLAYER
  8
0
 10
-18.928753884492
 11
-25.3515361425566
 20
-78.892450783847
 21
-80.6097088483632
 62
7
  0
LINE
  6
BYLAYER
  8
0
 10
-25.3515361425566
 11
-24.5056087232018
 20
-80.6097088483632
 21
-80.1363620741696
 62
7
  0
LINE
  6
BYLAYER
  8
0
 10
-24.5056087232018
 11
-23.6596813038469
 20
-80.1363620741696
 21
-78.7866040096534
 62
7
  0
LINE
  6
BYLAYER
  8
0
 10
-23.6596813038469
 11
-24.4691974328792
 20
-78.7866040096534
 21
-77.5367652999761
 62
7
  0
LINE
  6
BYLAYER
  8
0
 10
-24.4691974328792
 11
-25.2770200135243
 20
-77.5367652999761
 21
-77.169265299976
 62
7
  0
LINE
  6
BYLAYER
  8
0
 10
-25.2770200135243
 11
-25.2770200135243
 20
-77.169265299976
 21
-77.169265299976
 62
7
  0
LINE
  6
BYLAYER
  8
0
 10
-179.16425791675
 11
-180.009677271589
 20
34.7835976032498
 21
32.7428717967983
 62
7
  0
LINE
  6
BYLAYER
  8
0
 10
-180.009677271589
 11
-182.122802271589
 20
32.7428717967983
 21
32.0078717967982
 62
7
  0
LINE
  6
BYLAYER
  8
0
 10
-182.122802271589
 11
-184.254471626428
 20
32.0078717967982
 21
32.8173879258304
 62
7
  0
LINE
  6
BYLAYER
  8
0
 10
-184.254471626428
 11
-184.971181303847
 20
32.8173879258304
 21
34.691299216153
 62
7
  0
LINE
  6
BYLAYER
  8
0
 10
-184.971181303847
 11
-184.052431303847
 20
34.691299216153
 21
36.8040008290562
 62
7
  0
LINE
  6
BYLAYER
  8
0
 10
-184.052431303847
 11
-182.122802271589
 20
36.8040008290562
 21
37.3747266355078
 62
7
  0
LINE
  6
BYLAYER
  8
0
 10
-182.122802271589
 11
-180.046342594169
 20
37.3747266355078
 21
36.7498072806692
 62
7
  0
LINE
  6
BYLAYER
  8
0
 10
-180.046342594169
 11
-179.16425791675
 20
36.7498072806692
 21
34.7835976032498
 62
7
  0
LINE
  6
BYLAYER
  8
0
 10
-179.16425791675
 11
-179.16425791675
 20
34.7835976032498
 21
34.7835976032498
 62
7
  0
LINE
  6
BYLAYER
  8
0
 10
-191.292579287718
 11
-190.470259932879
 20
34.8928314742175
 21
32.3160976032497
 62
7
  0
LINE
  6
BYLAYER
  8
0
 10
-190.470259932879
 11
-188.003225658686
 20
32.3160976032497
 21
30.6852105064756
 62
7
  0
LINE
  6
BYLAYER
  8
0
 10
-188.003225658686
 11
-183.831846626428
 20
30.6852105064756
 21
30.078920183895
 62
7
  0
LINE
  6
BYLAYER
  8
0
 10
-183.831846626428
 11
-180.983552271589
 20
30.078920183895
 21
30.4193234097014
 62
7
  0
LINE
  6
BYLAYER
  8
0
 10
-180.983552271589
 11
-179.10913291675
 20
30.4193234097014
 21
31.4202105064756
 62
7
  0
LINE
  6
BYLAYER
  8
0
 10
-179.10913291675
 11
-177.675798239331
 20
31.4202105064756
 21
34.6362588935723
 62
7
  0
LINE
  6
BYLAYER
  8
0
 10
-177.675798239331
 11
-178.029580497395
 20
34.6362588935723
 21
36.5567427645402
 62
7
  0
LINE
  6
BYLAYER
  8
0
 10
-178.029580497395
 11
-179.072467594169
 20
36.5567427645402
 21
37.9623879258304
 62
7
  0
LINE
  6
BYLAYER
  8
0
 10
-179.072467594169
 11
-182.251511949008
 20
37.9623879258304
 21
39.1385572806691
 62
7
  0
LINE
  6
BYLAYER
  8
0
 10
-182.251511949008
 11
-184.102814368363
 20
39.1385572806691
 21
38.8252508290563
 62
7
  0
LINE
  6
BYLAYER
  8
0
 10
-184.102814368363
 11
-185.430556303847
 20
38.8252508290563
 21
37.8887185709918
 62
7
  0
LINE
  6
BYLAYER
  8
0
 10
-185.430556303847
 11
-186.478015981266
 20
37.8887185709918
 21
35.0037588935724
 62
7
  0
LINE
  6
BYLAYER
  8
0
 10
-186.478015981266
 11
-186.110515981266
 20
35.0037588935724
 21
33.2390814742175
 62
7
  0
LINE
  6
BYLAYER
  8
0
 10
-186.110515981266
 11
-184.860931303847
 20
33.2390814742175
 21
31.7877105064756
 62
7
  0
LINE
  6
BYLAYER
  8
0
 10
-184.860931303847
 11
-188.554534932879
 20
31.7877105064756
 21
32.7064605064757
 62
7
  0
LINE
  6
BYLAYER
  8
0
 10
-188.554534932879
 11
-189.840869610298
 20
32.7064605064757
 21
34.9114605064755
 62
7
  0
LINE
  6
BYLAYER
  8
0
 10
-189.840869610298
 11
-189.013935336105
 20
34.9114605064755
 21
36.731178248411
 62
7
  0
LINE
  6
BYLAYER
  8
0
 10
-189.013935336105
 11
-187.782725658686
 20
36.731178248411
 21
37.1909766355079
 62
7
  0
LINE
  6
BYLAYER
  8
0
 10
-187.782725658686
 11
-187.782725658686
 20
37.1909766355079
 21
38.8625088935724
 62
7
  0
LINE
  6
BYLAYER
  8
0
 10
-187.782725658686
 11
-190.134886545782
 20
38.8625088935724
 21
37.9801701838949
 62
7
  0
LINE
  6
BYLAYER
  8
0
 10
-190.134886545782
 11
-191.003160336105
 20
37.9801701838949
 21
36.7675895387337
 62
7
  0
LINE
  6
BYLAYER
  8
0
 10
-191.003160336105
 11
-191.292579287718
 20
36.7675895387337
 21
34.8928314742175
 62
7
  0
LINE
  6
BYLAYER
  8
0
 10
-191.292579287718
 11
-191.292579287718
 20
34.8928314742175
 21
34.8928314742175
 62
7
  0
LINE
  6
BYLAYER
  8
0
 10
-179.201092594169
 11
-179.66961275546
 20
23.955049216153
 21
22.6086782484112
 62
7
  0
LINE
  6
BYLAYER
  8
0
 10
-179.66961275546
 11
-181.057052271589
 20
22.6086782484112
 21
21.7127911516369
 62
7
  0
LINE
  6
BYLAYER
  8
0
 10
-181.057052271589
 11
-184.309596626428
 20
21.7127911516369
 21
21.2716217967983
 62
7
  0
LINE
  6
BYLAYER
  8
0
 10
-184.309596626428
 11
-188.370810336105
 20
21.2716217967983
 21
21.9524282484111
 62
7
  0
LINE
  6
BYLAYER
  8
0
 10
-188.370810336105
 11
-189.748986142557
 20
21.9524282484111
 21
24.0837588935723
 62
7
  0
LINE
  6
BYLAYER
  8
0
 10
-189.748986142557
 11
-189.381460739331
 20
24.0837588935723
 21
25.4115008290563
 62
7
  0
LINE
  6
BYLAYER
  8
0
 10
-189.381460739331
 11
-188.297310336105
 20
25.4115008290563
 21
26.2159363129272
 62
7
  0
LINE
  6
BYLAYER
  8
0
 10
-188.297310336105
 11
-184.585306303847
 20
26.2159363129272
 21
26.7663395387337
 62
7
  0
LINE
  6
BYLAYER
  8
0
 10
-184.585306303847
 11
-181.966657110298
 20
26.7663395387337
 21
26.5825895387336
 62
7
  0
LINE
  6
BYLAYER
  8
0
 10
-181.966657110298
 11
-180.340342594169
 20
26.5825895387336
 21
26.0135572806692
 62
7
  0
LINE
  6
BYLAYER
  8
0
 10
-180.340342594169
 11
-179.201092594169
 20
26.0135572806692
 21
23.955049216153
 62
7
  0
LINE
  6
BYLAYER
  8
0
 10
-179.201092594169
 11
-179.201092594169
 20
23.955049216153
 21
23.955049216153
 62
7
  0
LINE
  6
BYLAYER
  8
0
 10
-191.255829287718
 11
-190.502411949008
 20
23.9914605064756
 21
21.5933959903466
 62
7
  0
LINE
  6
BYLAYER
  8
0
 10
-190.502411949008
 11
-188.260475658686
 20
21.5933959903466
 21
20.077670183895
 62
7
  0
LINE
  6
BYLAYER
  8
0
 10
-188.260475658686
 11
-184.383096626428
 20
20.077670183895
 21
19.4900088935724
 62
7
  0
LINE
  6
BYLAYER
  8
0
 10
-184.383096626428
 11
-179.733967594169
 20
19.4900088935724
 21
20.445170183895
 62
7
  0
LINE
  6
BYLAYER
  8
0
 10
-179.733967594169
 11
-178.19038291675
 20
20.445170183895
 21
21.9067024419595
 62
7
  0
LINE
  6
BYLAYER
  8
0
 10
-178.19038291675
 11
-177.675798239331
 20
21.9067024419595
 21
23.9728314742175
 62
7
  0
LINE
  6
BYLAYER
  8
0
 10
-177.675798239331
 11
-178.31900791675
 20
23.9728314742175
 21
26.2472669580884
 62
7
  0
LINE
  6
BYLAYER
  8
0
 10
-178.31900791675
 11
-180.211717594169
 20
26.2472669580884
 21
27.7773879258304
 62
7
  0
LINE
  6
BYLAYER
  8
0
 10
-180.211717594169
 11
-184.658806303847
 20
27.7773879258304
 21
28.5682750226046
 62
7
  0
LINE
  6
BYLAYER
  8
0
 10
-184.658806303847
 11
-189.142577271589
 20
28.5682750226046
 21
27.6859363129272
 62
7
  0
LINE
  6
BYLAYER
  8
0
 10
-189.142577271589
 11
-190.73210791675
 20
27.6859363129272
 21
26.1922266355079
 62
7
  0
LINE
  6
BYLAYER
  8
0
 10
-190.73210791675
 11
-191.255829287718
 20
26.1922266355079
 21
23.9914605064756
 62
7
  0
LINE
  6
BYLAYER
  8
0
 10
-191.255829287718
 11
-191.255829287718
 20
23.9914605064756
 21
23.9914605064756
 62
7
  0
LINE
  6
BYLAYER
  8
0
 10
-187.378475658686
 11
-178.04338291675
 20
13.3475088935724
 21
13.3475088935724
 62
7
  0
LINE
  6
BYLAYER
  8
0
 10
-178.04338291675
 11
-178.04338291675
 20
13.3475088935724
 21
15.1299685709917
 62
7
  0
LINE
  6
BYLAYER
  8
0
 10
-178.04338291675
 11
-191.182320819976
 20
15.1299685709917
 21
15.1299685709917
 62
7
  0
LINE
  6
BYLAYER
  8
0
 10
-191.182320819976
 11
-191.182320819976
 20
15.1299685709917
 21
13.8073072806692
 62
7
  0
LINE
  6
BYLAYER
  8
0
 10
-191.182320819976
 11
-189.234452271589
 20
13.8073072806692
 21
12.7412185709918
 62
7
  0
LINE
  6
BYLAYER
  8
0
 10
-189.234452271589
 11
-188.646409932879
 20
12.7412185709918
 21
10.260170183895
 62
7
  0
LINE
  6
BYLAYER
  8
0
 10
-188.646409932879
 11
-187.378475658686
 20
10.260170183895
 21
10.260170183895
 62
7
  0
LINE
  6
BYLAYER
  8
0
 10
-187.378475658686
 11
-187.378475658686
 20
10.260170183895
 21
13.3475088935724
 62
7
  0
LINE
  6
BYLAYER
  8
0
 10
-187.378475658686
 11
-187.378475658686
 20
13.3475088935724
 21
13.3475088935724
 62
7
  0
LINE
  6
BYLAYER
  8
0
 10
-65.0711732393308
 11
-63.6934716264276
 20
-71.1089023967503
 21
-73.9024104612663
 62
7
  0
LINE
  6
BYLAYER
  8
0
 10
-63.6934716264276
 11
-60.8449232393309
 20
-73.9024104612663
 21
-74.8033782032018
 62
7
  0
LINE
  6
BYLAYER
  8
0
 10
-60.8449232393309
 11
-58.652624852234
 20
-74.8033782032018
 21
-74.4494265902987
 62
7
  0
LINE
  6
BYLAYER
  8
0
 10
-58.652624852234
 11
-57.1512942070728
 20
-74.4494265902987
 21
-73.3697894935245
 62
7
  0
LINE
  6
BYLAYER
  8
0
 10
-57.1512942070728
 11
-55.9937538844921
 20
-73.3697894935245
 21
-70.0800717515889
 62
7
  0
LINE
  6
BYLAYER
  8
0
 10
-55.9937538844921
 11
-57.261374852234
 20
-70.0800717515889
 21
-67.0850314290082
 62
7
  0
LINE
  6
BYLAYER
  8
0
 10
-57.261374852234
 11
-60.3300845296534
 20
-67.0850314290082
 21
-65.9274911064277
 62
7
  0
LINE
  6
BYLAYER
  8
0
 10
-60.3300845296534
 11
-62.0388748522341
 20
-65.9274911064277
 21
-66.2213217515889
 62
7
  0
LINE
  6
BYLAYER
  8
0
 10
-62.0388748522341
 11
-62.9212135619114
 20
-66.2213217515889
 21
-66.7539427193308
 62
7
  0
LINE
  6
BYLAYER
  8
0
 10
-62.9212135619114
 11
-62.3513345296533
 20
-66.7539427193308
 21
-63.1153540096535
 62
7
  0
LINE
  6
BYLAYER
  8
0
 10
-62.3513345296533
 11
-56.7465361425567
 20
-63.1153540096535
 21
-63.1153540096535
 62
7
  0
LINE
  6
BYLAYER
  8
0
 10
-56.7465361425567
 11
-56.7465361425567
 20
-63.1153540096535
 21
-61.4802330419114
 62
7
  0
LINE
  6
BYLAYER
  8
0
 10
-56.7465361425567
 11
-63.5833909812663
 20
-61.4802330419114
 21
-61.4802330419114
 62
7
  0
LINE
  6
BYLAYER
  8
0
 10
-63.5833909812663
 11
-64.5935925941695
 20
-61.4802330419114
 21
-68.6100717515889
 62
7
  0
LINE
  6
BYLAYER
  8
0
 10
-64.5935925941695
 11
-63.1600038844921
 20
-68.6100717515889
 21
-68.6837411064276
 62
7
  0
LINE
  6
BYLAYER
  8
0
 10
-63.1600038844921
 11
-62.1125442070727
 20
-68.6837411064276
 21
-67.7658378806211
 62
7
  0
LINE
  6
BYLAYER
  8
0
 10
-62.1125442070727
 11
-60.6603264651372
 20
-67.7658378806211
 21
-67.4339023967503
 62
7
  0
LINE
  6
BYLAYER
  8
0
 10
-60.6603264651372
 11
-58.6399232393308
 20
-67.4339023967503
 21
-68.1875314290083
 62
7
  0
LINE
  6
BYLAYER
  8
0
 10
-58.6399232393308
 11
-57.793995819976
 20
-68.1875314290083
 21
-70.3374911064276
 62
7
  0
LINE
  6
BYLAYER
  8
0
 10
-57.793995819976
 11
-58.5103667877179
 20
-70.3374911064276
 21
-72.4146282032018
 62
7
  0
LINE
  6
BYLAYER
  8
0
 10
-58.5103667877179
 11
-60.6789554973954
 20
-72.4146282032018
 21
-73.3520072354599
 62
7
  0
LINE
  6
BYLAYER
  8
0
 10
-60.6789554973954
 11
-62.0388748522341
 20
-73.3520072354599
 21
-73.0759588483631
 62
7
  0
LINE
  6
BYLAYER
  8
0
 10
-62.0388748522341
 11
-63.3615361425566
 20
-73.0759588483631
 21
-71.1089023967503
 62
7
  0
LINE
  6
BYLAYER
  8
0
 10
-63.3615361425566
 11
-65.0711732393308
 20
-71.1089023967503
 21
-71.1089023967503
 62
7
  0
LINE
  6
BYLAYER
  8
0
 10
-65.0711732393308
 11
-65.0711732393308
 20
-71.1089023967503
 21
-71.1089023967503
 62
7
  0
LINE
  6
BYLAYER
  8
0
 10
-71.0900442070728
 11
-72.4398022715889
 20
-73.3147491709438
 21
-72.8464830419115
 62
7
  0
LINE
  6
BYLAYER
  8
0
 10
-72.4398022715889
 11
-73.3314554973953
 20
-72.8464830419115
 21
-71.4586201386856
 62
7
  0
LINE
  6
BYLAYER
  8
0
 10
-73.3314554973953
 11
-73.772624852234
 20
-71.4586201386856
 21
-68.2070072354598
 62
7
  0
LINE
  6
BYLAYER
  8
0
 10
-73.772624852234
 11
-73.0926651748146
 20
-68.2070072354598
 21
-64.1441846548147
 62
7
  0
LINE
  6
BYLAYER
  8
0
 10
-73.0926651748146
 11
-70.9604877554599
 20
-64.1441846548147
 21
-62.767329816105
 62
7
  0
LINE
  6
BYLAYER
  8
0
 10
-70.9604877554599
 11
-69.632745819976
 20
-62.767329816105
 21
-63.1339830419115
 62
7
  0
LINE
  6
BYLAYER
  8
0
 10
-69.632745819976
 11
-68.8291571102986
 20
-63.1339830419115
 21
-64.218700783847
 62
7
  0
LINE
  6
BYLAYER
  8
0
 10
-68.8291571102986
 11
-68.2779071102986
 20
-64.218700783847
 21
-67.9301120741696
 62
7
  0
LINE
  6
BYLAYER
  8
0
 10
-68.2779071102986
 11
-68.4616571102986
 20
-67.9301120741696
 21
-70.5491846548146
 62
7
  0
LINE
  6
BYLAYER
  8
0
 10
-68.4616571102986
 11
-69.0315361425566
 20
-70.5491846548146
 21
-72.1758378806212
 62
7
  0
LINE
  6
BYLAYER
  8
0
 10
-69.0315361425566
 11
-71.0900442070728
 20
-72.1758378806212
 21
-73.3147491709438
 62
7
  0
LINE
  6
BYLAYER
  8
0
 10
-71.0900442070728
 11
-71.0900442070728
 20
-73.3147491709438
 21
-73.3147491709438
 62
7
  0
LINE
  6
BYLAYER
  8
0
 10
-71.051939368363
 11
-73.4500038844921
 20
-61.2592249773954
 21
-62.013700783847
 62
7
  0
LINE
  6
BYLAYER
  8
0
 10
-73.4500038844921
 11
-74.9665764651372
 20
-62.013700783847
 21
-64.2551120741696
 62
7
  0
LINE
  6
BYLAYER
  8
0
 10
-74.9665764651372
 11
-75.5542377554598
 20
-64.2551120741696
 21
-68.1324911064276
 62
7
  0
LINE
  6
BYLAYER
  8
0
 10
-75.5542377554598
 11
-74.5990764651372
 20
-68.1324911064276
 21
-72.7812814290083
 62
7
  0
LINE
  6
BYLAYER
  8
0
 10
-74.5990764651372
 11
-73.1383909812662
 20
-72.7812814290083
 21
-74.3257975580405
 62
7
  0
LINE
  6
BYLAYER
  8
0
 10
-73.1383909812662
 11
-71.0714151748146
 20
-74.3257975580405
 21
-74.8397894935244
 62
7
  0
LINE
  6
BYLAYER
  8
0
 10
-71.0714151748146
 11
-68.7969796909437
 20
-74.8397894935244
 21
-74.1962411064277
 62
7
  0
LINE
  6
BYLAYER
  8
0
 10
-68.7969796909437
 11
-67.2677054973954
 20
-74.1962411064277
 21
-72.303700783847
 62
7
  0
LINE
  6
BYLAYER
  8
0
 10
-67.2677054973954
 11
-66.4776651748146
 20
-72.303700783847
 21
-67.8572894935244
 62
7
  0
LINE
  6
BYLAYER
  8
0
 10
-66.4776651748146
 11
-67.3591571102986
 20
-67.8572894935244
 21
-63.3727733644921
 62
7
  0
LINE
  6
BYLAYER
  8
0
 10
-67.3591571102986
 11
-68.856253884492
 20
-63.3727733644921
 21
-61.7842249773953
 62
7
  0
LINE
  6
BYLAYER
  8
0
 10
-68.856253884492
 11
-71.051939368363
 20
-61.7842249773953
 21
-61.2592249773954
 62
7
  0
LINE
  6
BYLAYER
  8
0
 10
-71.051939368363
 11
-71.051939368363
 20
-61.2592249773954
 21
-61.2592249773954
 62
7
  0
LINE
  6
BYLAYER
  8
0
 10
-81.6967377554599
 11
-81.6967377554599
 20
-65.137450783847
 21
-74.4731362677179
 62
7
  0
LINE
  6
BYLAYER
  8
0
 10
-81.6967377554599
 11
-79.9142780780405
 20
-74.4731362677179
 21
-74.4731362677179
 62
7
  0
LINE
  6
BYLAYER
  8
0
 10
-79.9142780780405
 11
-79.9142780780405
 20
-74.4731362677179
 21
-61.3337411064275
 62
7
  0
LINE
  6
BYLAYER
  8
0
 10
-79.9142780780405
 11
-81.2377861425566
 20
-61.3337411064275
 21
-61.3337411064275
 62
7
  0
LINE
  6
BYLAYER
  8
0
 10
-81.2377861425566
 11
-82.3030280780404
 20
-61.3337411064275
 21
-63.281321751589
 62
7
  0
LINE
  6
BYLAYER
  8
0
 10
-82.3030280780404
 11
-84.7840764651372
 20
-63.281321751589
 21
-63.8689830419115
 62
7
  0
LINE
  6
BYLAYER
  8
0
 10
-84.7840764651372
 11
-84.7840764651372
 20
-63.8689830419115
 21
-65.137450783847
 62
7
  0
LINE
  6
BYLAYER
  8
0
 10
-84.7840764651372
 11
-81.6967377554599
 20
-65.137450783847
 21
-65.137450783847
 62
7
  0
LINE
  6
BYLAYER
  8
0
 10
-81.6967377554599
 11
-81.6967377554599
 20
-65.137450783847
 21
-65.137450783847
 62
7
  0
LINE
  6
BYLAYER
  8
0
 10
91.1213147499442
 11
91.1213147499442
 20
-94.6085798161051
 21
-96.280958848363
 62
7
  0
LINE
  6
BYLAYER
  8
0
 10
91.1213147499442
 11
98.4171212015572
 20
-96.280958848363
 21
-96.280958848363
 62
7
  0
LINE
  6
BYLAYER
  8
0
 10
98.4171212015572
 11
95.7709518467185
 20
-96.280958848363
 21
-100.065192719331
 62
7
  0
LINE
  6
BYLAYER
  8
0
 10
95.7709518467185
 11
93.0155486209119
 20
-100.065192719331
 21
-107.600636267718
 62
7
  0
LINE
  6
BYLAYER
  8
0
 10
93.0155486209119
 11
94.8344195886539
 20
-107.600636267718
 21
-107.600636267718
 62
7
  0
LINE
  6
BYLAYER
  8
0
 10
94.8344195886539
 11
95.5321615241378
 20
-107.600636267718
 21
-104.660636267718
 62
7
  0
LINE
  6
BYLAYER
  8
0
 10
95.5321615241378
 11
96.7455889434925
 20
-104.660636267718
 21
-101.498781429008
 62
7
  0
LINE
  6
BYLAYER
  8
0
 10
96.7455889434925
 11
98.6195002338153
 20
-101.498781429008
 21
-98.2285394935243
 62
7
  0
LINE
  6
BYLAYER
  8
0
 10
98.6195002338153
 11
100.291879266073
 20
-98.2285394935243
 21
-96.0421685257825
 62
7
  0
LINE
  6
BYLAYER
  8
0
 10
100.291879266073
 11
100.291879266073
 20
-96.0421685257825
 21
-94.6085798161051
 62
7
  0
LINE
  6
BYLAYER
  8
0
 10
100.291879266073
 11
91.1213147499442
 20
-94.6085798161051
 21
-94.6085798161051
 62
7
  0
LINE
  6
BYLAYER
  8
0
 10
91.1213147499442
 11
91.1213147499442
 20
-94.6085798161051
 21
-94.6085798161051
 62
7
  0
LINE
  6
BYLAYER
  8
0
 10
80.5696615241378
 11
81.9473631370409
 20
-104.237249170944
 21
-107.029910461266
 62
7
  0
LINE
  6
BYLAYER
  8
0
 10
81.9473631370409
 11
84.7959115241377
 20
-107.029910461266
 21
-107.930878203202
 62
7
  0
LINE
  6
BYLAYER
  8
0
 10
84.7959115241377
 11
86.9873631370409
 20
-107.930878203202
 21
-107.576926590299
 62
7
  0
LINE
  6
BYLAYER
  8
0
 10
86.9873631370409
 11
88.4895405563957
 20
-107.576926590299
 21
-106.497289493524
 62
7
  0
LINE
  6
BYLAYER
  8
0
 10
88.4895405563957
 11
89.6470808789765
 20
-106.497289493524
 21
-103.207571751589
 62
7
  0
LINE
  6
BYLAYER
  8
0
 10
89.6470808789765
 11
88.3794599112346
 20
-103.207571751589
 21
-100.212531429008
 62
7
  0
LINE
  6
BYLAYER
  8
0
 10
88.3794599112346
 11
85.3107502338151
 20
-100.212531429008
 21
-99.0549911064276
 62
7
  0
LINE
  6
BYLAYER
  8
0
 10
85.3107502338151
 11
83.6019599112345
 20
-99.0549911064276
 21
-99.3488217515889
 62
7
  0
LINE
  6
BYLAYER
  8
0
 10
83.6019599112345
 11
82.7196212015571
 20
-99.3488217515889
 21
-99.8822894935244
 62
7
  0
LINE
  6
BYLAYER
  8
0
 10
82.7196212015571
 11
83.2886534596217
 20
-99.8822894935244
 21
-96.2428540096535
 62
7
  0
LINE
  6
BYLAYER
  8
0
 10
83.2886534596217
 11
88.8942986209119
 20
-96.2428540096535
 21
-96.2428540096535
 62
7
  0
LINE
  6
BYLAYER
  8
0
 10
88.8942986209119
 11
88.8942986209119
 20
-96.2428540096535
 21
-94.6085798161051
 62
7
  0
LINE
  6
BYLAYER
  8
0
 10
88.8942986209119
 11
82.0574437822023
 20
-94.6085798161051
 21
-94.6085798161051
 62
7
  0
LINE
  6
BYLAYER
  8
0
 10
82.0574437822023
 11
81.047242169299
 20
-94.6085798161051
 21
-101.737571751589
 62
7
  0
LINE
  6
BYLAYER
  8
0
 10
81.047242169299
 11
82.4808308789765
 20
-101.737571751589
 21
-101.812087880621
 62
7
  0
LINE
  6
BYLAYER
  8
0
 10
82.4808308789765
 11
83.5274437822023
 20
-101.812087880621
 21
-100.893337880621
 62
7
  0
LINE
  6
BYLAYER
  8
0
 10
83.5274437822023
 11
84.9805082983313
 20
-100.893337880621
 21
-100.56140239675
 62
7
  0
LINE
  6
BYLAYER
  8
0
 10
84.9805082983313
 11
87.0009115241377
 20
-100.56140239675
 21
-101.315878203202
 62
7
  0
LINE
  6
BYLAYER
  8
0
 10
87.0009115241377
 11
87.8459921692989
 20
-101.315878203202
 21
-103.464991106428
 62
7
  0
LINE
  6
BYLAYER
  8
0
 10
87.8459921692989
 11
87.1304679757505
 20
-103.464991106428
 21
-105.542128203202
 62
7
  0
LINE
  6
BYLAYER
  8
0
 10
87.1304679757505
 11
84.9610324918796
 20
-105.542128203202
 21
-106.47950723546
 62
7
  0
LINE
  6
BYLAYER
  8
0
 10
84.9610324918796
 11
83.6019599112345
 20
-106.47950723546
 21
-106.203458848363
 62
7
  0
LINE
  6
BYLAYER
  8
0
 10
83.6019599112345
 11
82.2784518467185
 20
-106.203458848363
 21
-104.237249170944
 62
7
  0
LINE
  6
BYLAYER
  8
0
 10
82.2784518467185
 11
80.5696615241378
 20
-104.237249170944
 21
-104.237249170944
 62
7
  0
LINE
  6
BYLAYER
  8
0
 10
80.5696615241378
 11
80.5696615241378
 20
-104.237249170944
 21
-104.237249170944
 62
7
  0
LINE
  6
BYLAYER
  8
0
 10
38.6348631370409
 11
40.0134115241378
 20
-103.846039493524
 21
-106.639547558041
 62
7
  0
LINE
  6
BYLAYER
  8
0
 10
40.0134115241378
 11
42.861113137041
 20
-106.639547558041
 21
-107.540515299976
 62
7
  0
LINE
  6
BYLAYER
  8
0
 10
42.861113137041
 11
45.0525647499441
 20
-107.540515299976
 21
-107.186563687073
 62
7
  0
LINE
  6
BYLAYER
  8
0
 10
45.0525647499441
 11
46.5555889434926
 20
-107.186563687073
 21
-106.106926590299
 62
7
  0
LINE
  6
BYLAYER
  8
0
 10
46.5555889434926
 11
47.7131292660732
 20
-106.106926590299
 21
-102.817208848363
 62
7
  0
LINE
  6
BYLAYER
  8
0
 10
47.7131292660732
 11
46.4446615241378
 20
-102.817208848363
 21
-99.8221685257824
 62
7
  0
LINE
  6
BYLAYER
  8
0
 10
46.4446615241378
 11
43.3767986209119
 20
-99.8221685257824
 21
-98.6646282032018
 62
7
  0
LINE
  6
BYLAYER
  8
0
 10
43.3767986209119
 11
41.6663147499442
 20
-98.6646282032018
 21
-98.9584588483631
 62
7
  0
LINE
  6
BYLAYER
  8
0
 10
41.6663147499442
 11
40.7848228144604
 20
-98.9584588483631
 21
-99.491079816105
 62
7
  0
LINE
  6
BYLAYER
  8
0
 10
40.7848228144604
 11
41.3547018467184
 20
-99.491079816105
 21
-95.8524911064276
 62
7
  0
LINE
  6
BYLAYER
  8
0
 10
41.3547018467184
 11
46.9586534596216
 20
-95.8524911064276
 21
-95.8524911064276
 62
7
  0
LINE
  6
BYLAYER
  8
0
 10
46.9586534596216
 11
46.9586534596216
 20
-95.8524911064276
 21
-94.2182169128793
 62
7
  0
LINE
  6
BYLAYER
  8
0
 10
46.9586534596216
 11
40.1234921692991
 20
-94.2182169128793
 21
-94.2182169128793
 62
7
  0
LINE
  6
BYLAYER
  8
0
 10
40.1234921692991
 11
39.1132905563959
 20
-94.2182169128793
 21
-101.347208848363
 62
7
  0
LINE
  6
BYLAYER
  8
0
 10
39.1132905563959
 11
40.5460324918796
 20
-101.347208848363
 21
-101.421724977395
 62
7
  0
LINE
  6
BYLAYER
  8
0
 10
40.5460324918796
 11
41.5934921692991
 20
-101.421724977395
 21
-100.502974977395
 62
7
  0
LINE
  6
BYLAYER
  8
0
 10
41.5934921692991
 11
43.044863137041
 20
-100.502974977395
 21
-100.171039493524
 62
7
  0
LINE
  6
BYLAYER
  8
0
 10
43.044863137041
 11
45.0669599112345
 20
-100.171039493524
 21
-100.924668525782
 62
7
  0
LINE
  6
BYLAYER
  8
0
 10
45.0669599112345
 11
45.9120405563959
 20
-100.924668525782
 21
-103.074628203202
 62
7
  0
LINE
  6
BYLAYER
  8
0
 10
45.9120405563959
 11
45.1948228144603
 20
-103.074628203202
 21
-105.151765299976
 62
7
  0
LINE
  6
BYLAYER
  8
0
 10
45.1948228144603
 11
43.0270808789764
 20
-105.151765299976
 21
-106.089144332234
 62
7
  0
LINE
  6
BYLAYER
  8
0
 10
43.0270808789764
 11
41.6663147499442
 20
-106.089144332234
 21
-105.813095945137
 62
7
  0
LINE
  6
BYLAYER
  8
0
 10
41.6663147499442
 11
40.3436534596217
 20
-105.813095945137
 21
-103.846039493524
 62
7
  0
LINE
  6
BYLAYER
  8
0
 10
40.3436534596217
 11
38.6348631370409
 20
-103.846039493524
 21
-103.846039493524
 62
7
  0
LINE
  6
BYLAYER
  8
0
 10
38.6348631370409
 11
38.6348631370409
 20
-103.846039493524
 21
-103.846039493524
 62
7
  0
LINE
  6
BYLAYER
  8
0
 10
34.3586534596216
 11
35.8836937822022
 20
-110.002934654815
 21
-108.991886267718
 62
7
  0
LINE
  6
BYLAYER
  8
0
 10
35.8836937822022
 11
36.3248631370409
 20
-108.991886267718
 21
-107.062934654815
 62
7
  0
LINE
  6
BYLAYER
  8
0
 10
36.3248631370409
 11
36.3248631370409
 20
-107.062934654815
 21
-105.206805622557
 62
7
  0
LINE
  6
BYLAYER
  8
0
 10
36.3248631370409
 11
34.3586534596216
 20
-105.206805622557
 21
-105.206805622557
 62
7
  0
LINE
  6
BYLAYER
  8
0
 10
34.3586534596216
 11
34.3586534596216
 20
-105.206805622557
 21
-107.210273364492
 62
7
  0
LINE
  6
BYLAYER
  8
0
 10
34.3586534596216
 11
35.3688550725249
 20
-107.210273364492
 21
-107.210273364492
 62
7
  0
LINE
  6
BYLAYER
  8
0
 10
35.3688550725249
 11
35.3874841047829
 20
-107.210273364492
 21
-107.31950723546
 62
7
  0
LINE
  6
BYLAYER
  8
0
 10
35.3874841047829
 11
35.3874841047829
 20
-107.31950723546
 21
-107.429587880621
 62
7
  0
LINE
  6
BYLAYER
  8
0
 10
35.3874841047829
 11
35.25792765317
 20
-107.429587880621
 21
-108.239104009653
 62
7
  0
LINE
  6
BYLAYER
  8
0
 10
35.25792765317
 11
34.3586534596216
 20
-108.239104009653
 21
-109.138378203202
 62
7
  0
LINE
  6
BYLAYER
  8
0
 10
34.3586534596216
 11
34.3586534596216
 20
-109.138378203202
 21
-110.002934654815
 62
7
  0
LINE
  6
BYLAYER
  8
0
 10
34.3586534596216
 11
34.3586534596216
 20
-110.002934654815
 21
-110.002934654815
 62
7
  0
LINE
  6
BYLAYER
  8
0
 10
23.0338953951055
 11
23.0338953951055
 20
-94.2182169128793
 21
-95.8905959451373
 62
7
  0
LINE
  6
BYLAYER
  8
0
 10
23.0338953951055
 11
30.3288550725248
 20
-95.8905959451373
 21
-95.8905959451373
 62
7
  0
LINE
  6
BYLAYER
  8
0
 10
30.3288550725248
 11
27.6826857176861
 20
-95.8905959451373
 21
-99.6748298161051
 62
7
  0
LINE
  6
BYLAYER
  8
0
 10
27.6826857176861
 11
24.9264357176861
 20
-99.6748298161051
 21
-107.210273364492
 62
7
  0
LINE
  6
BYLAYER
  8
0
 10
24.9264357176861
 11
26.7453066854281
 20
-107.210273364492
 21
-107.210273364492
 62
7
  0
LINE
  6
BYLAYER
  8
0
 10
26.7453066854281
 11
27.4438953951056
 20
-107.210273364492
 21
-104.269426590299
 62
7
  0
LINE
  6
BYLAYER
  8
0
 10
27.4438953951056
 11
28.6564760402667
 20
-104.269426590299
 21
-101.108418525782
 62
7
  0
LINE
  6
BYLAYER
  8
0
 10
28.6564760402667
 11
30.531234104783
 20
-101.108418525782
 21
-97.8381765902986
 62
7
  0
LINE
  6
BYLAYER
  8
0
 10
30.531234104783
 11
32.2036131370411
 20
-97.8381765902986
 21
-95.6518056225566
 62
7
  0
LINE
  6
BYLAYER
  8
0
 10
32.2036131370411
 11
32.2036131370411
 20
-95.6518056225566
 21
-94.2182169128793
 62
7
  0
LINE
  6
BYLAYER
  8
0
 10
32.2036131370411
 11
23.0338953951055
 20
-94.2182169128793
 21
-94.2182169128793
 62
7
  0
LINE
  6
BYLAYER
  8
0
 10
23.0338953951055
 11
23.0338953951055
 20
-94.2182169128793
 21
-94.2182169128793
 62
7
  0
LINE
  6
BYLAYER
  8
0
 10
159.51357281446
 11
162.307080878977
 20
26.3666621193788
 21
27.7443637322821
 62
7
  0
LINE
  6
BYLAYER
  8
0
 10
162.307080878977
 11
163.207201846718
 20
27.7443637322821
 21
30.5929121193788
 62
7
  0
LINE
  6
BYLAYER
  8
0
 10
163.207201846718
 11
162.853250233815
 20
30.5929121193788
 21
32.7852105064755
 62
7
  0
LINE
  6
BYLAYER
  8
0
 10
162.853250233815
 11
161.773613137041
 20
32.7852105064755
 21
34.2873879258304
 62
7
  0
LINE
  6
BYLAYER
  8
0
 10
161.773613137041
 11
158.484742169299
 20
34.2873879258304
 21
35.4440814742175
 62
7
  0
LINE
  6
BYLAYER
  8
0
 10
158.484742169299
 11
155.489701846718
 20
35.4440814742175
 21
34.1764605064756
 62
7
  0
LINE
  6
BYLAYER
  8
0
 10
155.489701846718
 11
154.331314749944
 20
34.1764605064756
 21
31.1085976032498
 62
7
  0
LINE
  6
BYLAYER
  8
0
 10
154.331314749944
 11
154.625145395106
 20
31.1085976032498
 21
29.3989605064756
 62
7
  0
LINE
  6
BYLAYER
  8
0
 10
154.625145395106
 11
155.157766362847
 20
29.3989605064756
 21
28.5174685709918
 62
7
  0
LINE
  6
BYLAYER
  8
0
 10
155.157766362847
 11
151.520024427364
 20
28.5174685709918
 21
29.0865008290562
 62
7
  0
LINE
  6
BYLAYER
  8
0
 10
151.520024427364
 11
151.520024427364
 20
29.0865008290562
 21
34.691299216153
 62
7
  0
LINE
  6
BYLAYER
  8
0
 10
151.520024427364
 11
149.884056685428
 20
34.691299216153
 21
34.691299216153
 62
7
  0
LINE
  6
BYLAYER
  8
0
 10
149.884056685428
 11
149.884056685428
 20
34.691299216153
 21
27.855291151637
 62
7
  0
LINE
  6
BYLAYER
  8
0
 10
149.884056685428
 11
157.014742169299
 20
27.855291151637
 21
26.8450895387336
 62
7
  0
LINE
  6
BYLAYER
  8
0
 10
157.014742169299
 11
157.087564749944
 20
26.8450895387336
 21
28.2778314742176
 62
7
  0
LINE
  6
BYLAYER
  8
0
 10
157.087564749944
 11
156.168814749944
 20
28.2778314742176
 21
29.3252911516369
 62
7
  0
LINE
  6
BYLAYER
  8
0
 10
156.168814749944
 11
155.83857281446
 20
29.3252911516369
 21
30.7766621193788
 62
7
  0
LINE
  6
BYLAYER
  8
0
 10
155.83857281446
 11
156.591355072525
 20
30.7766621193788
 21
32.7979121193788
 62
7
  0
LINE
  6
BYLAYER
  8
0
 10
156.591355072525
 11
158.741314749944
 20
32.7979121193788
 21
33.6438395387336
 62
7
  0
LINE
  6
BYLAYER
  8
0
 10
158.741314749944
 11
160.818451846719
 20
33.6438395387336
 21
32.9274685709918
 62
7
  0
LINE
  6
BYLAYER
  8
0
 10
160.818451846719
 11
161.755830878976
 20
32.9274685709918
 21
30.7588798613143
 62
7
  0
LINE
  6
BYLAYER
  8
0
 10
161.755830878976
 11
161.478935717686
 20
30.7588798613143
 21
29.3989605064756
 62
7
  0
LINE
  6
BYLAYER
  8
0
 10
161.478935717686
 11
159.51357281446
 20
29.3989605064756
 21
28.076299216153
 62
7
  0
LINE
  6
BYLAYER
  8
0
 10
159.51357281446
 11
159.51357281446
 20
28.076299216153
 21
26.3666621193788
 62
7
  0
LINE
  6
BYLAYER
  8
0
 10
159.51357281446
 11
159.51357281446
 20
26.3666621193788
 21
26.3666621193788
 62
7
  0
LINE
  6
BYLAYER
  8
0
 10
162.876113137041
 11
159.64228249188
 20
23.2200492161529
 21
23.2200492161529
 62
7
  0
LINE
  6
BYLAYER
  8
0
 10
159.64228249188
 11
159.64228249188
 20
23.2200492161529
 21
25.1676298613144
 62
7
  0
LINE
  6
BYLAYER
  8
0
 10
159.64228249188
 11
158.17228249188
 20
25.1676298613144
 21
25.1676298613144
 62
7
  0
LINE
  6
BYLAYER
  8
0
 10
158.17228249188
 11
158.17228249188
 20
25.1676298613144
 21
23.2200492161529
 62
7
  0
LINE
  6
BYLAYER
  8
0
 10
158.17228249188
 11
149.645266362847
 20
23.2200492161529
 21
23.2200492161529
 62
7
  0
LINE
  6
BYLAYER
  8
0
 10
149.645266362847
 11
149.645266362847
 20
23.2200492161529
 21
21.8228717967981
 62
7
  0
LINE
  6
BYLAYER
  8
0
 10
149.645266362847
 11
158.006314749944
 20
21.8228717967981
 21
15.7777508290562
 62
7
  0
LINE
  6
BYLAYER
  8
0
 10
158.006314749944
 11
159.64228249188
 20
15.7777508290562
 21
15.7777508290562
 62
7
  0
LINE
  6
BYLAYER
  8
0
 10
159.64228249188
 11
159.64228249188
 20
15.7777508290562
 21
21.5654524419594
 62
7
  0
LINE
  6
BYLAYER
  8
0
 10
159.64228249188
 11
162.876113137041
 20
21.5654524419594
 21
21.5654524419594
 62
7
  0
LINE
  6
BYLAYER
  8
0
 10
162.876113137041
 11
162.876113137041
 20
21.5654524419594
 21
23.2200492161529
 62
7
  0
LINE
  6
BYLAYER
  8
0
 10
162.876113137041
 11
162.876113137041
 20
23.2200492161529
 21
23.2200492161529
 62
7
  0
LINE
  6
BYLAYER
  8
0
 10
158.17228249188
 11
152.236395395106
 20
17.3019443774433
 21
21.547670183895
 62
7
  0
LINE
  6
BYLAYER
  8
0
 10
152.236395395106
 11
158.17228249188
 20
21.547670183895
 21
21.547670183895
 62
7
  0
LINE
  6
BYLAYER
  8
0
 10
158.17228249188
 11
158.17228249188
 20
21.547670183895
 21
17.3019443774433
 62
7
  0
LINE
  6
BYLAYER
  8
0
 10
158.17228249188
 11
158.17228249188
 20
17.3019443774433
 21
17.3019443774433
 62
7
  0
LINE
  6
BYLAYER
  8
0
 10
91.4346212015572
 11
92.8131695886539
 20
-70.1308782032018
 21
-72.9235394935244
 62
7
  0
LINE
  6
BYLAYER
  8
0
 10
92.8131695886539
 11
95.6617179757507
 20
-72.9235394935244
 21
-73.8245072354599
 62
7
  0
LINE
  6
BYLAYER
  8
0
 10
95.6617179757507
 11
97.8523228144603
 20
-73.8245072354599
 21
-73.4705556225566
 62
7
  0
LINE
  6
BYLAYER
  8
0
 10
97.8523228144603
 11
99.3545002338151
 20
-73.4705556225566
 21
-72.3909185257824
 62
7
  0
LINE
  6
BYLAYER
  8
0
 10
99.3545002338151
 11
100.512887330589
 20
-72.3909185257824
 21
-69.1020475580406
 62
7
  0
LINE
  6
BYLAYER
  8
0
 10
100.512887330589
 11
99.2444195886538
 20
-69.1020475580406
 21
-66.1061604612663
 62
7
  0
LINE
  6
BYLAYER
  8
0
 10
99.2444195886538
 11
96.1757099112345
 20
-66.1061604612663
 21
-64.9486201386857
 62
7
  0
LINE
  6
BYLAYER
  8
0
 10
96.1757099112345
 11
94.4660728144604
 20
-64.9486201386857
 21
-65.2432975580405
 62
7
  0
LINE
  6
BYLAYER
  8
0
 10
94.4660728144604
 11
93.5845808789765
 20
-65.2432975580405
 21
-65.7759185257825
 62
7
  0
LINE
  6
BYLAYER
  8
0
 10
93.5845808789765
 11
94.1536131370409
 20
-65.7759185257825
 21
-62.1373298161051
 62
7
  0
LINE
  6
BYLAYER
  8
0
 10
94.1536131370409
 11
99.7584115241378
 20
-62.1373298161051
 21
-62.1373298161051
 62
7
  0
LINE
  6
BYLAYER
  8
0
 10
99.7584115241378
 11
99.7584115241378
 20
-62.1373298161051
 21
-60.5022088483631
 62
7
  0
LINE
  6
BYLAYER
  8
0
 10
99.7584115241378
 11
92.9232502338151
 20
-60.5022088483631
 21
-60.5022088483631
 62
7
  0
LINE
  6
BYLAYER
  8
0
 10
92.9232502338151
 11
91.9122018467184
 20
-60.5022088483631
 21
-67.6312007838469
 62
7
  0
LINE
  6
BYLAYER
  8
0
 10
91.9122018467184
 11
93.3457905563959
 20
-67.6312007838469
 21
-67.7057169128793
 62
7
  0
LINE
  6
BYLAYER
  8
0
 10
93.3457905563959
 11
94.3932502338151
 20
-67.7057169128793
 21
-66.7869669128793
 62
7
  0
LINE
  6
BYLAYER
  8
0
 10
94.3932502338151
 11
95.8446212015571
 20
-66.7869669128793
 21
-66.4558782032019
 62
7
  0
LINE
  6
BYLAYER
  8
0
 10
95.8446212015571
 11
97.8667179757507
 20
-66.4558782032019
 21
-67.2095072354599
 62
7
  0
LINE
  6
BYLAYER
  8
0
 10
97.8667179757507
 11
98.7109518467183
 20
-67.2095072354599
 21
-69.3594669128792
 62
7
  0
LINE
  6
BYLAYER
  8
0
 10
98.7109518467183
 11
97.9945808789765
 20
-69.3594669128792
 21
-71.4357572354599
 62
7
  0
LINE
  6
BYLAYER
  8
0
 10
97.9945808789765
 11
95.825992169299
 20
-71.4357572354599
 21
-72.3731362677179
 62
7
  0
LINE
  6
BYLAYER
  8
0
 10
95.825992169299
 11
94.4660728144604
 20
-72.3731362677179
 21
-72.0970878806212
 62
7
  0
LINE
  6
BYLAYER
  8
0
 10
94.4660728144604
 11
93.1434115241377
 20
-72.0970878806212
 21
-70.1308782032018
 62
7
  0
LINE
  6
BYLAYER
  8
0
 10
93.1434115241377
 11
91.4346212015572
 20
-70.1308782032018
 21
-70.1308782032018
 62
7
  0
LINE
  6
BYLAYER
  8
0
 10
91.4346212015572
 11
91.4346212015572
 20
-70.1308782032018
 21
-70.1308782032018
 62
7
  0
LINE
  6
BYLAYER
  8
0
 10
87.1575647499443
 11
88.6826050725249
 20
-76.2877733644922
 21
-75.2758782032019
 62
7
  0
LINE
  6
BYLAYER
  8
0
 10
88.6826050725249
 11
89.1237744273636
 20
-75.2758782032019
 21
-73.3469265902986
 62
7
  0
LINE
  6
BYLAYER
  8
0
 10
89.1237744273636
 11
89.1237744273636
 20
-73.3469265902986
 21
-71.491644332234
 62
7
  0
LINE
  6
BYLAYER
  8
0
 10
89.1237744273636
 11
87.1575647499443
 20
-71.491644332234
 21
-71.491644332234
 62
7
  0
LINE
  6
BYLAYER
  8
0
 10
87.1575647499443
 11
87.1575647499443
 20
-71.491644332234
 21
-73.494265299976
 62
7
  0
LINE
  6
BYLAYER
  8
0
 10
87.1575647499443
 11
88.168613137041
 20
-73.494265299976
 21
-73.494265299976
 62
7
  0
LINE
  6
BYLAYER
  8
0
 10
88.168613137041
 11
88.1863953951056
 20
-73.494265299976
 21
-73.6034991709438
 62
7
  0
LINE
  6
BYLAYER
  8
0
 10
88.1863953951056
 11
88.1863953951056
 20
-73.6034991709438
 21
-73.7144265902986
 62
7
  0
LINE
  6
BYLAYER
  8
0
 10
88.1863953951056
 11
88.0576857176861
 20
-73.7144265902986
 21
-74.5230959451373
 62
7
  0
LINE
  6
BYLAYER
  8
0
 10
88.0576857176861
 11
87.1575647499443
 20
-74.5230959451373
 21
-75.4232169128793
 62
7
  0
LINE
  6
BYLAYER
  8
0
 10
87.1575647499443
 11
87.1575647499443
 20
-75.4232169128793
 21
-76.2877733644922
 62
7
  0
LINE
  6
BYLAYER
  8
0
 10
87.1575647499443
 11
87.1575647499443
 20
-76.2877733644922
 21
-76.2877733644922
 62
7
  0
LINE
  6
BYLAYER
  8
0
 10
80.04042765317
 11
83.5689357176861
 20
-73.8609185257825
 21
-72.6678136870727
 62
7
  0
LINE
  6
BYLAYER
  8
0
 10
83.5689357176861
 11
84.8187744273635
 20
-72.6678136870727
 21
-69.5804749773954
 62
7
  0
LINE
  6
BYLAYER
  8
0
 10
84.8187744273635
 11
84.231113137041
 20
-69.5804749773954
 21
-67.5947894935244
 62
7
  0
LINE
  6
BYLAYER
  8
0
 10
84.231113137041
 11
82.6137744273636
 20
-67.5947894935244
 21
-66.4931362677179
 62
7
  0
LINE
  6
BYLAYER
  8
0
 10
82.6137744273636
 11
83.6426050725248
 20
-66.4931362677179
 21
-65.7581362677179
 62
7
  0
LINE
  6
BYLAYER
  8
0
 10
83.6426050725248
 11
84.3039357176862
 20
-65.7581362677179
 21
-63.772450783847
 62
7
  0
LINE
  6
BYLAYER
  8
0
 10
84.3039357176862
 11
83.2022824918797
 20
-63.772450783847
 21
-61.1821685257824
 62
7
  0
LINE
  6
BYLAYER
  8
0
 10
83.2022824918797
 11
80.0785324918798
 20
-61.1821685257824
 21
-60.281200783847
 62
7
  0
LINE
  6
BYLAYER
  8
0
 10
80.0785324918798
 11
77.91417765317
 20
-60.281200783847
 21
-60.7359185257825
 62
7
  0
LINE
  6
BYLAYER
  8
0
 10
77.91417765317
 11
76.5127663628474
 20
-60.7359185257825
 21
-62.1195475580406
 62
7
  0
LINE
  6
BYLAYER
  8
0
 10
76.5127663628474
 11
75.9242582983312
 20
-62.1195475580406
 21
-64.6183782032018
 62
7
  0
LINE
  6
BYLAYER
  8
0
 10
75.9242582983312
 11
77.5966373305893
 20
-64.6183782032018
 21
-64.6183782032018
 62
7
  0
LINE
  6
BYLAYER
  8
0
 10
77.5966373305893
 11
77.9827663628475
 20
-64.6183782032018
 21
-62.8909588483632
 62
7
  0
LINE
  6
BYLAYER
  8
0
 10
77.9827663628475
 11
80.2614357176862
 20
-62.8909588483632
 21
-61.788458848363
 62
7
  0
LINE
  6
BYLAYER
  8
0
 10
80.2614357176862
 11
81.8974034596216
 20
-61.788458848363
 21
-62.3219265902987
 62
7
  0
LINE
  6
BYLAYER
  8
0
 10
81.8974034596216
 11
82.5951453951054
 20
-62.3219265902987
 21
-63.8469669128792
 62
7
  0
LINE
  6
BYLAYER
  8
0
 10
82.5951453951054
 11
81.5299034596216
 20
-63.8469669128792
 21
-65.6836201386857
 62
7
  0
LINE
  6
BYLAYER
  8
0
 10
81.5299034596216
 11
80.0040163628474
 20
-65.6836201386857
 21
-65.9782975580406
 62
7
  0
LINE
  6
BYLAYER
  8
0
 10
80.0040163628474
 11
79.6187341047829
 20
-65.9782975580406
 21
-65.9588217515889
 62
7
  0
LINE
  6
BYLAYER
  8
0
 10
79.6187341047829
 11
79.1961937822022
 20
-65.9588217515889
 21
-65.9224104612664
 62
7
  0
LINE
  6
BYLAYER
  8
0
 10
79.1961937822022
 11
79.1961937822022
 20
-65.9224104612664
 21
-67.3924104612663
 62
7
  0
LINE
  6
BYLAYER
  8
0
 10
79.1961937822022
 11
79.5264357176862
 20
-67.3924104612663
 21
-67.3754749773953
 62
7
  0
LINE
  6
BYLAYER
  8
0
 10
79.5264357176862
 11
79.8761534596217
 20
-67.3754749773953
 21
-67.3754749773953
 62
7
  0
LINE
  6
BYLAYER
  8
0
 10
79.8761534596217
 11
82.1920808789764
 20
-67.3754749773953
 21
-67.9258782032018
 62
7
  0
LINE
  6
BYLAYER
  8
0
 10
82.1920808789764
 11
83.0185324918796
 20
-67.9258782032018
 21
-69.8370475580405
 62
7
  0
LINE
  6
BYLAYER
  8
0
 10
83.0185324918796
 11
82.228492169299
 20
-69.8370475580405
 21
-71.638136267718
 62
7
  0
LINE
  6
BYLAYER
  8
0
 10
82.228492169299
 11
80.1335728144603
 20
-71.638136267718
 21
-72.3358782032018
 62
7
  0
LINE
  6
BYLAYER
  8
0
 10
80.1335728144603
 11
77.7990163628474
 20
-72.3358782032018
 21
-71.3070475580405
 62
7
  0
LINE
  6
BYLAYER
  8
0
 10
77.7990163628474
 11
77.3214357176861
 20
-71.3070475580405
 21
-69.433136267718
 62
7
  0
LINE
  6
BYLAYER
  8
0
 10
77.3214357176861
 11
75.5940163628474
 20
-69.433136267718
 21
-69.433136267718
 62
7
  0
LINE
  6
BYLAYER
  8
0
 10
75.5940163628474
 11
76.6414760402668
 20
-69.433136267718
 21
-72.5746685257825
 62
7
  0
LINE
  6
BYLAYER
  8
0
 10
76.6414760402668
 11
78.0157905563958
 20
-72.5746685257825
 21
-73.5357572354599
 62
7
  0
LINE
  6
BYLAYER
  8
0
 10
78.0157905563958
 11
80.04042765317
 20
-73.5357572354599
 21
-73.8609185257825
 62
7
  0
LINE
  6
BYLAYER
  8
0
 10
80.04042765317
 11
80.04042765317
 20
-73.8609185257825
 21
-73.8609185257825
 62
7
  0
LINE
  6
BYLAYER
  8
0
 10
72.5938953951055
 11
72.5938953951055
 20
-73.494265299976
 21
-70.2604346548146
 62
7
  0
LINE
  6
BYLAYER
  8
0
 10
72.5938953951055
 11
74.5423228144604
 20
-70.2604346548146
 21
-70.2604346548146
 62
7
  0
LINE
  6
BYLAYER
  8
0
 10
74.5423228144604
 11
74.5423228144604
 20
-70.2604346548146
 21
-68.7895878806212
 62
7
  0
LINE
  6
BYLAYER
  8
0
 10
74.5423228144604
 11
72.5938953951055
 20
-68.7895878806212
 21
-68.7895878806212
 62
7
  0
LINE
  6
BYLAYER
  8
0
 10
72.5938953951055
 11
72.5938953951055
 20
-68.7895878806212
 21
-60.2634185257825
 62
7
  0
LINE
  6
BYLAYER
  8
0
 10
72.5938953951055
 11
71.1975647499442
 20
-60.2634185257825
 21
-60.2634185257825
 62
7
  0
LINE
  6
BYLAYER
  8
0
 10
71.1975647499442
 11
65.1515970080088
 20
-60.2634185257825
 21
-68.6244669128793
 62
7
  0
LINE
  6
BYLAYER
  8
0
 10
65.1515970080088
 11
65.1515970080088
 20
-68.6244669128793
 21
-70.2604346548146
 62
7
  0
LINE
  6
BYLAYER
  8
0
 10
65.1515970080088
 11
70.9401453951054
 20
-70.2604346548146
 21
-70.2604346548146
 62
7
  0
LINE
  6
BYLAYER
  8
0
 10
70.9401453951054
 11
70.9401453951054
 20
-70.2604346548146
 21
-73.494265299976
 62
7
  0
LINE
  6
BYLAYER
  8
0
 10
70.9401453951054
 11
72.5938953951055
 20
-73.494265299976
 21
-73.494265299976
 62
7
  0
LINE
  6
BYLAYER
  8
0
 10
72.5938953951055
 11
72.5938953951055
 20
-73.494265299976
 21
-73.494265299976
 62
7
  0
LINE
  6
BYLAYER
  8
0
 10
66.6766373305893
 11
70.9215163628474
 20
-68.7895878806212
 21
-62.8545475580406
 62
7
  0
LINE
  6
BYLAYER
  8
0
 10
70.9215163628474
 11
70.9215163628474
 20
-62.8545475580406
 21
-68.7895878806212
 62
7
  0
LINE
  6
BYLAYER
  8
0
 10
70.9215163628474
 11
66.6766373305893
 20
-68.7895878806212
 21
-68.7895878806212
 62
7
  0
LINE
  6
BYLAYER
  8
0
 10
66.6766373305893
 11
66.6766373305893
 20
-68.7895878806212
 21
-68.7895878806212
 62
7
  0
LINE
  6
BYLAYER
  8
0
 10
-132.521056303847
 11
-124.417003884492
 20
14.0266217967983
 21
14.0266217967983
 62
7
  0
LINE
  6
BYLAYER
  8
0
 10
-135.704673239331
 11
-124.219536142557
 20
37.2544847000241
 21
37.2544847000241
 62
7
  0
LINE
  6
BYLAYER
  8
0
 10
-132.249919207073
 11
-124.587120819976
 20
8.54206534518531
 21
8.54206534518531
 62
7
  0
LINE
  6
BYLAYER
  8
0
 10
-137.46875791675
 11
-135.704673239331
 20
43.0616621193788
 21
37.2544847000241
 62
7
  0
LINE
  6
BYLAYER
  8
0
 10
-135.704673239331
 11
-135.116588561911
 20
37.2544847000241
 21
33.5794847000239
 62
7
  0
LINE
  6
BYLAYER
  8
0
 10
-135.116588561911
 11
-134.381588561911
 20
33.5794847000239
 21
28.7274685709918
 62
7
  0
LINE
  6
BYLAYER
  8
0
 10
-134.381588561911
 11
-133.210076465137
 20
28.7274685709918
 21
18.4510169580886
 62
7
  0
LINE
  6
BYLAYER
  8
0
 10
-133.210076465137
 11
-132.249919207073
 20
18.4510169580886
 21
8.14662179679826
 62
7
  0
LINE
  6
BYLAYER
  8
0
 10
-137.46875791675
 11
-124.219536142557
 20
42.8406540548628
 21
42.8406540548628
 62
7
  0
LINE
  6
BYLAYER
  8
0
 10
-18.5697216264276
 11
-12.7303667877179
 20
8.58779115163688
 21
8.58779115163688
 62
7
  0
LINE
  6
BYLAYER
  8
0
 10
-18.5697216264276
 11
-11.2603667877179
 20
14.0266217967983
 21
14.0266217967983
 62
7
  0
LINE
  6
BYLAYER
  8
0
 10
-18.5697216264276
 11
-8.90802807804053
 20
37.2544847000241
 21
37.2544847000241
 62
7
  0
LINE
  6
BYLAYER
  8
0
 10
-18.5697216264276
 11
-7.80637485223406
 20
42.8406540548628
 21
42.8406540548628
 62
7
  0
LINE
  6
BYLAYER
  8
0
 10
-7.92153614255665
 11
-8.14169743287925
 20
43.1251701838949
 21
40.1123476032499
 62
7
  0
LINE
  6
BYLAYER
  8
0
 10
-8.14169743287925
 11
-8.72935872320173
 20
40.1123476032499
 21
38.0538395387337
 62
7
  0
LINE
  6
BYLAYER
  8
0
 10
-8.72935872320173
 11
-9.17052807804043
 20
38.0538395387337
 21
33.202670183895
 62
7
  0
LINE
  6
BYLAYER
  8
0
 10
-9.17052807804043
 11
-9.90552807804045
 20
33.202670183895
 21
30.2626701838949
 62
7
  0
LINE
  6
BYLAYER
  8
0
 10
-9.90552807804045
 11
-10.0892780780404
 20
30.2626701838949
 21
25.9441217967982
 62
7
  0
LINE
  6
BYLAYER
  8
0
 10
-10.0892780780404
 11
-10.4940361425567
 20
25.9441217967982
 21
21.7365008290563
 62
7
  0
LINE
  6
BYLAYER
  8
0
 10
-10.4940361425567
 11
-10.9352054973953
 20
21.7365008290563
 21
18.20799276454
 62
7
  0
LINE
  6
BYLAYER
  8
0
 10
-10.9352054973953
 11
-11.3755280780404
 20
18.20799276454
 21
13.6506540548628
 62
7
  0
LINE
  6
BYLAYER
  8
0
 10
-11.3755280780404
 11
-12.2578667877179
 20
13.6506540548628
 21
10.8571459903465
 62
7
  0
LINE
  6
BYLAYER
  8
0
 10
-12.2578667877179
 11
-12.8777054973953
 20
10.8571459903465
 21
8.14662179679826
 62
7
  0
LINE
  6
BYLAYER
  8
0
 10
-18.9050442070727
 11
-124.090911142557
 20
-78.883136267718
 21
-78.883136267718
 62
7
  0
LINE
  6
BYLAYER
  8
0
 10
-18.8635522715889
 11
-18.8635522715889
 20
-31.1775717515889
 21
-82.411644332234
 62
7
  0
LINE
  6
BYLAYER
  8
0
 10
-124.049503884492
 11
-124.049503884492
 20
-33.5078943322341
 21
-83.1966040096534
 62
7
  0
LINE
  6
BYLAYER
  8
0
 10
-174.221128884492
 11
-174.221128884492
 20
-28.6279346548147
 21
79.4966621193788
 62
7
  0
LINE
  6
BYLAYER
  8
0
 10
-129.530249852234
 11
-177.161298239331
 20
-28.6279346548147
 21
-28.6279346548147
 62
7
  0
LINE
  6
BYLAYER
  8
0
 10
-130.118334529653
 11
-177.82288291675
 20
79.4966621193788
 21
79.4966621193788
 62
7
  0
LINE
  6
BYLAYER
  8
0
 10
168.233653459622
 11
168.233653459622
 20
62.5857347000241
 21
-12.0946685257825
 62
7
  0
LINE
  6
BYLAYER
  8
0
 10
120.381597008009
 11
172.993371201557
 20
47.7426298613143
 21
47.7426298613143
 62
7
  0
LINE
  6
BYLAYER
  8
0
 10
121.948129266073
 11
173.010306685428
 20
3.24464599034653
 21
3.24464599034653
 62
7
  0
LINE
  6
BYLAYER
  8
0
 10
61.2835324918797
 11
62.4597018467184
 20
-113.870999170944
 21
-113.379870138686
 62
7
  0
LINE
  6
BYLAYER
  8
0
 10
62.4597018467184
 11
62.9508308789764
 20
-113.379870138686
 21
-112.203700783847
 62
7
  0
LINE
  6
BYLAYER
  8
0
 10
62.9508308789764
 11
62.4597018467184
 20
-112.203700783847
 21
-111.027531429008
 62
7
  0
LINE
  6
BYLAYER
  8
0
 10
62.4597018467184
 11
61.2835324918797
 20
-111.027531429008
 21
-110.540636267718
 62
7
  0
LINE
  6
BYLAYER
  8
0
 10
61.2835324918797
 11
60.1031292660733
 20
-110.540636267718
 21
-111.027531429008
 62
7
  0
LINE
  6
BYLAYER
  8
0
 10
60.1031292660733
 11
59.6162341047829
 20
-111.027531429008
 21
-112.203700783847
 62
7
  0
LINE
  6
BYLAYER
  8
0
 10
59.6162341047829
 11
60.1031292660733
 20
-112.203700783847
 21
-113.379870138686
 62
7
  0
LINE
  6
BYLAYER
  8
0
 10
60.1031292660733
 11
61.2835324918797
 20
-113.379870138686
 21
-113.870999170944
 62
7
  0
LINE
  6
BYLAYER
  8
0
 10
61.2835324918797
 11
61.2835324918797
 20
-113.870999170944
 21
-113.870999170944
 62
7
  0
LINE
  6
BYLAYER
  8
0
 10
21.1278066854281
 11
137.163814749944
 20
-112.276523364492
 21
-112.276523364492
 62
7
  0
LINE
  6
BYLAYER
  8
0
 10
37.959984104783
 11
130.869742169299
 20
-79.006765299976
 21
-79.006765299976
 62
7
  0
LINE
  6
BYLAYER
  8
0
 10
118.250266362847
 11
118.250266362847
 20
-83.5869669128793
 21
-116.246200783847
 62
7
  0
LINE
  6
BYLAYER
  8
0
 10
118.250266362847
 11
118.250266362847
 20
-0.84357981610512
 21
-74.4731362677179
 62
7
  0
LINE
  6
BYLAYER
  8
0
 10
104.233613137041
 11
104.233613137041
 20
-16.9178943322341
 21
-84.1754749773954
 62
7
  0
LINE
  6
BYLAYER
  8
0
 10
61.2835324918797
 11
61.2835324918797
 20
3.24464599034653
 21
-116.540031429008
 62
7
  0
LINE
  6
BYLAYER
  8
0
 10
53.7133712015571
 11
53.7861937822023
 20
-82.8020072354599
 21
-116.467208848363
 62
7
  0
LINE
  6
BYLAYER
  8
0
 10
53.6388550725249
 11
53.7133712015571
 20
8.95529115163689
 21
-75.2580959451373
 62
7
  0
LINE
  6
BYLAYER
  8
0
 10
56.2850244273637
 11
55.5500244273636
 20
-27.6270475580406
 21
-27.3289830419114
 62
7
  0
LINE
  6
BYLAYER
  8
0
 10
55.5500244273636
 11
55.2561937822023
 20
-27.3289830419114
 21
-26.6439427193309
 62
7
  0
LINE
  6
BYLAYER
  8
0
 10
55.2561937822023
 11
55.2561937822023
 20
-26.6439427193309
 21
5.33109760324984
 62
7
  0
LINE
  6
BYLAYER
  8
0
 10
55.2561937822023
 11
57.2181695886538
 20
5.33109760324984
 21
7.46242824841099
 62
7
  0
LINE
  6
BYLAYER
  8
0
 10
57.2181695886538
 11
61.2835324918797
 20
7.46242824841099
 21
7.46242824841099
 62
7
  0
LINE
  6
BYLAYER
  8
0
 10
61.2835324918797
 11
61.2835324918797
 20
7.46242824841099
 21
43.8195250226046
 62
7
  0
LINE
  6
BYLAYER
  8
0
 10
61.2835324918797
 11
57.2181695886538
 20
43.8195250226046
 21
43.8195250226046
 62
7
  0
LINE
  6
BYLAYER
  8
0
 10
57.2181695886538
 11
55.2561937822023
 20
43.8195250226046
 21
45.9279927645402
 62
7
  0
LINE
  6
BYLAYER
  8
0
 10
55.2561937822023
 11
55.2561937822023
 20
45.9279927645402
 21
64.2818234097014
 62
7
  0
LINE
  6
BYLAYER
  8
0
 10
55.2561937822023
 11
57.0894599112346
 20
64.2818234097014
 21
77.503355667766
 62
7
  0
LINE
  6
BYLAYER
  8
0
 10
57.0894599112346
 11
58.0539357176861
 20
77.503355667766
 21
78.4864605064757
 62
7
  0
LINE
  6
BYLAYER
  8
0
 10
58.0539357176861
 11
70.2288550725248
 20
78.4864605064757
 21
79.4966621193788
 62
7
  0
LINE
  6
BYLAYER
  8
0
 10
70.2288550725248
 11
85.8289760402667
 20
79.4966621193788
 21
78.4864605064757
 62
7
  0
LINE
  6
BYLAYER
  8
0
 10
85.8289760402667
 11
86.6240970080087
 20
78.4864605064757
 21
78.187549216153
 62
7
  0
LINE
  6
BYLAYER
  8
0
 10
86.6240970080087
 11
86.8865970080088
 20
78.187549216153
 21
77.4381540548626
 62
7
  0
LINE
  6
BYLAYER
  8
0
 10
86.8865970080088
 11
86.8865970080088
 20
77.4381540548626
 21
64.3038395387337
 62
7
  0
LINE
  6
BYLAYER
  8
0
 10
86.8865970080088
 11
103.108250233815
 20
64.3038395387337
 21
64.3038395387337
 62
7
  0
LINE
  6
BYLAYER
  8
0
 10
103.108250233815
 11
103.86103249188
 20
64.3038395387337
 21
64.0379524419595
 62
7
  0
LINE
  6
BYLAYER
  8
0
 10
103.86103249188
 11
104.233613137041
 20
64.0379524419595
 21
63.3258153451853
 62
7
  0
LINE
  6
BYLAYER
  8
0
 10
104.233613137041
 11
104.233613137041
 20
63.3258153451853
 21
47.7426298613143
 62
7
  0
LINE
  6
BYLAYER
  8
0
 10
104.233613137041
 11
117.36792765317
 20
47.7426298613143
 21
47.7426298613143
 62
7
  0
LINE
  6
BYLAYER
  8
0
 10
117.36792765317
 11
118.250266362847
 20
47.7426298613143
 21
46.8602911516369
 62
7
  0
LINE
  6
BYLAYER
  8
0
 10
118.250266362847
 11
118.250266362847
 20
46.8602911516369
 21
4.22775082905619
 62
7
  0
LINE
  6
BYLAYER
  8
0
 10
118.250266362847
 11
117.074097008009
 20
4.22775082905619
 21
3.24464599034653
 62
7
  0
LINE
  6
BYLAYER
  8
0
 10
117.074097008009
 11
104.233613137041
 20
3.24464599034653
 21
3.24464599034653
 62
7
  0
LINE
  6
BYLAYER
  8
0
 10
104.233613137041
 11
104.233613137041
 20
3.24464599034653
 21
-12.2369265902987
 62
7
  0
LINE
  6
BYLAYER
  8
0
 10
104.233613137041
 11
103.944016362847
 20
-12.2369265902987
 21
-12.9490636870728
 62
7
  0
LINE
  6
BYLAYER
  8
0
 10
103.944016362847
 11
103.108250233815
 20
-12.9490636870728
 21
-13.2200314290083
 62
7
  0
LINE
  6
BYLAYER
  8
0
 10
103.108250233815
 11
86.8865970080088
 20
-13.2200314290083
 21
-13.2200314290083
 62
7
  0
LINE
  6
BYLAYER
  8
0
 10
86.8865970080088
 11
86.8865970080088
 20
-13.2200314290083
 21
-26.5702733644921
 62
7
  0
LINE
  6
BYLAYER
  8
0
 10
86.8865970080088
 11
86.6054679757506
 20
-26.5702733644921
 21
-27.3188217515888
 62
7
  0
LINE
  6
BYLAYER
  8
0
 10
86.6054679757506
 11
85.6138953951055
 20
-27.3188217515888
 21
-27.6270475580406
 62
7
  0
LINE
  6
BYLAYER
  8
0
 10
59.8372421692991
 11
59.8372421692991
 20
8.46416211937887
 21
12.7547669580884
 62
7
  0
LINE
  6
BYLAYER
  8
0
 10
59.8372421692991
 11
59.0556695886538
 20
12.7547669580884
 21
13.8293234097013
 62
7
  0
LINE
  6
BYLAYER
  8
0
 10
59.0556695886538
 11
54.8387341047829
 20
13.8293234097013
 21
13.8293234097013
 62
7
  0
LINE
  6
BYLAYER
  8
0
 10
54.8387341047829
 11
54.4940970080087
 20
13.8293234097013
 21
13.9300895387336
 62
7
  0
LINE
  6
BYLAYER
  8
0
 10
54.4940970080087
 11
54.1536937822022
 20
13.9300895387336
 21
14.6151298613143
 62
7
  0
LINE
  6
BYLAYER
  8
0
 10
54.1536937822022
 11
54.1536937822022
 20
14.6151298613143
 21
36.2756137322821
 62
7
  0
LINE
  6
BYLAYER
  8
0
 10
54.1536937822022
 11
54.3882502338152
 20
36.2756137322821
 21
36.8827508290563
 62
7
  0
LINE
  6
BYLAYER
  8
0
 10
54.3882502338152
 11
54.9395002338151
 20
36.8827508290563
 21
37.1579524419594
 62
7
  0
LINE
  6
BYLAYER
  8
0
 10
54.9395002338151
 11
58.8583712015572
 20
37.1579524419594
 21
37.1579524419594
 62
7
  0
LINE
  6
BYLAYER
  8
0
 10
58.8583712015572
 11
59.7119195886539
 20
37.1579524419594
 21
37.6499282484111
 62
7
  0
LINE
  6
BYLAYER
  8
0
 10
59.7119195886539
 11
59.8372421692991
 20
37.6499282484111
 21
38.1368234097014
 62
7
  0
LINE
  6
BYLAYER
  8
0
 10
59.8372421692991
 11
59.8372421692991
 20
38.1368234097014
 21
42.7678314742175
 62
7
  0
LINE
  6
BYLAYER
  8
0
 10
103.328411524138
 11
86.8865970080088
 20
3.24464599034653
 21
3.24464599034653
 62
7
  0
LINE
  6
BYLAYER
  8
0
 10
86.8865970080088
 11
86.8865970080088
 20
3.24464599034653
 21
-12.2140636870728
 62
7
  0
LINE
  6
BYLAYER
  8
0
 10
86.8865970080088
 11
86.8865970080088
 20
63.5468234097015
 21
47.7426298613143
 62
7
  0
LINE
  6
BYLAYER
  8
0
 10
86.8865970080088
 11
103.328411524138
 20
47.7426298613143
 21
47.7426298613143
 62
7
  0
LINE
  6
BYLAYER
  8
0
 10
70.2288550725248
 11
70.2288550725248
 20
-28.6279346548147
 21
79.4966621193788
 62
7
  0
LINE
  6
BYLAYER
  8
0
 10
86.0550647499443
 11
70.2288550725248
 20
-27.6270475580406
 21
-28.6279346548147
 62
7
  0
LINE
  6
BYLAYER
  8
0
 10
70.2288550725248
 11
56.1385324918797
 20
-28.6279346548147
 21
-27.6863217515889
 62
7
  0
ENDSEC
  0
EOF
