  0
SECTION
  2
HEADER
  9
$CECOLOR
 62
256
  9
$CELTYPE
  6
CONTINUOUS
  9
$CLAYER
  8
0
  9
$TEXTSTYLE
  7
STANDARD
  9
$DWGCODEPAGE
  3
ANSI_1252
  9
$LTSCALE
 40
1
  0
ENDSEC
  0
SECTION
  2
TABLES
  0
TABLE
  2
LTYPE
 70
5
  0
LTYPE
  2
CONTINUOUS
  3
CONTINUOUS
 70
0
 72
65
 73
0
 40
0
  0
LTYPE
  2
DASHED
  3
DASHED
 70
0
 72
65
 73
2
 40
0.75
 49
0.5
 49
-0.25
  0
LTYPE
  2
DOT
  3
DOT
 70
0
 72
65
 73
2
 40
0.25
 49
0
 49
-0.25
  0
LTYPE
  2
DASHDOT
  3
DASHDOT
 70
0
 72
65
 73
4
 40
1
 49
0.5
 49
-0.25
 49
0
 49
-0.25
  0
LTYPE
  2
DIVIDE
  3
DIVIDE
 70
0
 72
65
 73
6
 40
1.25
 49
0.5
 49
-0.25
 49
0
 49
-0.25
 49
0
 49
-0.25
  0
ENDTAB
  0
TABLE
  2
LAYER
 70
3
  0
LAYER
  2
0
  6
CONTINUOUS
 70
0
 62
7
  0
LAYER
  2
_FLOOR1_W
  6
CONTINUOUS
 70
4
 62
7
  0
LAYER
  2
_FLOOR1_WH
  6
CONTINUOUS
 70
5
 62
1
  0
ENDTAB
  0
TABLE
  2
STYLE
 70
3
  0
STYLE
  2
STANDARD
 70
0
 40
0
 41
1
 50
0
 71
0
 42
1
  3
TXT.SHX
  0
STYLE
  2
ANNOTATIVE
 70
0
 40
0
 41
1
 50
0
 71
0
 42
1
  3
ROMANS.SHX
  0
STYLE
  2
ATTRIBUTI_SCATOLA
 70
0
 40
0
 41
1
 50
0
 71
0
 42
1
  3
ROMANS.SHX
  0
ENDTAB
  0
ENDSEC
  0
SECTION
  2
BLOCKS
  0
BLOCK
  2
*MODEL_SPACE
 10
0
 20
0
 70
1
  0
ENDBLK
  0
BLOCK
  2
*PAPER_SPACE
 10
0
 20
0
 70
1
  0
ENDBLK
  0
ENDSEC
  0
SECTION
  2
ENTITIES
  0
LINE
  6
BYLAYER
  8
0
 10
61.3190485255794
 11
61.3190485255794
 20
14.3509682479014
 21
16.8531716377319
 62
7
  0
LINE
  6
BYLAYER
  8
0
 10
63.8639637798167
 11
61.3190485255794
 20
16.8379174004437
 21
16.8531716377319
 62
7
  0
LINE
  6
BYLAYER
  8
0
 10
61.3190485255794
 11
60.8306586950709
 20
16.8531716377319
 21
16.7552902817997
 62
7
  0
LINE
  6
BYLAYER
  8
0
 10
60.8306586950709
 11
60.4335400510032
 20
16.7552902817997
 21
16.4875784173929
 62
7
  0
LINE
  6
BYLAYER
  8
0
 10
60.4335400510032
 11
60.1658281865964
 20
16.4875784173929
 21
16.0904597733251
 62
7
  0
LINE
  6
BYLAYER
  8
0
 10
60.1658281865964
 11
60.0679468306642
 20
16.0904597733251
 21
15.6020699428166
 62
7
  0
LINE
  6
BYLAYER
  8
0
 10
60.0679468306642
 11
60.1658281865964
 20
15.6020699428166
 21
15.115205536037
 62
7
  0
LINE
  6
BYLAYER
  8
0
 10
60.1658281865964
 11
60.4335400510032
 20
15.115205536037
 21
14.717832654681
 62
7
  0
LINE
  6
BYLAYER
  8
0
 10
60.4335400510032
 11
60.8306586950709
 20
14.717832654681
 21
14.4501207902743
 62
7
  0
LINE
  6
BYLAYER
  8
0
 10
60.8306586950709
 11
61.3190485255794
 20
14.4501207902743
 21
14.3509682479014
 62
7
  0
LINE
  6
BYLAYER
  8
0
 10
61.3190485255794
 11
63.8639637798167
 20
14.3509682479014
 21
14.3662224851895
 62
7
  0
LINE
  6
BYLAYER
  8
0
 10
59.3616756442235
 11
59.3616756442235
 20
17.5441885868844
 21
13.5717309597658
 62
7
  0
LINE
  6
BYLAYER
  8
0
 10
59.3616756442235
 11
63.8639637798167
 20
13.5717309597658
 21
13.5717309597658
 62
7
  0
LINE
  6
BYLAYER
  8
0
 10
63.8639637798167
 11
63.8639637798167
 20
13.5717309597658
 21
17.5441885868844
 62
7
  0
LINE
  6
BYLAYER
  8
0
 10
63.8639637798167
 11
59.3616756442235
 20
17.5441885868844
 21
17.5441885868844
 62
7
  0
LINE
  6
BYLAYER
  8
0
 10
59.3616756442235
 11
59.3616756442235
 20
17.5441885868844
 21
17.5441885868844
 62
7
  0
LINE
  6
BYLAYER
  8
0
 10
61.3409129323591
 11
61.3409129323591
 20
-10.5431842944715
 21
-8.04098090464098
 62
7
  0
LINE
  6
BYLAYER
  8
0
 10
63.8858281865964
 11
61.3409129323591
 20
-8.05623514192911
 21
-8.04098090464098
 62
7
  0
LINE
  6
BYLAYER
  8
0
 10
61.3409129323591
 11
60.8530315764269
 20
-8.04098090464098
 21
-8.13886226057318
 62
7
  0
LINE
  6
BYLAYER
  8
0
 10
60.8530315764269
 11
60.455658695071
 20
-8.13886226057318
 21
-8.40657412497999
 62
7
  0
LINE
  6
BYLAYER
  8
0
 10
60.455658695071
 11
60.1879468306642
 20
-8.40657412497999
 21
-8.80369276904776
 62
7
  0
LINE
  6
BYLAYER
  8
0
 10
60.1879468306642
 11
60.0898112374438
 20
-8.80369276904776
 21
-9.29208259955623
 62
7
  0
LINE
  6
BYLAYER
  8
0
 10
60.0898112374438
 11
60.1879468306642
 20
-9.29208259955623
 21
-9.7789470063359
 62
7
  0
LINE
  6
BYLAYER
  8
0
 10
60.1879468306642
 11
60.455658695071
 20
-9.7789470063359
 21
-10.1763198876918
 62
7
  0
LINE
  6
BYLAYER
  8
0
 10
60.455658695071
 11
60.8530315764269
 20
-10.1763198876918
 21
-10.4437775148105
 62
7
  0
LINE
  6
BYLAYER
  8
0
 10
60.8530315764269
 11
61.3409129323591
 20
-10.4437775148105
 21
-10.5431842944715
 62
7
  0
LINE
  6
BYLAYER
  8
0
 10
61.3409129323591
 11
63.8858281865964
 20
-10.5431842944715
 21
-10.5279300571834
 62
7
  0
LINE
  6
BYLAYER
  8
0
 10
59.3835400510031
 11
59.3835400510031
 20
-7.34996395548844
 21
-11.3224215826071
 62
7
  0
LINE
  6
BYLAYER
  8
0
 10
59.3835400510031
 11
63.8858281865964
 20
-11.3224215826071
 21
-11.3224215826071
 62
7
  0
LINE
  6
BYLAYER
  8
0
 10
63.8858281865964
 11
63.8858281865964
 20
-11.3224215826071
 21
-7.34996395548844
 62
7
  0
LINE
  6
BYLAYER
  8
0
 10
63.8858281865964
 11
59.3835400510031
 20
-7.34996395548844
 21
-7.34996395548844
 62
7
  0
LINE
  6
BYLAYER
  8
0
 10
59.3835400510031
 11
59.3835400510031
 20
-7.34996395548844
 21
-7.34996395548844
 62
7
  0
LINE
  6
BYLAYER
  8
0
 10
61.3190485255794
 11
61.3190485255794
 20
-5.57742158260708
 21
-3.07547243006474
 62
7
  0
LINE
  6
BYLAYER
  8
0
 10
63.8639637798167
 11
61.3190485255794
 20
-3.09072666735287
 21
-3.07547243006474
 62
7
  0
LINE
  6
BYLAYER
  8
0
 10
61.3190485255794
 11
60.8306586950709
 20
-3.07547243006474
 21
-3.17335378599694
 62
7
  0
LINE
  6
BYLAYER
  8
0
 10
60.8306586950709
 11
60.4335400510032
 20
-3.17335378599694
 21
-3.44106565040369
 62
7
  0
LINE
  6
BYLAYER
  8
0
 10
60.4335400510032
 11
60.1658281865964
 20
-3.44106565040369
 21
-3.83818429447152
 62
7
  0
LINE
  6
BYLAYER
  8
0
 10
60.1658281865964
 11
60.0679468306642
 20
-3.83818429447152
 21
-4.32657412497997
 62
7
  0
LINE
  6
BYLAYER
  8
0
 10
60.0679468306642
 11
60.1658281865964
 20
-4.32657412497997
 21
-4.81343853175963
 62
7
  0
LINE
  6
BYLAYER
  8
0
 10
60.1658281865964
 11
60.4335400510032
 20
-4.81343853175963
 21
-5.21055717582745
 62
7
  0
LINE
  6
BYLAYER
  8
0
 10
60.4335400510032
 11
60.8306586950709
 20
-5.21055717582745
 21
-5.4782690402342
 62
7
  0
LINE
  6
BYLAYER
  8
0
 10
60.8306586950709
 11
61.3190485255794
 20
-5.4782690402342
 21
-5.57742158260708
 62
7
  0
LINE
  6
BYLAYER
  8
0
 10
61.3190485255794
 11
63.8639637798167
 20
-5.57742158260708
 21
-5.56242158260708
 62
7
  0
LINE
  6
BYLAYER
  8
0
 10
59.3616756442235
 11
59.3616756442235
 20
-2.38445548091217
 21
-6.35691310803081
 62
7
  0
LINE
  6
BYLAYER
  8
0
 10
59.3616756442235
 11
63.8639637798167
 20
-6.35691310803081
 21
-6.35691310803081
 62
7
  0
LINE
  6
BYLAYER
  8
0
 10
63.8639637798167
 11
63.8639637798167
 20
-6.35691310803081
 21
-2.38445548091217
 62
7
  0
LINE
  6
BYLAYER
  8
0
 10
63.8639637798167
 11
59.3616756442235
 20
-2.38445548091217
 21
-2.38445548091217
 62
7
  0
LINE
  6
BYLAYER
  8
0
 10
59.3616756442235
 11
59.3616756442235
 20
-2.38445548091217
 21
-2.38445548091217
 62
7
  0
LINE
  6
BYLAYER
  8
0
 10
61.3409129323591
 11
61.3409129323591
 20
-0.523692769047784
 21
1.97851062078274
 62
7
  0
LINE
  6
BYLAYER
  8
0
 10
63.8858281865964
 11
61.3409129323591
 20
1.96325638349459
 21
1.97851062078274
 62
7
  0
LINE
  6
BYLAYER
  8
0
 10
61.3409129323591
 11
60.8530315764269
 20
1.97851062078274
 21
1.88062926485054
 62
7
  0
LINE
  6
BYLAYER
  8
0
 10
60.8530315764269
 11
60.455658695071
 20
1.88062926485054
 21
1.61291740044373
 62
7
  0
LINE
  6
BYLAYER
  8
0
 10
60.455658695071
 11
60.1879468306642
 20
1.61291740044373
 21
1.21579875637597
 62
7
  0
LINE
  6
BYLAYER
  8
0
 10
60.1879468306642
 11
60.0898112374438
 20
1.21579875637597
 21
0.727408925867465
 62
7
  0
LINE
  6
BYLAYER
  8
0
 10
60.0898112374438
 11
60.1879468306642
 20
0.727408925867465
 21
0.240544519087806
 62
7
  0
LINE
  6
BYLAYER
  8
0
 10
60.1879468306642
 11
60.455658695071
 20
0.240544519087806
 21
-0.156828362268129
 62
7
  0
LINE
  6
BYLAYER
  8
0
 10
60.455658695071
 11
60.8530315764269
 20
-0.156828362268129
 21
-0.424540226674885
 62
7
  0
LINE
  6
BYLAYER
  8
0
 10
60.8530315764269
 11
61.3409129323591
 20
-0.424540226674885
 21
-0.523692769047784
 62
7
  0
LINE
  6
BYLAYER
  8
0
 10
61.3409129323591
 11
63.8858281865964
 20
-0.523692769047784
 21
-0.508438531759651
 62
7
  0
LINE
  6
BYLAYER
  8
0
 10
59.3835400510031
 11
59.3835400510031
 20
2.66952756993526
 21
-1.30293005718338
 62
7
  0
LINE
  6
BYLAYER
  8
0
 10
59.3835400510031
 11
63.8858281865964
 20
-1.30293005718338
 21
-1.30293005718338
 62
7
  0
LINE
  6
BYLAYER
  8
0
 10
63.8858281865964
 11
63.8858281865964
 20
-1.30293005718338
 21
2.66952756993526
 62
7
  0
LINE
  6
BYLAYER
  8
0
 10
63.8858281865964
 11
59.3835400510031
 20
2.66952756993526
 21
2.66952756993526
 62
7
  0
LINE
  6
BYLAYER
  8
0
 10
59.3835400510031
 11
59.3835400510031
 20
2.66952756993526
 21
2.66952756993526
 62
7
  0
LINE
  6
BYLAYER
  8
0
 10
61.363285813715
 11
61.363285813715
 20
4.46393434959628
 21
6.96613773942679
 62
7
  0
LINE
  6
BYLAYER
  8
0
 10
63.9079468306642
 11
61.363285813715
 20
6.95088350213868
 21
6.96613773942679
 62
7
  0
LINE
  6
BYLAYER
  8
0
 10
61.363285813715
 11
60.8748959832065
 20
6.96613773942679
 21
6.86825638349461
 62
7
  0
LINE
  6
BYLAYER
  8
0
 10
60.8748959832065
 11
60.4775231018506
 20
6.86825638349461
 21
6.60054451908783
 62
7
  0
LINE
  6
BYLAYER
  8
0
 10
60.4775231018506
 11
60.2098112374438
 20
6.60054451908783
 21
6.20342587502001
 62
7
  0
LINE
  6
BYLAYER
  8
0
 10
60.2098112374438
 11
60.1121841187998
 20
6.20342587502001
 21
5.71503604451156
 62
7
  0
LINE
  6
BYLAYER
  8
0
 10
60.1121841187998
 11
60.2098112374438
 20
5.71503604451156
 21
5.2281716377319
 62
7
  0
LINE
  6
BYLAYER
  8
0
 10
60.2098112374438
 11
60.4775231018506
 20
5.2281716377319
 21
4.83079875637596
 62
7
  0
LINE
  6
BYLAYER
  8
0
 10
60.4775231018506
 11
60.8748959832065
 20
4.83079875637596
 21
4.56308689196918
 62
7
  0
LINE
  6
BYLAYER
  8
0
 10
60.8748959832065
 11
61.363285813715
 20
4.56308689196918
 21
4.46393434959628
 62
7
  0
LINE
  6
BYLAYER
  8
0
 10
61.363285813715
 11
63.9079468306642
 20
4.46393434959628
 21
4.47918858688442
 62
7
  0
LINE
  6
BYLAYER
  8
0
 10
59.4059129323591
 11
59.4059129323591
 20
7.65715468857933
 21
3.68469706146069
 62
7
  0
LINE
  6
BYLAYER
  8
0
 10
59.4059129323591
 11
63.9079468306642
 20
3.68469706146069
 21
3.68469706146069
 62
7
  0
LINE
  6
BYLAYER
  8
0
 10
63.9079468306642
 11
63.9079468306642
 20
3.68469706146069
 21
7.65715468857933
 62
7
  0
LINE
  6
BYLAYER
  8
0
 10
63.9079468306642
 11
59.4059129323591
 20
7.65715468857933
 21
7.65715468857933
 62
7
  0
LINE
  6
BYLAYER
  8
0
 10
59.4059129323591
 11
59.4059129323591
 20
7.65715468857933
 21
7.65715468857933
 62
7
  0
LINE
  6
BYLAYER
  8
0
 10
61.3409129323591
 11
61.3409129323591
 20
9.42969706146069
 21
11.9313919767149
 62
7
  0
LINE
  6
BYLAYER
  8
0
 10
63.8858281865964
 11
61.3409129323591
 20
11.9166462140031
 21
11.9313919767149
 62
7
  0
LINE
  6
BYLAYER
  8
0
 10
61.3409129323591
 11
60.8530315764269
 20
11.9313919767149
 21
11.8337648580709
 62
7
  0
LINE
  6
BYLAYER
  8
0
 10
60.8530315764269
 11
60.455658695071
 20
11.8337648580709
 21
11.5660529936641
 62
7
  0
LINE
  6
BYLAYER
  8
0
 10
60.455658695071
 11
60.1879468306642
 20
11.5660529936641
 21
11.1686801123081
 62
7
  0
LINE
  6
BYLAYER
  8
0
 10
60.1879468306642
 11
60.0898112374438
 20
11.1686801123081
 21
10.6807987563759
 62
7
  0
LINE
  6
BYLAYER
  8
0
 10
60.0898112374438
 11
60.1879468306642
 20
10.6807987563759
 21
10.1939343495963
 62
7
  0
LINE
  6
BYLAYER
  8
0
 10
60.1879468306642
 11
60.455658695071
 20
10.1939343495963
 21
9.79656146824035
 62
7
  0
LINE
  6
BYLAYER
  8
0
 10
60.455658695071
 11
60.8530315764269
 20
9.79656146824035
 21
9.52884960383357
 62
7
  0
LINE
  6
BYLAYER
  8
0
 10
60.8530315764269
 11
61.3409129323591
 20
9.52884960383357
 21
9.42969706146069
 62
7
  0
LINE
  6
BYLAYER
  8
0
 10
61.3409129323591
 11
63.8858281865964
 20
9.42969706146069
 21
9.44495129874885
 62
7
  0
LINE
  6
BYLAYER
  8
0
 10
59.3835400510031
 11
59.3835400510031
 20
12.6229174004438
 21
8.65045977332512
 62
7
  0
LINE
  6
BYLAYER
  8
0
 10
59.3835400510031
 11
63.8858281865964
 20
8.65045977332512
 21
8.65045977332512
 62
7
  0
LINE
  6
BYLAYER
  8
0
 10
63.8858281865964
 11
63.8858281865964
 20
8.65045977332512
 21
12.6229174004438
 62
7
  0
LINE
  6
BYLAYER
  8
0
 10
63.8858281865964
 11
59.3835400510031
 20
12.6229174004438
 21
12.6229174004438
 62
7
  0
LINE
  6
BYLAYER
  8
0
 10
59.3835400510031
 11
59.3835400510031
 20
12.6229174004438
 21
12.6229174004438
 62
7
  0
LINE
  6
BYLAYER
  8
0
 10
64.8567603899862
 11
64.8567603899862
 20
18.6918157055285
 21
-12.2272520910817
 62
7
  0
LINE
  6
BYLAYER
  8
0
 10
58.4126078476133
 11
68.2996417459184
 20
-12.4479554809122
 21
-12.4479554809122
 62
7
  0
LINE
  6
BYLAYER
  8
0
 10
58.5232010679523
 11
68.2335400510032
 20
18.6918157055285
 21
18.6918157055285
 62
7
  0
LINE
  6
BYLAYER
  8
0
 10
60.7670993730371
 11
60.7670993730371
 20
-14.0217605656579
 21
-15.7872859893867
 62
7
  0
LINE
  6
BYLAYER
  8
0
 10
58.7367603899862
 11
65.7989637798167
 20
-14.0217605656579
 21
-14.0217605656579
 62
7
  0
LINE
  6
BYLAYER
  8
0
 10
65.7989637798167
 11
65.7989637798167
 20
-14.0217605656579
 21
-15.7872859893867
 62
7
  0
LINE
  6
BYLAYER
  8
0
 10
65.7989637798167
 11
58.6485400510031
 20
-15.7872859893867
 21
-15.7872859893867
 62
7
  0
LINE
  6
BYLAYER
  8
0
 10
60.5535400510032
 11
60.5535400510032
 20
21.9066462140031
 21
20.1412224851895
 62
7
  0
LINE
  6
BYLAYER
  8
0
 10
58.5232010679523
 11
65.5851502204946
 20
21.9066462140031
 21
21.9066462140031
 62
7
  0
LINE
  6
BYLAYER
  8
0
 10
65.5851502204946
 11
65.5851502204946
 20
21.9066462140031
 21
20.1412224851895
 62
7
  0
LINE
  6
BYLAYER
  8
0
 10
65.5851502204946
 11
58.4347264916811
 20
20.1412224851895
 21
20.1412224851895
 62
7
  0
LINE
  6
BYLAYER
  8
0
 10
27.3709976781218
 11
24.8939637798167
 20
18.9470699428166
 21
21.4241038411217
 62
7
  0
LINE
  6
BYLAYER
  8
0
 10
27.793285813715
 11
25.3157434408337
 20
19.3841038411217
 21
21.8616462140031
 62
7
  0
LINE
  6
BYLAYER
  8
0
 10
28.0869298815116
 11
27.948879034054
 20
20.4048665529861
 21
19.7235106207827
 62
7
  0
LINE
  6
BYLAYER
  8
0
 10
27.948879034054
 11
27.5736247967658
 20
19.7235106207827
 21
19.1677479089183
 62
7
  0
LINE
  6
BYLAYER
  8
0
 10
27.5736247967658
 11
27.0178620849015
 20
19.1677479089183
 21
18.7909682479014
 62
7
  0
LINE
  6
BYLAYER
  8
0
 10
27.0178620849015
 11
26.3367603899862
 20
18.7909682479014
 21
18.6531716377319
 62
7
  0
LINE
  6
BYLAYER
  8
0
 10
26.3367603899862
 11
25.653879034054
 20
18.6531716377319
 21
18.7909682479014
 62
7
  0
LINE
  6
BYLAYER
  8
0
 10
25.653879034054
 11
25.0965908984608
 20
18.7909682479014
 21
19.1677479089183
 62
7
  0
LINE
  6
BYLAYER
  8
0
 10
25.0965908984608
 11
24.7213366611726
 20
19.1677479089183
 21
19.7235106207827
 62
7
  0
LINE
  6
BYLAYER
  8
0
 10
24.7213366611726
 11
24.5848112374438
 20
19.7235106207827
 21
20.4048665529861
 62
7
  0
LINE
  6
BYLAYER
  8
0
 10
24.5848112374438
 11
24.7213366611726
 20
20.4048665529861
 21
21.0874936716302
 62
7
  0
LINE
  6
BYLAYER
  8
0
 10
24.7213366611726
 11
25.0965908984608
 20
21.0874936716302
 21
21.6432563834946
 62
7
  0
LINE
  6
BYLAYER
  8
0
 10
25.0965908984608
 11
25.653879034054
 20
21.6432563834946
 21
22.0200360445115
 62
7
  0
LINE
  6
BYLAYER
  8
0
 10
25.653879034054
 11
26.3367603899862
 20
22.0200360445115
 21
22.1568157055285
 62
7
  0
LINE
  6
BYLAYER
  8
0
 10
26.3367603899862
 11
27.0178620849015
 20
22.1568157055285
 21
22.0200360445115
 62
7
  0
LINE
  6
BYLAYER
  8
0
 10
27.0178620849015
 11
27.5736247967658
 20
22.0200360445115
 21
21.6432563834946
 62
7
  0
LINE
  6
BYLAYER
  8
0
 10
27.5736247967658
 11
27.948879034054
 20
21.6432563834946
 21
21.0874936716302
 62
7
  0
LINE
  6
BYLAYER
  8
0
 10
27.948879034054
 11
28.0869298815116
 20
21.0874936716302
 21
20.4048665529861
 62
7
  0
LINE
  6
BYLAYER
  8
0
 10
28.0869298815116
 11
28.0869298815116
 20
20.4048665529861
 21
20.4048665529861
 62
7
  0
LINE
  6
BYLAYER
  8
0
 10
27.3709976781218
 11
24.8939637798167
 20
13.8862224851895
 21
16.3632563834946
 62
7
  0
LINE
  6
BYLAYER
  8
0
 10
27.793285813715
 11
25.3157434408337
 20
14.3235106207827
 21
16.8007987563759
 62
7
  0
LINE
  6
BYLAYER
  8
0
 10
28.0869298815116
 11
27.948879034054
 20
15.3442733326472
 21
14.6626631631556
 62
7
  0
LINE
  6
BYLAYER
  8
0
 10
27.948879034054
 11
27.5736247967658
 20
14.6626631631556
 21
14.1056292648505
 62
7
  0
LINE
  6
BYLAYER
  8
0
 10
27.5736247967658
 11
27.0178620849015
 20
14.1056292648505
 21
13.7301207902743
 62
7
  0
LINE
  6
BYLAYER
  8
0
 10
27.0178620849015
 11
26.3367603899862
 20
13.7301207902743
 21
13.5925784173929
 62
7
  0
LINE
  6
BYLAYER
  8
0
 10
26.3367603899862
 11
25.653879034054
 20
13.5925784173929
 21
13.7301207902743
 62
7
  0
LINE
  6
BYLAYER
  8
0
 10
25.653879034054
 11
25.0965908984608
 20
13.7301207902743
 21
14.1056292648505
 62
7
  0
LINE
  6
BYLAYER
  8
0
 10
25.0965908984608
 11
24.7213366611726
 20
14.1056292648505
 21
14.6626631631556
 62
7
  0
LINE
  6
BYLAYER
  8
0
 10
24.7213366611726
 11
24.5848112374438
 20
14.6626631631556
 21
15.3442733326472
 62
7
  0
LINE
  6
BYLAYER
  8
0
 10
24.5848112374438
 11
24.7213366611726
 20
15.3442733326472
 21
16.0269004512912
 62
7
  0
LINE
  6
BYLAYER
  8
0
 10
24.7213366611726
 11
25.0965908984608
 20
16.0269004512912
 21
16.5826631631556
 62
7
  0
LINE
  6
BYLAYER
  8
0
 10
25.0965908984608
 11
25.653879034054
 20
16.5826631631556
 21
16.9579174004437
 62
7
  0
LINE
  6
BYLAYER
  8
0
 10
25.653879034054
 11
26.3367603899862
 20
16.9579174004437
 21
17.0946970614607
 62
7
  0
LINE
  6
BYLAYER
  8
0
 10
26.3367603899862
 11
27.0178620849015
 20
17.0946970614607
 21
16.9579174004437
 62
7
  0
LINE
  6
BYLAYER
  8
0
 10
27.0178620849015
 11
27.5736247967658
 20
16.9579174004437
 21
16.5826631631556
 62
7
  0
LINE
  6
BYLAYER
  8
0
 10
27.5736247967658
 11
27.948879034054
 20
16.5826631631556
 21
16.0269004512912
 62
7
  0
LINE
  6
BYLAYER
  8
0
 10
27.948879034054
 11
28.0869298815116
 20
16.0269004512912
 21
15.3442733326472
 62
7
  0
LINE
  6
BYLAYER
  8
0
 10
28.0869298815116
 11
28.0869298815116
 20
15.3442733326472
 21
15.3442733326472
 62
7
  0
LINE
  6
BYLAYER
  8
0
 10
27.3793875086303
 11
24.902099373037
 20
3.88579875637594
 21
6.36334112925732
 62
7
  0
LINE
  6
BYLAYER
  8
0
 10
27.8014214069354
 11
25.323879034054
 20
4.3233411292573
 21
6.80037502756238
 62
7
  0
LINE
  6
BYLAYER
  8
0
 10
28.0965908984608
 11
27.9585400510032
 20
5.3438496038336
 21
4.66274790891831
 62
7
  0
LINE
  6
BYLAYER
  8
0
 10
27.9585400510032
 11
27.5820146272743
 20
4.66274790891831
 21
4.10520553603698
 62
7
  0
LINE
  6
BYLAYER
  8
0
 10
27.5820146272743
 11
27.0249807289693
 20
4.10520553603698
 21
3.73020553603698
 62
7
  0
LINE
  6
BYLAYER
  8
0
 10
27.0249807289693
 11
26.3433705594777
 20
3.73020553603698
 21
3.59215468857936
 62
7
  0
LINE
  6
BYLAYER
  8
0
 10
26.3433705594777
 11
25.6604892035455
 20
3.59215468857936
 21
3.73020553603698
 62
7
  0
LINE
  6
BYLAYER
  8
0
 10
25.6604892035455
 11
25.1047264916811
 20
3.73020553603698
 21
4.10520553603698
 62
7
  0
LINE
  6
BYLAYER
  8
0
 10
25.1047264916811
 11
24.7297264916811
 20
4.10520553603698
 21
4.66274790891831
 62
7
  0
LINE
  6
BYLAYER
  8
0
 10
24.7297264916811
 11
24.5929468306641
 20
4.66274790891831
 21
5.3438496038336
 62
7
  0
LINE
  6
BYLAYER
  8
0
 10
24.5929468306641
 11
24.7297264916811
 20
5.3438496038336
 21
6.02673095976577
 62
7
  0
LINE
  6
BYLAYER
  8
0
 10
24.7297264916811
 11
25.1047264916811
 20
6.02673095976577
 21
6.58249367163018
 62
7
  0
LINE
  6
BYLAYER
  8
0
 10
25.1047264916811
 11
25.6604892035455
 20
6.58249367163018
 21
6.95901909535902
 62
7
  0
LINE
  6
BYLAYER
  8
0
 10
25.6604892035455
 11
26.3433705594777
 20
6.95901909535902
 21
7.09554451908783
 62
7
  0
LINE
  6
BYLAYER
  8
0
 10
26.3433705594777
 11
27.0249807289693
 20
7.09554451908783
 21
6.95901909535902
 62
7
  0
LINE
  6
BYLAYER
  8
0
 10
27.0249807289693
 11
27.5820146272743
 20
6.95901909535902
 21
6.58249367163018
 62
7
  0
LINE
  6
BYLAYER
  8
0
 10
27.5820146272743
 11
27.9585400510032
 20
6.58249367163018
 21
6.02673095976577
 62
7
  0
LINE
  6
BYLAYER
  8
0
 10
27.9585400510032
 11
28.0965908984608
 20
6.02673095976577
 21
5.3438496038336
 62
7
  0
LINE
  6
BYLAYER
  8
0
 10
28.0965908984608
 11
28.0965908984608
 20
5.3438496038336
 21
5.3438496038336
 62
7
  0
LINE
  6
BYLAYER
  8
0
 10
23.9433705594777
 11
23.8841332713421
 20
23.029612315698
 21
12.6694428241725
 62
7
  0
LINE
  6
BYLAYER
  8
0
 10
28.7103197120201
 11
28.6510824238845
 20
23.029612315698
 21
12.6694428241725
 62
7
  0
LINE
  6
BYLAYER
  8
0
 10
30.0595570001557
 11
30.0509129323591
 20
12.662832654681
 21
23.0283411292573
 62
7
  0
LINE
  6
BYLAYER
  8
0
 10
30.0509129323591
 11
22.6648112374438
 20
23.0283411292573
 21
23.0130868919692
 62
7
  0
LINE
  6
BYLAYER
  8
0
 10
22.6648112374438
 11
22.6579468306642
 20
23.0130868919692
 21
12.662832654681
 62
7
  0
LINE
  6
BYLAYER
  8
0
 10
22.6579468306642
 11
30.0595570001557
 20
12.662832654681
 21
12.662832654681
 62
7
  0
LINE
  6
BYLAYER
  8
0
 10
30.0595570001557
 11
30.0595570001557
 20
12.662832654681
 21
12.662832654681
 62
7
  0
LINE
  6
BYLAYER
  8
0
 10
30.0595570001557
 11
30.0509129323591
 20
12.662832654681
 21
23.0283411292573
 62
7
  0
LINE
  6
BYLAYER
  8
0
 10
30.0509129323591
 11
22.6648112374438
 20
23.0283411292573
 21
23.0130868919692
 62
7
  0
LINE
  6
BYLAYER
  8
0
 10
22.6648112374438
 11
22.6579468306642
 20
23.0130868919692
 21
12.662832654681
 62
7
  0
LINE
  6
BYLAYER
  8
0
 10
22.6579468306642
 11
30.0595570001557
 20
12.662832654681
 21
12.662832654681
 62
7
  0
LINE
  6
BYLAYER
  8
0
 10
30.0595570001557
 11
30.0595570001557
 20
12.662832654681
 21
12.662832654681
 62
7
  0
LINE
  6
BYLAYER
  8
0
 10
24.3682010679523
 11
24.1943027628675
 20
-15.5183283622681
 21
-15.4493537859969
 62
7
  0
LINE
  6
BYLAYER
  8
0
 10
24.1943027628675
 11
24.103285813715
 20
-15.4493537859969
 21
-15.2976249724376
 62
7
  0
LINE
  6
BYLAYER
  8
0
 10
24.103285813715
 11
24.103285813715
 20
-15.2976249724376
 21
-14.105887684302
 62
7
  0
LINE
  6
BYLAYER
  8
0
 10
24.103285813715
 11
24.1724383560879
 20
-14.105887684302
 21
-13.9210825995562
 62
7
  0
LINE
  6
BYLAYER
  8
0
 10
24.1724383560879
 11
24.3239637798167
 20
-13.9210825995562
 21
-13.8190063283698
 62
7
  0
LINE
  6
BYLAYER
  8
0
 10
24.3239637798167
 11
28.1393027628676
 20
-13.8190063283698
 21
-13.828667345319
 62
7
  0
LINE
  6
BYLAYER
  8
0
 10
28.1393027628676
 11
28.3391332713421
 20
-13.828667345319
 21
-14.0286758198952
 62
7
  0
LINE
  6
BYLAYER
  8
0
 10
28.3391332713421
 11
28.3391332713421
 20
-14.0286758198952
 21
-15.3307520910817
 62
7
  0
LINE
  6
BYLAYER
  8
0
 10
28.3391332713421
 11
28.1393027628676
 20
-15.3307520910817
 21
-15.5307605656579
 62
7
  0
LINE
  6
BYLAYER
  8
0
 10
28.1393027628676
 11
24.3682010679523
 20
-15.5307605656579
 21
-15.5183283622681
 62
7
  0
LINE
  6
BYLAYER
  8
0
 10
24.3682010679523
 11
24.3682010679523
 20
-15.5183283622681
 21
-15.5183283622681
 62
7
  0
LINE
  6
BYLAYER
  8
0
 10
26.7074383560879
 11
26.7074383560879
 20
-13.8190063283698
 21
-14.4369300571834
 62
7
  0
LINE
  6
BYLAYER
  8
0
 10
26.7074383560879
 11
25.7804892035455
 20
-14.4369300571834
 21
-14.4369300571834
 62
7
  0
LINE
  6
BYLAYER
  8
0
 10
25.7804892035455
 11
25.7804892035455
 20
-14.4369300571834
 21
-13.8190063283698
 62
7
  0
LINE
  6
BYLAYER
  8
0
 10
24.7434553052404
 11
24.7434553052404
 20
-14.9003792097257
 21
-14.3996842944715
 62
7
  0
LINE
  6
BYLAYER
  8
0
 10
24.7434553052404
 11
25.2440485255794
 20
-14.3996842944715
 21
-14.3996842944715
 62
7
  0
LINE
  6
BYLAYER
  8
0
 10
25.2440485255794
 11
25.2440485255794
 20
-14.3996842944715
 21
-14.9003792097257
 62
7
  0
LINE
  6
BYLAYER
  8
0
 10
25.2440485255794
 11
24.7434553052404
 20
-14.9003792097257
 21
-14.9003792097257
 62
7
  0
LINE
  6
BYLAYER
  8
0
 10
24.7434553052404
 11
24.7434553052404
 20
-14.9003792097257
 21
-14.9003792097257
 62
7
  0
LINE
  6
BYLAYER
  8
0
 10
27.1930315764269
 11
27.1930315764269
 20
-14.9003792097257
 21
-14.3996842944715
 62
7
  0
LINE
  6
BYLAYER
  8
0
 10
27.1930315764269
 11
27.6936247967659
 20
-14.3996842944715
 21
-14.3996842944715
 62
7
  0
LINE
  6
BYLAYER
  8
0
 10
27.6936247967659
 11
27.6936247967659
 20
-14.3996842944715
 21
-14.9003792097257
 62
7
  0
LINE
  6
BYLAYER
  8
0
 10
27.6936247967659
 11
27.1930315764269
 20
-14.9003792097257
 21
-14.9003792097257
 62
7
  0
LINE
  6
BYLAYER
  8
0
 10
27.1930315764269
 11
27.1930315764269
 20
-14.9003792097257
 21
-14.9003792097257
 62
7
  0
LINE
  6
BYLAYER
  8
0
 10
24.2812519154099
 11
24.1076078476133
 20
9.60206994281662
 21
9.67096824790139
 62
7
  0
LINE
  6
BYLAYER
  8
0
 10
24.1076078476133
 11
24.0163366611726
 20
9.67096824790139
 21
9.82274790891832
 62
7
  0
LINE
  6
BYLAYER
  8
0
 10
24.0163366611726
 11
24.0163366611726
 20
9.82274790891832
 21
11.0143580784098
 62
7
  0
LINE
  6
BYLAYER
  8
0
 10
24.0163366611726
 11
24.0857434408336
 20
11.0143580784098
 21
11.1991885868844
 62
7
  0
LINE
  6
BYLAYER
  8
0
 10
24.0857434408336
 11
24.2370146272743
 20
11.1991885868844
 21
11.3011377394268
 62
7
  0
LINE
  6
BYLAYER
  8
0
 10
24.2370146272743
 11
28.0523536103252
 20
11.3011377394268
 21
11.2917309597658
 62
7
  0
LINE
  6
BYLAYER
  8
0
 10
28.0523536103252
 11
28.2521841187998
 20
11.2917309597658
 21
11.0903750275624
 62
7
  0
LINE
  6
BYLAYER
  8
0
 10
28.2521841187998
 11
28.2521841187998
 20
11.0903750275624
 21
9.78944282417257
 62
7
  0
LINE
  6
BYLAYER
  8
0
 10
28.2521841187998
 11
28.0523536103252
 20
9.78944282417257
 21
9.589612315698
 62
7
  0
LINE
  6
BYLAYER
  8
0
 10
28.0523536103252
 11
24.2812519154099
 20
9.589612315698
 21
9.60206994281662
 62
7
  0
LINE
  6
BYLAYER
  8
0
 10
24.2812519154099
 11
24.2812519154099
 20
9.60206994281662
 21
9.60206994281662
 62
7
  0
LINE
  6
BYLAYER
  8
0
 10
26.6204892035455
 11
26.6204892035455
 20
11.3011377394268
 21
10.6833411292573
 62
7
  0
LINE
  6
BYLAYER
  8
0
 10
26.6204892035455
 11
25.6937942882913
 20
10.6833411292573
 21
10.6833411292573
 62
7
  0
LINE
  6
BYLAYER
  8
0
 10
25.6937942882913
 11
25.6937942882913
 20
10.6833411292573
 21
11.3011377394268
 62
7
  0
LINE
  6
BYLAYER
  8
0
 10
24.6565061526981
 11
24.6565061526981
 20
10.2198665529861
 21
10.7207140106132
 62
7
  0
LINE
  6
BYLAYER
  8
0
 10
24.6565061526981
 11
25.1573536103252
 20
10.7207140106132
 21
10.7207140106132
 62
7
  0
LINE
  6
BYLAYER
  8
0
 10
25.1573536103252
 11
25.1573536103252
 20
10.7207140106132
 21
10.2198665529861
 62
7
  0
LINE
  6
BYLAYER
  8
0
 10
25.1573536103252
 11
24.6565061526981
 20
10.2198665529861
 21
10.2198665529861
 62
7
  0
LINE
  6
BYLAYER
  8
0
 10
24.6565061526981
 11
24.6565061526981
 20
10.2198665529861
 21
10.2198665529861
 62
7
  0
LINE
  6
BYLAYER
  8
0
 10
27.1060824238845
 11
27.1060824238845
 20
10.2198665529861
 21
10.7207140106132
 62
7
  0
LINE
  6
BYLAYER
  8
0
 10
27.1060824238845
 11
27.6069298815116
 20
10.7207140106132
 21
10.7207140106132
 62
7
  0
LINE
  6
BYLAYER
  8
0
 10
27.6069298815116
 11
27.6069298815116
 20
10.7207140106132
 21
10.2198665529861
 62
7
  0
LINE
  6
BYLAYER
  8
0
 10
27.6069298815116
 11
27.1060824238845
 20
10.2198665529861
 21
10.2198665529861
 62
7
  0
LINE
  6
BYLAYER
  8
0
 10
27.1060824238845
 11
27.1060824238845
 20
10.2198665529861
 21
10.2198665529861
 62
7
  0
LINE
  6
BYLAYER
  8
0
 10
27.3115061526981
 11
24.8344722543929
 20
-0.88928598938675
 21
1.58825638349461
 62
7
  0
LINE
  6
BYLAYER
  8
0
 10
27.7340485255794
 11
25.256506152698
 20
-0.451997853793529
 21
2.02529028179967
 62
7
  0
LINE
  6
BYLAYER
  8
0
 10
28.027692593376
 11
27.8896417459184
 20
0.568764858070878
 21
-0.11259107413251
 62
7
  0
LINE
  6
BYLAYER
  8
0
 10
27.8896417459184
 11
27.5143875086303
 20
-0.11259107413251
 21
-0.668353785996935
 62
7
  0
LINE
  6
BYLAYER
  8
0
 10
27.5143875086303
 11
26.9570993730371
 20
-0.668353785996935
 21
-1.04513344701389
 62
7
  0
LINE
  6
BYLAYER
  8
0
 10
26.9570993730371
 11
26.2759976781218
 20
-1.04513344701389
 21
-1.18293005718336
 62
7
  0
LINE
  6
BYLAYER
  8
0
 10
26.2759976781218
 11
25.5931163221896
 20
-1.18293005718336
 21
-1.04513344701389
 62
7
  0
LINE
  6
BYLAYER
  8
0
 10
25.5931163221896
 11
25.0373536103252
 20
-1.04513344701389
 21
-0.668353785996935
 62
7
  0
LINE
  6
BYLAYER
  8
0
 10
25.0373536103252
 11
24.6618451357489
 20
-0.668353785996935
 21
-0.11259107413251
 62
7
  0
LINE
  6
BYLAYER
  8
0
 10
24.6618451357489
 11
24.5255739493082
 20
-0.11259107413251
 21
0.568764858070878
 62
7
  0
LINE
  6
BYLAYER
  8
0
 10
24.5255739493082
 11
24.6618451357489
 20
0.568764858070878
 21
1.25139197671495
 62
7
  0
LINE
  6
BYLAYER
  8
0
 10
24.6618451357489
 11
25.0373536103252
 20
1.25139197671495
 21
1.80740892586749
 62
7
  0
LINE
  6
BYLAYER
  8
0
 10
25.0373536103252
 11
25.5931163221896
 20
1.80740892586749
 21
2.18393434959631
 62
7
  0
LINE
  6
BYLAYER
  8
0
 10
25.5931163221896
 11
26.2759976781218
 20
2.18393434959631
 21
2.32071401061323
 62
7
  0
LINE
  6
BYLAYER
  8
0
 10
26.2759976781218
 11
26.9570993730371
 20
2.32071401061323
 21
2.18393434959631
 62
7
  0
LINE
  6
BYLAYER
  8
0
 10
26.9570993730371
 11
27.5143875086303
 20
2.18393434959631
 21
1.80740892586749
 62
7
  0
LINE
  6
BYLAYER
  8
0
 10
27.5143875086303
 11
27.8896417459184
 20
1.80740892586749
 21
1.25139197671495
 62
7
  0
LINE
  6
BYLAYER
  8
0
 10
27.8896417459184
 11
28.027692593376
 20
1.25139197671495
 21
0.568764858070878
 62
7
  0
LINE
  6
BYLAYER
  8
0
 10
28.027692593376
 11
28.027692593376
 20
0.568764858070878
 21
0.568764858070878
 62
7
  0
LINE
  6
BYLAYER
  8
0
 10
27.3201502204947
 11
24.8426078476133
 20
-10.8879300571834
 21
-8.41191310803084
 62
7
  0
LINE
  6
BYLAYER
  8
0
 10
27.7421841187997
 11
25.2646417459184
 20
-10.452167345319
 21
-7.97487920972573
 62
7
  0
LINE
  6
BYLAYER
  8
0
 10
28.0358281865963
 11
27.8977773391387
 20
-9.43140463345457
 21
-10.112760565658
 62
7
  0
LINE
  6
BYLAYER
  8
0
 10
27.8977773391387
 11
27.5227773391387
 20
-10.112760565658
 21
-10.6685232775224
 62
7
  0
LINE
  6
BYLAYER
  8
0
 10
27.5227773391387
 11
26.9654892035455
 20
-10.6685232775224
 21
-11.0450487012512
 62
7
  0
LINE
  6
BYLAYER
  8
0
 10
26.9654892035455
 11
26.2841332713421
 20
-11.0450487012512
 21
-11.1830995487088
 62
7
  0
LINE
  6
BYLAYER
  8
0
 10
26.2841332713421
 11
25.601506152698
 20
-11.1830995487088
 21
-11.0450487012512
 62
7
  0
LINE
  6
BYLAYER
  8
0
 10
25.601506152698
 11
25.0454892035455
 20
-11.0450487012512
 21
-10.6685232775224
 62
7
  0
LINE
  6
BYLAYER
  8
0
 10
25.0454892035455
 11
24.6689637798167
 20
-10.6685232775224
 21
-10.112760565658
 62
7
  0
LINE
  6
BYLAYER
  8
0
 10
24.6689637798167
 11
24.5324383560879
 20
-10.112760565658
 21
-9.43140463345457
 62
7
  0
LINE
  6
BYLAYER
  8
0
 10
24.5324383560879
 11
24.6689637798167
 20
-9.43140463345457
 21
-8.74852327752236
 62
7
  0
LINE
  6
BYLAYER
  8
0
 10
24.6689637798167
 11
25.0454892035455
 20
-8.74852327752236
 21
-8.19276056565796
 62
7
  0
LINE
  6
BYLAYER
  8
0
 10
25.0454892035455
 11
25.601506152698
 20
-8.19276056565796
 21
-7.81623514192914
 62
7
  0
LINE
  6
BYLAYER
  8
0
 10
25.601506152698
 11
26.2841332713421
 20
-7.81623514192914
 21
-7.67970971820033
 62
7
  0
LINE
  6
BYLAYER
  8
0
 10
26.2841332713421
 11
26.9654892035455
 20
-7.67970971820033
 21
-7.81623514192914
 62
7
  0
LINE
  6
BYLAYER
  8
0
 10
26.9654892035455
 11
27.5227773391387
 20
-7.81623514192914
 21
-8.19276056565796
 62
7
  0
LINE
  6
BYLAYER
  8
0
 10
27.5227773391387
 11
27.8977773391387
 20
-8.19276056565796
 21
-8.74852327752236
 62
7
  0
LINE
  6
BYLAYER
  8
0
 10
27.8977773391387
 11
28.0358281865963
 20
-8.74852327752236
 21
-9.43140463345457
 62
7
  0
LINE
  6
BYLAYER
  8
0
 10
28.0358281865963
 11
28.0358281865963
 20
-9.43140463345457
 21
-9.43140463345457
 62
7
  0
LINE
  6
BYLAYER
  8
0
 10
27.3323536103252
 11
24.855065474732
 20
-5.82860802328507
 21
-3.35131988769186
 62
7
  0
LINE
  6
BYLAYER
  8
0
 10
27.7531163221896
 11
25.2760824238845
 20
-5.39131988769185
 21
-2.91403175209863
 62
7
  0
LINE
  6
BYLAYER
  8
0
 10
28.048285813715
 11
27.9104892035455
 20
-4.37055717582745
 21
-5.05191310803084
 62
7
  0
LINE
  6
BYLAYER
  8
0
 10
27.9104892035455
 11
27.5337095425285
 20
-5.05191310803084
 21
-5.60793005718336
 62
7
  0
LINE
  6
BYLAYER
  8
0
 10
27.5337095425285
 11
26.9779468306642
 20
-5.60793005718336
 21
-5.98445548091217
 62
7
  0
LINE
  6
BYLAYER
  8
0
 10
26.9779468306642
 11
26.2963366611726
 20
-5.98445548091217
 21
-6.12225209108168
 62
7
  0
LINE
  6
BYLAYER
  8
0
 10
26.2963366611726
 11
25.6139637798167
 20
-6.12225209108168
 21
-5.98445548091217
 62
7
  0
LINE
  6
BYLAYER
  8
0
 10
25.6139637798167
 11
25.0566756442235
 20
-5.98445548091217
 21
-5.60793005718336
 62
7
  0
LINE
  6
BYLAYER
  8
0
 10
25.0566756442235
 11
24.6814214069354
 20
-5.60793005718336
 21
-5.05191310803084
 62
7
  0
LINE
  6
BYLAYER
  8
0
 10
24.6814214069354
 11
24.5446417459184
 20
-5.05191310803084
 21
-4.37055717582745
 62
7
  0
LINE
  6
BYLAYER
  8
0
 10
24.5446417459184
 11
24.6814214069354
 20
-4.37055717582745
 21
-3.68793005718338
 62
7
  0
LINE
  6
BYLAYER
  8
0
 10
24.6814214069354
 11
25.0566756442235
 20
-3.68793005718338
 21
-3.13191310803082
 62
7
  0
LINE
  6
BYLAYER
  8
0
 10
25.0566756442235
 11
25.6139637798167
 20
-3.13191310803082
 21
-2.75538768430202
 62
7
  0
LINE
  6
BYLAYER
  8
0
 10
25.6139637798167
 11
26.2963366611726
 20
-2.75538768430202
 21
-2.61886226057321
 62
7
  0
LINE
  6
BYLAYER
  8
0
 10
26.2963366611726
 11
26.9779468306642
 20
-2.61886226057321
 21
-2.75538768430202
 62
7
  0
LINE
  6
BYLAYER
  8
0
 10
26.9779468306642
 11
27.5337095425285
 20
-2.75538768430202
 21
-3.13191310803082
 62
7
  0
LINE
  6
BYLAYER
  8
0
 10
27.5337095425285
 11
27.9104892035455
 20
-3.13191310803082
 21
-3.68793005718338
 62
7
  0
LINE
  6
BYLAYER
  8
0
 10
27.9104892035455
 11
28.048285813715
 20
-3.68793005718338
 21
-4.37055717582745
 62
7
  0
LINE
  6
BYLAYER
  8
0
 10
28.048285813715
 11
28.048285813715
 20
-4.37055717582745
 21
-4.37055717582745
 62
7
  0
LINE
  6
BYLAYER
  8
0
 10
23.8841332713421
 11
23.8991332713421
 20
8.25562926485054
 21
-12.1458707351495
 62
7
  0
LINE
  6
BYLAYER
  8
0
 10
28.6510824238845
 11
28.6770146272743
 20
8.25562926485054
 21
-12.1458707351495
 62
7
  0
LINE
  6
BYLAYER
  8
0
 10
30.000065474732
 11
29.9916756442235
 20
-12.1748537859969
 21
8.25308689196916
 62
7
  0
LINE
  6
BYLAYER
  8
0
 10
29.9916756442235
 11
22.6053197120201
 20
8.25308689196916
 21
8.23910384112173
 62
7
  0
LINE
  6
BYLAYER
  8
0
 10
22.6053197120201
 11
22.5987095425286
 20
8.23910384112173
 21
-12.1748537859969
 62
7
  0
LINE
  6
BYLAYER
  8
0
 10
22.5987095425286
 11
30.000065474732
 20
-12.1748537859969
 21
-12.1748537859969
 62
7
  0
LINE
  6
BYLAYER
  8
0
 10
30.000065474732
 11
30.000065474732
 20
-12.1748537859969
 21
-12.1748537859969
 62
7
  0
LINE
  6
BYLAYER
  8
0
 10
30.000065474732
 11
29.9916756442235
 20
-12.1748537859969
 21
8.25308689196916
 62
7
  0
LINE
  6
BYLAYER
  8
0
 10
29.9916756442235
 11
22.6053197120201
 20
8.25308689196916
 21
8.23910384112173
 62
7
  0
LINE
  6
BYLAYER
  8
0
 10
22.6053197120201
 11
22.5987095425286
 20
8.23910384112173
 21
-12.1748537859969
 62
7
  0
LINE
  6
BYLAYER
  8
0
 10
22.5987095425286
 11
30.000065474732
 20
-12.1748537859969
 21
-12.1748537859969
 62
7
  0
LINE
  6
BYLAYER
  8
0
 10
30.000065474732
 11
30.000065474732
 20
-12.1748537859969
 21
-12.1748537859969
 62
7
  0
LINE
  6
BYLAYER
  8
0
 10
-20.026714186285
 11
-19.8530701184884
 20
-15.7859131080308
 21
-15.7169385317596
 62
7
  0
LINE
  6
BYLAYER
  8
0
 10
-19.8530701184884
 11
-19.7617989320477
 20
-15.7169385317596
 21
-15.5652097182003
 62
7
  0
LINE
  6
BYLAYER
  8
0
 10
-19.7617989320477
 11
-19.7617989320477
 20
-15.5652097182003
 21
-14.3734724300647
 62
7
  0
LINE
  6
BYLAYER
  8
0
 10
-19.7617989320477
 11
-19.8309514744206
 20
-14.3734724300647
 21
-14.187294463963
 62
7
  0
LINE
  6
BYLAYER
  8
0
 10
-19.8309514744206
 11
-19.9824768981494
 20
-14.187294463963
 21
-14.0865910741325
 62
7
  0
LINE
  6
BYLAYER
  8
0
 10
-19.9824768981494
 11
-23.7978158812002
 20
-14.0865910741325
 21
-14.0962520910817
 62
7
  0
LINE
  6
BYLAYER
  8
0
 10
-23.7978158812002
 11
-23.9977989320477
 20
-14.0962520910817
 21
-14.2962605656579
 62
7
  0
LINE
  6
BYLAYER
  8
0
 10
-23.9977989320477
 11
-23.9977989320477
 20
-14.2962605656579
 21
-15.5969639554884
 62
7
  0
LINE
  6
BYLAYER
  8
0
 10
-23.9977989320477
 11
-23.7978158812002
 20
-15.5969639554884
 21
-15.7983453114206
 62
7
  0
LINE
  6
BYLAYER
  8
0
 10
-23.7978158812002
 11
-20.026714186285
 20
-15.7983453114206
 21
-15.7859131080308
 62
7
  0
LINE
  6
BYLAYER
  8
0
 10
-20.026714186285
 11
-20.026714186285
 20
-15.7859131080308
 21
-15.7859131080308
 62
7
  0
LINE
  6
BYLAYER
  8
0
 10
-22.3659514744206
 11
-22.3659514744206
 20
-14.0865910741325
 21
-14.7045148029461
 62
7
  0
LINE
  6
BYLAYER
  8
0
 10
-22.3659514744206
 11
-21.4392565591663
 20
-14.7045148029461
 21
-14.7045148029461
 62
7
  0
LINE
  6
BYLAYER
  8
0
 10
-21.4392565591663
 11
-21.4392565591663
 20
-14.7045148029461
 21
-14.0865910741325
 62
7
  0
LINE
  6
BYLAYER
  8
0
 10
-20.4019684235731
 11
-20.4019684235731
 20
-15.1679639554884
 21
-14.667294463963
 62
7
  0
LINE
  6
BYLAYER
  8
0
 10
-20.4019684235731
 11
-20.9025616439121
 20
-14.667294463963
 21
-14.667294463963
 62
7
  0
LINE
  6
BYLAYER
  8
0
 10
-20.9025616439121
 11
-20.9025616439121
 20
-14.667294463963
 21
-15.1679639554884
 62
7
  0
LINE
  6
BYLAYER
  8
0
 10
-20.9025616439121
 11
-20.4019684235731
 20
-15.1679639554884
 21
-15.1679639554884
 62
7
  0
LINE
  6
BYLAYER
  8
0
 10
-20.4019684235731
 11
-20.4019684235731
 20
-15.1679639554884
 21
-15.1679639554884
 62
7
  0
LINE
  6
BYLAYER
  8
0
 10
-22.8515955422172
 11
-22.8515955422172
 20
-15.1679639554884
 21
-14.667294463963
 62
7
  0
LINE
  6
BYLAYER
  8
0
 10
-22.8515955422172
 11
-23.3522904574714
 20
-14.667294463963
 21
-14.667294463963
 62
7
  0
LINE
  6
BYLAYER
  8
0
 10
-23.3522904574714
 11
-23.3522904574714
 20
-14.667294463963
 21
-15.1679639554884
 62
7
  0
LINE
  6
BYLAYER
  8
0
 10
-23.3522904574714
 11
-22.8515955422172
 20
-15.1679639554884
 21
-15.1679639554884
 62
7
  0
LINE
  6
BYLAYER
  8
0
 10
-22.8515955422172
 11
-22.8515955422172
 20
-15.1679639554884
 21
-15.1679639554884
 62
7
  0
LINE
  6
BYLAYER
  8
0
 10
-20.0488328303528
 11
-19.8749345252681
 20
20.2241038411217
 21
20.2930021462065
 62
7
  0
LINE
  6
BYLAYER
  8
0
 10
-19.8749345252681
 11
-19.7839175761155
 20
20.2930021462065
 21
20.4447818072234
 62
7
  0
LINE
  6
BYLAYER
  8
0
 10
-19.7839175761155
 11
-19.7839175761155
 20
20.4447818072234
 21
21.6366462140031
 62
7
  0
LINE
  6
BYLAYER
  8
0
 10
-19.7839175761155
 11
-19.8530701184884
 20
21.6366462140031
 21
21.8212224851895
 62
7
  0
LINE
  6
BYLAYER
  8
0
 10
-19.8530701184884
 11
-20.0045955422172
 20
21.8212224851895
 21
21.92342587502
 62
7
  0
LINE
  6
BYLAYER
  8
0
 10
-20.0045955422172
 11
-23.8198836778104
 20
21.92342587502
 21
21.9137648580709
 62
7
  0
LINE
  6
BYLAYER
  8
0
 10
-23.8198836778104
 11
-24.0198667286579
 20
21.9137648580709
 21
21.7139343495963
 62
7
  0
LINE
  6
BYLAYER
  8
0
 10
-24.0198667286579
 11
-24.0198667286579
 20
21.7139343495963
 21
20.4117309597658
 62
7
  0
LINE
  6
BYLAYER
  8
0
 10
-24.0198667286579
 11
-23.8198836778104
 20
20.4117309597658
 21
20.2119004512912
 62
7
  0
LINE
  6
BYLAYER
  8
0
 10
-23.8198836778104
 11
-20.0488328303528
 20
20.2119004512912
 21
20.2241038411217
 62
7
  0
LINE
  6
BYLAYER
  8
0
 10
-20.0488328303528
 11
-20.0488328303528
 20
20.2241038411217
 21
20.2241038411217
 62
7
  0
LINE
  6
BYLAYER
  8
0
 10
-22.3880701184884
 11
-22.3880701184884
 20
21.92342587502
 21
21.3053750275624
 62
7
  0
LINE
  6
BYLAYER
  8
0
 10
-22.3880701184884
 11
-21.461120965946
 20
21.3053750275624
 21
21.3053750275624
 62
7
  0
LINE
  6
BYLAYER
  8
0
 10
-21.461120965946
 11
-21.461120965946
 20
21.3053750275624
 21
21.92342587502
 62
7
  0
LINE
  6
BYLAYER
  8
0
 10
-20.4240870676409
 11
-20.4240870676409
 20
20.8421546885794
 21
21.3427479089183
 62
7
  0
LINE
  6
BYLAYER
  8
0
 10
-20.4240870676409
 11
-20.9246802879799
 20
21.3427479089183
 21
21.3427479089183
 62
7
  0
LINE
  6
BYLAYER
  8
0
 10
-20.9246802879799
 11
-20.9246802879799
 20
21.3427479089183
 21
20.8421546885794
 62
7
  0
LINE
  6
BYLAYER
  8
0
 10
-20.9246802879799
 11
-20.4240870676409
 20
20.8421546885794
 21
20.8421546885794
 62
7
  0
LINE
  6
BYLAYER
  8
0
 10
-20.4240870676409
 11
-20.4240870676409
 20
20.8421546885794
 21
20.8421546885794
 62
7
  0
LINE
  6
BYLAYER
  8
0
 10
-22.8736633388274
 11
-22.8736633388274
 20
20.8421546885794
 21
21.3427479089183
 62
7
  0
LINE
  6
BYLAYER
  8
0
 10
-22.8736633388274
 11
-23.3743582540816
 20
21.3427479089183
 21
21.3427479089183
 62
7
  0
LINE
  6
BYLAYER
  8
0
 10
-23.3743582540816
 11
-23.3743582540816
 20
21.3427479089183
 21
20.8421546885794
 62
7
  0
LINE
  6
BYLAYER
  8
0
 10
-23.3743582540816
 11
-22.8736633388274
 20
20.8421546885794
 21
20.8421546885794
 62
7
  0
LINE
  6
BYLAYER
  8
0
 10
-22.8736633388274
 11
-22.8736633388274
 20
20.8421546885794
 21
20.8421546885794
 62
7
  0
LINE
  6
BYLAYER
  8
0
 10
-20.741120965946
 11
-23.2185107964545
 20
14.1330868919692
 21
16.6101207902742
 62
7
  0
LINE
  6
BYLAYER
  8
0
 10
-20.3206124913698
 11
-22.7977989320477
 20
14.5688496038336
 21
17.0461377394268
 62
7
  0
LINE
  6
BYLAYER
  8
0
 10
-20.0254429998443
 11
-20.1632396100138
 20
15.589612315698
 21
14.9082563834946
 62
7
  0
LINE
  6
BYLAYER
  8
0
 10
-20.1632396100138
 11
-20.5397650337426
 20
14.9082563834946
 21
14.3522394343421
 62
7
  0
LINE
  6
BYLAYER
  8
0
 10
-20.5397650337426
 11
-21.0957819828952
 20
14.3522394343421
 21
13.9759682479014
 62
7
  0
LINE
  6
BYLAYER
  8
0
 10
-21.0957819828952
 11
-21.7771379150985
 20
13.9759682479014
 21
13.8379174004437
 62
7
  0
LINE
  6
BYLAYER
  8
0
 10
-21.7771379150985
 11
-22.4597650337426
 20
13.8379174004437
 21
13.9759682479014
 62
7
  0
LINE
  6
BYLAYER
  8
0
 10
-22.4597650337426
 11
-23.0157565591663
 20
13.9759682479014
 21
14.3522394343421
 62
7
  0
LINE
  6
BYLAYER
  8
0
 10
-23.0157565591663
 11
-23.392307406624
 20
14.3522394343421
 21
14.9082563834946
 62
7
  0
LINE
  6
BYLAYER
  8
0
 10
-23.392307406624
 11
-23.5288582540816
 20
14.9082563834946
 21
15.589612315698
 62
7
  0
LINE
  6
BYLAYER
  8
0
 10
-23.5288582540816
 11
-23.392307406624
 20
15.589612315698
 21
16.2722394343421
 62
7
  0
LINE
  6
BYLAYER
  8
0
 10
-23.392307406624
 11
-23.0157565591663
 20
16.2722394343421
 21
16.8282563834946
 62
7
  0
LINE
  6
BYLAYER
  8
0
 10
-23.0157565591663
 11
-22.4597650337426
 20
16.8282563834946
 21
17.2047818072234
 62
7
  0
LINE
  6
BYLAYER
  8
0
 10
-22.4597650337426
 11
-21.7771379150985
 20
17.2047818072234
 21
17.3413072309522
 62
7
  0
LINE
  6
BYLAYER
  8
0
 10
-21.7771379150985
 11
-21.0957819828952
 20
17.3413072309522
 21
17.2047818072234
 62
7
  0
LINE
  6
BYLAYER
  8
0
 10
-21.0957819828952
 11
-20.5397650337426
 20
17.2047818072234
 21
16.8282563834946
 62
7
  0
LINE
  6
BYLAYER
  8
0
 10
-20.5397650337426
 11
-20.1632396100138
 20
16.8282563834946
 21
16.2722394343421
 62
7
  0
LINE
  6
BYLAYER
  8
0
 10
-20.1632396100138
 11
-20.0254429998443
 20
16.2722394343421
 21
15.589612315698
 62
7
  0
LINE
  6
BYLAYER
  8
0
 10
-20.0254429998443
 11
-20.0254429998443
 20
15.589612315698
 21
15.589612315698
 62
7
  0
LINE
  6
BYLAYER
  8
0
 10
-20.741120965946
 11
-23.2185107964545
 20
9.18969706146068
 21
11.6667309597658
 62
7
  0
LINE
  6
BYLAYER
  8
0
 10
-20.3206124913698
 11
-22.7977989320477
 20
9.62520553603698
 21
12.1027479089183
 62
7
  0
LINE
  6
BYLAYER
  8
0
 10
-20.0254429998443
 11
-20.1632396100138
 20
10.6462224851895
 21
9.96461231569801
 62
7
  0
LINE
  6
BYLAYER
  8
0
 10
-20.1632396100138
 11
-20.5397650337426
 20
9.96461231569801
 21
9.40884960383357
 62
7
  0
LINE
  6
BYLAYER
  8
0
 10
-20.5397650337426
 11
-21.0957819828952
 20
9.40884960383357
 21
9.03257841739289
 62
7
  0
LINE
  6
BYLAYER
  8
0
 10
-21.0957819828952
 11
-21.7771379150985
 20
9.03257841739289
 21
8.89427333264715
 62
7
  0
LINE
  6
BYLAYER
  8
0
 10
-21.7771379150985
 11
-22.4597650337426
 20
8.89427333264715
 21
9.03257841739289
 62
7
  0
LINE
  6
BYLAYER
  8
0
 10
-22.4597650337426
 11
-23.0157565591663
 20
9.03257841739289
 21
9.40884960383357
 62
7
  0
LINE
  6
BYLAYER
  8
0
 10
-23.0157565591663
 11
-23.392307406624
 20
9.40884960383357
 21
9.96461231569801
 62
7
  0
LINE
  6
BYLAYER
  8
0
 10
-23.392307406624
 11
-23.5288582540816
 20
9.96461231569801
 21
10.6462224851895
 62
7
  0
LINE
  6
BYLAYER
  8
0
 10
-23.5288582540816
 11
-23.392307406624
 20
10.6462224851895
 21
11.3285953665455
 62
7
  0
LINE
  6
BYLAYER
  8
0
 10
-23.392307406624
 11
-23.0157565591663
 20
11.3285953665455
 21
11.8848665529861
 62
7
  0
LINE
  6
BYLAYER
  8
0
 10
-23.0157565591663
 11
-22.4597650337426
 20
11.8848665529861
 21
12.2613919767149
 62
7
  0
LINE
  6
BYLAYER
  8
0
 10
-22.4597650337426
 11
-21.7771379150985
 20
12.2613919767149
 21
12.3979174004438
 62
7
  0
LINE
  6
BYLAYER
  8
0
 10
-21.7771379150985
 11
-21.0957819828952
 20
12.3979174004438
 21
12.2613919767149
 62
7
  0
LINE
  6
BYLAYER
  8
0
 10
-21.0957819828952
 11
-20.5397650337426
 20
12.2613919767149
 21
11.8848665529861
 62
7
  0
LINE
  6
BYLAYER
  8
0
 10
-20.5397650337426
 11
-20.1632396100138
 20
11.8848665529861
 21
11.3285953665455
 62
7
  0
LINE
  6
BYLAYER
  8
0
 10
-20.1632396100138
 11
-20.0254429998443
 20
11.3285953665455
 21
10.6462224851895
 62
7
  0
LINE
  6
BYLAYER
  8
0
 10
-20.0254429998443
 11
-20.0254429998443
 20
10.6462224851895
 21
10.6462224851895
 62
7
  0
LINE
  6
BYLAYER
  8
0
 10
-20.741120965946
 11
-23.2185107964545
 20
4.18681570552848
 21
6.6641038411217
 62
7
  0
LINE
  6
BYLAYER
  8
0
 10
-20.3206124913698
 11
-22.7977989320477
 20
4.6238496038336
 21
7.10139197671495
 62
7
  0
LINE
  6
BYLAYER
  8
0
 10
-20.0254429998443
 11
-20.1632396100138
 20
5.64334112925732
 21
4.96173095976577
 62
7
  0
LINE
  6
BYLAYER
  8
0
 10
-20.1632396100138
 11
-20.5397650337426
 20
4.96173095976577
 21
4.40596824790136
 62
7
  0
LINE
  6
BYLAYER
  8
0
 10
-20.5397650337426
 11
-21.0957819828952
 20
4.40596824790136
 21
4.02969706146069
 62
7
  0
LINE
  6
BYLAYER
  8
0
 10
-21.0957819828952
 11
-21.7771379150985
 20
4.02969706146069
 21
3.89164621400308
 62
7
  0
LINE
  6
BYLAYER
  8
0
 10
-21.7771379150985
 11
-22.4597650337426
 20
3.89164621400308
 21
4.02969706146069
 62
7
  0
LINE
  6
BYLAYER
  8
0
 10
-22.4597650337426
 11
-23.0157565591663
 20
4.02969706146069
 21
4.40596824790136
 62
7
  0
LINE
  6
BYLAYER
  8
0
 10
-23.0157565591663
 11
-23.392307406624
 20
4.40596824790136
 21
4.96173095976577
 62
7
  0
LINE
  6
BYLAYER
  8
0
 10
-23.392307406624
 11
-23.5288582540816
 20
4.96173095976577
 21
5.64334112925732
 62
7
  0
LINE
  6
BYLAYER
  8
0
 10
-23.5288582540816
 11
-23.392307406624
 20
5.64334112925732
 21
6.32596824790139
 62
7
  0
LINE
  6
BYLAYER
  8
0
 10
-23.392307406624
 11
-23.0157565591663
 20
6.32596824790139
 21
6.88351062078272
 62
7
  0
LINE
  6
BYLAYER
  8
0
 10
-23.0157565591663
 11
-22.4597650337426
 20
6.88351062078272
 21
7.25851062078274
 62
7
  0
LINE
  6
BYLAYER
  8
0
 10
-22.4597650337426
 11
-21.7771379150985
 20
7.25851062078274
 21
7.39503604451156
 62
7
  0
LINE
  6
BYLAYER
  8
0
 10
-21.7771379150985
 11
-21.0957819828952
 20
7.39503604451156
 21
7.25851062078274
 62
7
  0
LINE
  6
BYLAYER
  8
0
 10
-21.0957819828952
 11
-20.5397650337426
 20
7.25851062078274
 21
6.88351062078272
 62
7
  0
LINE
  6
BYLAYER
  8
0
 10
-20.5397650337426
 11
-20.1632396100138
 20
6.88351062078272
 21
6.32596824790139
 62
7
  0
LINE
  6
BYLAYER
  8
0
 10
-20.1632396100138
 11
-20.0254429998443
 20
6.32596824790139
 21
5.64334112925732
 62
7
  0
LINE
  6
BYLAYER
  8
0
 10
-20.0254429998443
 11
-20.0254429998443
 20
5.64334112925732
 21
5.64334112925732
 62
7
  0
LINE
  6
BYLAYER
  8
0
 10
-20.741120965946
 11
-23.2185107964545
 20
-0.87403175209861
 21
1.60300214620645
 62
7
  0
LINE
  6
BYLAYER
  8
0
 10
-20.3206124913698
 11
-22.7977989320477
 20
-0.438269040234204
 21
2.03927333264716
 62
7
  0
LINE
  6
BYLAYER
  8
0
 10
-20.0254429998443
 11
-20.1632396100138
 20
0.582493671630203
 21
-0.0988622605731848
 62
7
  0
LINE
  6
BYLAYER
  8
0
 10
-20.1632396100138
 11
-20.5397650337426
 20
-0.0988622605731848
 21
-0.654624972437617
 62
7
  0
LINE
  6
BYLAYER
  8
0
 10
-20.5397650337426
 11
-21.0957819828952
 20
-0.654624972437617
 21
-1.03115039616641
 62
7
  0
LINE
  6
BYLAYER
  8
0
 10
-21.0957819828952
 11
-21.7771379150985
 20
-1.03115039616641
 21
-1.16920124362406
 62
7
  0
LINE
  6
BYLAYER
  8
0
 10
-21.7771379150985
 11
-22.4597650337426
 20
-1.16920124362406
 21
-1.03115039616641
 62
7
  0
LINE
  6
BYLAYER
  8
0
 10
-22.4597650337426
 11
-23.0157565591663
 20
-1.03115039616641
 21
-0.654624972437617
 62
7
  0
LINE
  6
BYLAYER
  8
0
 10
-23.0157565591663
 11
-23.392307406624
 20
-0.654624972437617
 21
-0.0988622605731848
 62
7
  0
LINE
  6
BYLAYER
  8
0
 10
-23.392307406624
 11
-23.5288582540816
 20
-0.0988622605731848
 21
0.582493671630203
 62
7
  0
LINE
  6
BYLAYER
  8
0
 10
-23.5288582540816
 11
-23.392307406624
 20
0.582493671630203
 21
1.26512079027425
 62
7
  0
LINE
  6
BYLAYER
  8
0
 10
-23.392307406624
 11
-23.0157565591663
 20
1.26512079027425
 21
1.82139197671495
 62
7
  0
LINE
  6
BYLAYER
  8
0
 10
-23.0157565591663
 11
-22.4597650337426
 20
1.82139197671495
 21
2.1976631631556
 62
7
  0
LINE
  6
BYLAYER
  8
0
 10
-22.4597650337426
 11
-21.7771379150985
 20
2.1976631631556
 21
2.33444282417258
 62
7
  0
LINE
  6
BYLAYER
  8
0
 10
-21.7771379150985
 11
-21.0957819828952
 20
2.33444282417258
 21
2.1976631631556
 62
7
  0
LINE
  6
BYLAYER
  8
0
 10
-21.0957819828952
 11
-20.5397650337426
 20
2.1976631631556
 21
1.82139197671495
 62
7
  0
LINE
  6
BYLAYER
  8
0
 10
-20.5397650337426
 11
-20.1632396100138
 20
1.82139197671495
 21
1.26512079027425
 62
7
  0
LINE
  6
BYLAYER
  8
0
 10
-20.1632396100138
 11
-20.0254429998443
 20
1.26512079027425
 21
0.582493671630203
 62
7
  0
LINE
  6
BYLAYER
  8
0
 10
-20.0254429998443
 11
-20.0254429998443
 20
0.582493671630203
 21
0.582493671630203
 62
7
  0
LINE
  6
BYLAYER
  8
0
 10
-20.7329853727257
 11
-23.2102480845901
 20
-10.874201243624
 21
-8.39691310803081
 62
7
  0
LINE
  6
BYLAYER
  8
0
 10
-20.3122226608613
 11
-22.7895362201833
 20
-10.4369131080308
 21
-7.95962497243759
 62
7
  0
LINE
  6
BYLAYER
  8
0
 10
-20.0170531693359
 11
-20.1551040167935
 20
-9.41767581989522
 21
-10.0990317520986
 62
7
  0
LINE
  6
BYLAYER
  8
0
 10
-20.1551040167935
 11
-20.5316294405223
 20
-10.0990317520986
 21
-10.654794463963
 62
7
  0
LINE
  6
BYLAYER
  8
0
 10
-20.5316294405223
 11
-21.0873921523867
 20
-10.654794463963
 21
-11.0313198876919
 62
7
  0
LINE
  6
BYLAYER
  8
0
 10
-21.0873921523867
 11
-21.7687480845901
 20
-11.0313198876919
 21
-11.1693707351495
 62
7
  0
LINE
  6
BYLAYER
  8
0
 10
-21.7687480845901
 11
-22.4516294405223
 20
-11.1693707351495
 21
-11.0313198876919
 62
7
  0
LINE
  6
BYLAYER
  8
0
 10
-22.4516294405223
 11
-23.0074938473019
 20
-11.0313198876919
 21
-10.654794463963
 62
7
  0
LINE
  6
BYLAYER
  8
0
 10
-23.0074938473019
 11
-23.3840446947596
 20
-10.654794463963
 21
-10.0990317520986
 62
7
  0
LINE
  6
BYLAYER
  8
0
 10
-23.3840446947596
 11
-23.5205701184884
 20
-10.0990317520986
 21
-9.41767581989522
 62
7
  0
LINE
  6
BYLAYER
  8
0
 10
-23.5205701184884
 11
-23.3840446947596
 20
-9.41767581989522
 21
-8.73479446396304
 62
7
  0
LINE
  6
BYLAYER
  8
0
 10
-23.3840446947596
 11
-23.0074938473019
 20
-8.73479446396304
 21
-8.17750632836982
 62
7
  0
LINE
  6
BYLAYER
  8
0
 10
-23.0074938473019
 11
-22.4516294405223
 20
-8.17750632836982
 21
-7.80225209108166
 62
7
  0
LINE
  6
BYLAYER
  8
0
 10
-22.4516294405223
 11
-21.7687480845901
 20
-7.80225209108166
 21
-7.66572666735287
 62
7
  0
LINE
  6
BYLAYER
  8
0
 10
-21.7687480845901
 11
-21.0873921523867
 20
-7.66572666735287
 21
-7.80225209108166
 62
7
  0
LINE
  6
BYLAYER
  8
0
 10
-21.0873921523867
 11
-20.5316294405223
 20
-7.80225209108166
 21
-8.17750632836982
 62
7
  0
LINE
  6
BYLAYER
  8
0
 10
-20.5316294405223
 11
-20.1551040167935
 20
-8.17750632836982
 21
-8.73479446396304
 62
7
  0
LINE
  6
BYLAYER
  8
0
 10
-20.1551040167935
 11
-20.0170531693359
 20
-8.73479446396304
 21
-9.41767581989522
 62
7
  0
LINE
  6
BYLAYER
  8
0
 10
-20.0170531693359
 11
-20.0170531693359
 20
-9.41767581989522
 21
-9.41767581989522
 62
7
  0
LINE
  6
BYLAYER
  8
0
 10
-20.7217989320477
 11
-23.1991887625562
 20
-5.81335378599691
 21
-3.3360656504037
 62
7
  0
LINE
  6
BYLAYER
  8
0
 10
-20.2997650337426
 11
-22.7771040167935
 20
-5.37606565040372
 21
-2.8987775148105
 62
7
  0
LINE
  6
BYLAYER
  8
0
 10
-20.006120965946
 11
-20.1439175761155
 20
-4.35682836226813
 21
-5.03818429447152
 62
7
  0
LINE
  6
BYLAYER
  8
0
 10
-20.1439175761155
 11
-20.5191718134036
 20
-5.03818429447152
 21
-5.59394700633592
 62
7
  0
LINE
  6
BYLAYER
  8
0
 10
-20.5191718134036
 11
-21.0764599489969
 20
-5.59394700633592
 21
-5.97072666735287
 62
7
  0
LINE
  6
BYLAYER
  8
0
 10
-21.0764599489969
 11
-21.7578158812003
 20
-5.97072666735287
 21
-6.10852327752236
 62
7
  0
LINE
  6
BYLAYER
  8
0
 10
-21.7578158812003
 11
-22.4406972371324
 20
-6.10852327752236
 21
-5.97072666735287
 62
7
  0
LINE
  6
BYLAYER
  8
0
 10
-22.4406972371324
 11
-22.996434525268
 20
-5.97072666735287
 21
-5.59394700633592
 62
7
  0
LINE
  6
BYLAYER
  8
0
 10
-22.996434525268
 11
-23.3729853727257
 20
-5.59394700633592
 21
-5.03818429447152
 62
7
  0
LINE
  6
BYLAYER
  8
0
 10
-23.3729853727257
 11
-23.5095362201833
 20
-5.03818429447152
 21
-4.35682836226813
 62
7
  0
LINE
  6
BYLAYER
  8
0
 10
-23.5095362201833
 11
-23.3729853727257
 20
-4.35682836226813
 21
-3.67394700633592
 62
7
  0
LINE
  6
BYLAYER
  8
0
 10
-23.3729853727257
 11
-22.996434525268
 20
-3.67394700633592
 21
-3.11691310803081
 62
7
  0
LINE
  6
BYLAYER
  8
0
 10
-22.996434525268
 11
-22.4406972371324
 20
-3.11691310803081
 21
-2.7416588707427
 62
7
  0
LINE
  6
BYLAYER
  8
0
 10
-22.4406972371324
 11
-21.7578158812003
 20
-2.7416588707427
 21
-2.60513344701389
 62
7
  0
LINE
  6
BYLAYER
  8
0
 10
-21.7578158812003
 11
-21.0764599489969
 20
-2.60513344701389
 21
-2.7416588707427
 62
7
  0
LINE
  6
BYLAYER
  8
0
 10
-21.0764599489969
 11
-20.5191718134036
 20
-2.7416588707427
 21
-3.11691310803081
 62
7
  0
LINE
  6
BYLAYER
  8
0
 10
-20.5191718134036
 11
-20.1439175761155
 20
-3.11691310803081
 21
-3.67394700633592
 62
7
  0
LINE
  6
BYLAYER
  8
0
 10
-20.1439175761155
 11
-20.006120965946
 20
-3.67394700633592
 21
-4.35682836226813
 62
7
  0
LINE
  6
BYLAYER
  8
0
 10
-20.006120965946
 11
-20.006120965946
 20
-4.35682836226813
 21
-4.35682836226813
 62
7
  0
LINE
  6
BYLAYER
  8
0
 10
-24.1385192710307
 11
-24.1536718134036
 20
18.1548665529861
 21
-12.1320910741325
 62
7
  0
LINE
  6
BYLAYER
  8
0
 10
-19.3715446947596
 11
-19.3756124913698
 20
18.1548665529861
 21
-12.1320910741325
 62
7
  0
LINE
  6
BYLAYER
  8
0
 10
-18.0543413049291
 11
-18.0612057117087
 20
-12.1610487012512
 21
18.1772394343421
 62
7
  0
LINE
  6
BYLAYER
  8
0
 10
-18.0612057117087
 11
-25.4474853727257
 20
18.1772394343421
 21
18.1619851970539
 62
7
  0
LINE
  6
BYLAYER
  8
0
 10
-25.4474853727257
 11
-25.4543752032341
 20
18.1619851970539
 21
-12.1610487012512
 62
7
  0
LINE
  6
BYLAYER
  8
0
 10
-25.4543752032341
 11
-18.0543413049291
 20
-12.1610487012512
 21
-12.1610487012512
 62
7
  0
LINE
  6
BYLAYER
  8
0
 10
-18.0543413049291
 11
-18.0543413049291
 20
-12.1610487012512
 21
-12.1610487012512
 62
7
  0
LINE
  6
BYLAYER
  8
0
 10
-18.0543413049291
 11
-18.0612057117087
 20
-12.1610487012512
 21
18.1772394343421
 62
7
  0
LINE
  6
BYLAYER
  8
0
 10
-18.0612057117087
 11
-25.4474853727257
 20
18.1772394343421
 21
18.1619851970539
 62
7
  0
LINE
  6
BYLAYER
  8
0
 10
-25.4474853727257
 11
-25.4543752032341
 20
18.1619851970539
 21
-12.1610487012512
 62
7
  0
LINE
  6
BYLAYER
  8
0
 10
-25.4543752032341
 11
-18.0543413049291
 20
-12.1610487012512
 21
-12.1610487012512
 62
7
  0
LINE
  6
BYLAYER
  8
0
 10
-18.0543413049291
 11
-18.0543413049291
 20
-12.1610487012512
 21
-12.1610487012512
 62
7
  0
LINE
  6
BYLAYER
  8
0
 10
-43.5621718134036
 11
-43.0449260506918
 20
23.2159682479014
 21
25.1441038411217
 62
7
  0
LINE
  6
BYLAYER
  8
0
 10
-43.0449260506918
 11
-43.0449260506918
 20
25.1441038411217
 21
25.122239434342
 62
7
  0
LINE
  6
BYLAYER
  8
0
 10
-43.0449260506918
 11
-42.5290531693358
 20
25.122239434342
 21
23.1938496038336
 62
7
  0
LINE
  6
BYLAYER
  8
0
 10
-42.5290531693358
 11
-42.6711463896748
 20
23.1938496038336
 21
23.4475784173929
 62
7
  0
LINE
  6
BYLAYER
  8
0
 10
-42.6711463896748
 11
-43.0766548642511
 20
23.4475784173929
 21
23.7015614682403
 62
7
  0
LINE
  6
BYLAYER
  8
0
 10
-43.0766548642511
 11
-43.4518328303528
 20
23.7015614682403
 21
23.4587648580709
 62
7
  0
LINE
  6
BYLAYER
  8
0
 10
-43.4518328303528
 11
-43.5621718134036
 20
23.4587648580709
 21
23.2159682479014
 62
7
  0
LINE
  6
BYLAYER
  8
0
 10
-43.5621718134036
 11
-43.5621718134036
 20
23.2159682479014
 21
23.2159682479014
 62
7
  0
LINE
  6
BYLAYER
  8
0
 10
-43.5621718134036
 11
-43.0449260506918
 20
23.2159682479014
 21
25.1441038411217
 62
7
  0
LINE
  6
BYLAYER
  8
0
 10
-43.0449260506918
 11
-43.0449260506918
 20
25.1441038411217
 21
25.122239434342
 62
7
  0
LINE
  6
BYLAYER
  8
0
 10
-43.0449260506918
 11
-42.5290531693358
 20
25.122239434342
 21
23.1938496038336
 62
7
  0
LINE
  6
BYLAYER
  8
0
 10
-42.5290531693358
 11
-42.6711463896748
 20
23.1938496038336
 21
23.4475784173929
 62
7
  0
LINE
  6
BYLAYER
  8
0
 10
-42.6711463896748
 11
-43.0766548642511
 20
23.4475784173929
 21
23.7015614682403
 62
7
  0
LINE
  6
BYLAYER
  8
0
 10
-43.0766548642511
 11
-43.4518328303528
 20
23.7015614682403
 21
23.4587648580709
 62
7
  0
LINE
  6
BYLAYER
  8
0
 10
-43.4518328303528
 11
-43.5621718134036
 20
23.4587648580709
 21
23.2159682479014
 62
7
  0
LINE
  6
BYLAYER
  8
0
 10
-43.5621718134036
 11
-43.5621718134036
 20
23.2159682479014
 21
23.2159682479014
 62
7
  0
LINE
  6
BYLAYER
  8
0
 10
-42.5524938473019
 11
-43.0683921523867
 20
-16.9045571758274
 21
-18.8328453114206
 62
7
  0
LINE
  6
BYLAYER
  8
0
 10
-43.0683921523867
 11
-43.0683921523867
 20
-18.8328453114206
 21
-18.8093792097257
 62
7
  0
LINE
  6
BYLAYER
  8
0
 10
-43.0683921523867
 11
-43.5856379150985
 20
-18.8093792097257
 21
-16.8824893792173
 62
7
  0
LINE
  6
BYLAYER
  8
0
 10
-43.5856379150985
 11
-43.4449429998443
 20
-16.8824893792173
 21
-17.1362690402342
 62
7
  0
LINE
  6
BYLAYER
  8
0
 10
-43.4449429998443
 11
-43.0380362201833
 20
-17.1362690402342
 21
-17.39007412498
 62
7
  0
LINE
  6
BYLAYER
  8
0
 10
-43.0380362201833
 11
-42.6628582540816
 20
-17.39007412498
 21
-17.1473283622681
 62
7
  0
LINE
  6
BYLAYER
  8
0
 10
-42.6628582540816
 11
-42.5524938473019
 20
-17.1473283622681
 21
-16.9045571758274
 62
7
  0
LINE
  6
BYLAYER
  8
0
 10
-42.5524938473019
 11
-42.5524938473019
 20
-16.9045571758274
 21
-16.9045571758274
 62
7
  0
LINE
  6
BYLAYER
  8
0
 10
-42.5524938473019
 11
-43.0683921523867
 20
-16.9045571758274
 21
-18.8328453114206
 62
7
  0
LINE
  6
BYLAYER
  8
0
 10
-43.0683921523867
 11
-43.0683921523867
 20
-18.8328453114206
 21
-18.8093792097257
 62
7
  0
LINE
  6
BYLAYER
  8
0
 10
-43.0683921523867
 11
-43.5856379150985
 20
-18.8093792097257
 21
-16.8824893792173
 62
7
  0
LINE
  6
BYLAYER
  8
0
 10
-43.5856379150985
 11
-43.4449429998443
 20
-16.8824893792173
 21
-17.1362690402342
 62
7
  0
LINE
  6
BYLAYER
  8
0
 10
-43.4449429998443
 11
-43.0380362201833
 20
-17.1362690402342
 21
-17.39007412498
 62
7
  0
LINE
  6
BYLAYER
  8
0
 10
-43.0380362201833
 11
-42.6628582540816
 20
-17.39007412498
 21
-17.1473283622681
 62
7
  0
LINE
  6
BYLAYER
  8
0
 10
-42.6628582540816
 11
-42.5524938473019
 20
-17.1473283622681
 21
-16.9045571758274
 62
7
  0
LINE
  6
BYLAYER
  8
0
 10
-42.5524938473019
 11
-42.5524938473019
 20
-16.9045571758274
 21
-16.9045571758274
 62
7
  0
LINE
  6
BYLAYER
  8
0
 10
66.1879468306642
 11
68.1163366611726
 20
-34.1419724300647
 21
-34.6592283622681
 62
7
  0
LINE
  6
BYLAYER
  8
0
 10
68.1163366611726
 11
68.0942180171048
 20
-34.6592283622681
 21
-34.6592283622681
 62
7
  0
LINE
  6
BYLAYER
  8
0
 10
68.0942180171048
 11
66.1658281865963
 20
-34.6592283622681
 21
-35.1750987012512
 62
7
  0
LINE
  6
BYLAYER
  8
0
 10
66.1658281865963
 11
66.4195570001557
 20
-35.1750987012512
 21
-35.0330283622681
 62
7
  0
LINE
  6
BYLAYER
  8
0
 10
66.4195570001557
 11
66.6735400510031
 20
-35.0330283622681
 21
-34.6275071758274
 62
7
  0
LINE
  6
BYLAYER
  8
0
 10
66.6735400510031
 11
66.4307434408337
 20
-34.6275071758274
 21
-34.2523292097257
 62
7
  0
LINE
  6
BYLAYER
  8
0
 10
66.4307434408337
 11
66.1879468306642
 20
-34.2523292097257
 21
-34.1419724300647
 62
7
  0
LINE
  6
BYLAYER
  8
0
 10
66.1879468306642
 11
66.1879468306642
 20
-34.1419724300647
 21
-34.1419724300647
 62
7
  0
LINE
  6
BYLAYER
  8
0
 10
66.1879468306642
 11
68.1163366611726
 20
-34.1419724300647
 21
-34.6592283622681
 62
7
  0
LINE
  6
BYLAYER
  8
0
 10
68.1163366611726
 11
68.0942180171048
 20
-34.6592283622681
 21
-34.6592283622681
 62
7
  0
LINE
  6
BYLAYER
  8
0
 10
68.0942180171048
 11
66.1658281865963
 20
-34.6592283622681
 21
-35.1750987012512
 62
7
  0
LINE
  6
BYLAYER
  8
0
 10
66.1658281865963
 11
66.4195570001557
 20
-35.1750987012512
 21
-35.0330283622681
 62
7
  0
LINE
  6
BYLAYER
  8
0
 10
66.4195570001557
 11
66.6735400510031
 20
-35.0330283622681
 21
-34.6275071758274
 62
7
  0
LINE
  6
BYLAYER
  8
0
 10
66.6735400510031
 11
66.4307434408337
 20
-34.6275071758274
 21
-34.2523292097257
 62
7
  0
LINE
  6
BYLAYER
  8
0
 10
66.4307434408337
 11
66.1879468306642
 20
-34.2523292097257
 21
-34.1419724300647
 62
7
  0
LINE
  6
BYLAYER
  8
0
 10
66.1879468306642
 11
66.1879468306642
 20
-34.1419724300647
 21
-34.1419724300647
 62
7
  0
LINE
  6
BYLAYER
  8
0
 10
54.2070146272743
 11
52.278879034054
 20
-35.1737181927766
 21
-34.6564724300647
 62
7
  0
LINE
  6
BYLAYER
  8
0
 10
52.278879034054
 11
52.3025231018506
 20
-34.6564724300647
 21
-34.6564724300647
 62
7
  0
LINE
  6
BYLAYER
  8
0
 10
52.3025231018506
 11
54.2293875086302
 20
-34.6564724300647
 21
-34.1405995487088
 62
7
  0
LINE
  6
BYLAYER
  8
0
 10
54.2293875086302
 11
53.9754044577828
 20
-34.1405995487088
 21
-34.281294463963
 62
7
  0
LINE
  6
BYLAYER
  8
0
 10
53.9754044577828
 11
53.7216756442235
 20
-34.281294463963
 21
-34.6881961588783
 62
7
  0
LINE
  6
BYLAYER
  8
0
 10
53.7216756442235
 11
53.964472254393
 20
-34.6881961588783
 21
-35.0633715826071
 62
7
  0
LINE
  6
BYLAYER
  8
0
 10
53.964472254393
 11
54.2070146272743
 20
-35.0633715826071
 21
-35.1737181927766
 62
7
  0
LINE
  6
BYLAYER
  8
0
 10
54.2070146272743
 11
54.2070146272743
 20
-35.1737181927766
 21
-35.1737181927766
 62
7
  0
LINE
  6
BYLAYER
  8
0
 10
54.2070146272743
 11
52.278879034054
 20
-35.1737181927766
 21
-34.6564724300647
 62
7
  0
LINE
  6
BYLAYER
  8
0
 10
52.278879034054
 11
52.3025231018506
 20
-34.6564724300647
 21
-34.6564724300647
 62
7
  0
LINE
  6
BYLAYER
  8
0
 10
52.3025231018506
 11
54.2293875086302
 20
-34.6564724300647
 21
-34.1405995487088
 62
7
  0
LINE
  6
BYLAYER
  8
0
 10
54.2293875086302
 11
53.9754044577828
 20
-34.1405995487088
 21
-34.281294463963
 62
7
  0
LINE
  6
BYLAYER
  8
0
 10
53.9754044577828
 11
53.7216756442235
 20
-34.281294463963
 21
-34.6881961588783
 62
7
  0
LINE
  6
BYLAYER
  8
0
 10
53.7216756442235
 11
53.964472254393
 20
-34.6881961588783
 21
-35.0633715826071
 62
7
  0
LINE
  6
BYLAYER
  8
0
 10
53.964472254393
 11
54.2070146272743
 20
-35.0633715826071
 21
-35.1737181927766
 62
7
  0
LINE
  6
BYLAYER
  8
0
 10
54.2070146272743
 11
54.2070146272743
 20
-35.1737181927766
 21
-35.1737181927766
 62
7
  0
LINE
  6
BYLAYER
  8
0
 10
30.4510824238845
 11
32.3779468306642
 20
-34.1405995487088
 21
-34.6564724300647
 62
7
  0
LINE
  6
BYLAYER
  8
0
 10
32.3779468306642
 11
32.3558281865963
 20
-34.6564724300647
 21
-34.6564724300647
 62
7
  0
LINE
  6
BYLAYER
  8
0
 10
32.3558281865963
 11
30.4289637798167
 20
-34.6564724300647
 21
-35.1737181927766
 62
7
  0
LINE
  6
BYLAYER
  8
0
 10
30.4289637798167
 11
30.682692593376
 20
-35.1737181927766
 21
-35.0316478537935
 62
7
  0
LINE
  6
BYLAYER
  8
0
 10
30.682692593376
 11
30.9366756442235
 20
-35.0316478537935
 21
-34.6261266673529
 62
7
  0
LINE
  6
BYLAYER
  8
0
 10
30.9366756442235
 11
30.6936247967659
 20
-34.6261266673529
 21
-34.2509487012512
 62
7
  0
LINE
  6
BYLAYER
  8
0
 10
30.6936247967659
 11
30.4510824238845
 20
-34.2509487012512
 21
-34.1405995487088
 62
7
  0
LINE
  6
BYLAYER
  8
0
 10
30.4510824238845
 11
30.4510824238845
 20
-34.1405995487088
 21
-34.1405995487088
 62
7
  0
LINE
  6
BYLAYER
  8
0
 10
30.4510824238845
 11
32.3779468306642
 20
-34.1405995487088
 21
-34.6564724300647
 62
7
  0
LINE
  6
BYLAYER
  8
0
 10
32.3779468306642
 11
32.3558281865963
 20
-34.6564724300647
 21
-34.6564724300647
 62
7
  0
LINE
  6
BYLAYER
  8
0
 10
32.3558281865963
 11
30.4289637798167
 20
-34.6564724300647
 21
-35.1737181927766
 62
7
  0
LINE
  6
BYLAYER
  8
0
 10
30.4289637798167
 11
30.682692593376
 20
-35.1737181927766
 21
-35.0316478537935
 62
7
  0
LINE
  6
BYLAYER
  8
0
 10
30.682692593376
 11
30.9366756442235
 20
-35.0316478537935
 21
-34.6261266673529
 62
7
  0
LINE
  6
BYLAYER
  8
0
 10
30.9366756442235
 11
30.6936247967659
 20
-34.6261266673529
 21
-34.2509487012512
 62
7
  0
LINE
  6
BYLAYER
  8
0
 10
30.6936247967659
 11
30.4510824238845
 20
-34.2509487012512
 21
-34.1405995487088
 62
7
  0
LINE
  6
BYLAYER
  8
0
 10
30.4510824238845
 11
30.4510824238845
 20
-34.1405995487088
 21
-34.1405995487088
 62
7
  0
LINE
  6
BYLAYER
  8
0
 10
-26.0171548642511
 11
-27.9440701184884
 20
-35.1640622605732
 21
-34.648194463963
 62
7
  0
LINE
  6
BYLAYER
  8
0
 10
-27.9440701184884
 11
-27.9220023218782
 20
-34.648194463963
 21
-34.648194463963
 62
7
  0
LINE
  6
BYLAYER
  8
0
 10
-27.9220023218782
 11
-25.9950870676409
 20
-34.648194463963
 21
-34.1309385317596
 62
7
  0
LINE
  6
BYLAYER
  8
0
 10
-25.9950870676409
 11
-26.2488667286579
 20
-34.1309385317596
 21
-34.2716410741325
 62
7
  0
LINE
  6
BYLAYER
  8
0
 10
-26.2488667286579
 11
-26.5026718134036
 20
-34.2716410741325
 21
-34.6785402266749
 62
7
  0
LINE
  6
BYLAYER
  8
0
 10
-26.5026718134036
 11
-26.2599260506918
 20
-34.6785402266749
 21
-35.0537181927766
 62
7
  0
LINE
  6
BYLAYER
  8
0
 10
-26.2599260506918
 11
-26.0171548642511
 20
-35.0537181927766
 21
-35.1640622605732
 62
7
  0
LINE
  6
BYLAYER
  8
0
 10
-26.0171548642511
 11
-26.0171548642511
 20
-35.1640622605732
 21
-35.1640622605732
 62
7
  0
LINE
  6
BYLAYER
  8
0
 10
-26.0171548642511
 11
-27.9440701184884
 20
-35.1640622605732
 21
-34.648194463963
 62
7
  0
LINE
  6
BYLAYER
  8
0
 10
-27.9440701184884
 11
-27.9220023218782
 20
-34.648194463963
 21
-34.648194463963
 62
7
  0
LINE
  6
BYLAYER
  8
0
 10
-27.9220023218782
 11
-25.9950870676409
 20
-34.648194463963
 21
-34.1309385317596
 62
7
  0
LINE
  6
BYLAYER
  8
0
 10
-25.9950870676409
 11
-26.2488667286579
 20
-34.1309385317596
 21
-34.2716410741325
 62
7
  0
LINE
  6
BYLAYER
  8
0
 10
-26.2488667286579
 11
-26.5026718134036
 20
-34.2716410741325
 21
-34.6785402266749
 62
7
  0
LINE
  6
BYLAYER
  8
0
 10
-26.5026718134036
 11
-26.2599260506918
 20
-34.6785402266749
 21
-35.0537181927766
 62
7
  0
LINE
  6
BYLAYER
  8
0
 10
-26.2599260506918
 11
-26.0171548642511
 20
-35.0537181927766
 21
-35.1640622605732
 62
7
  0
LINE
  6
BYLAYER
  8
0
 10
-26.0171548642511
 11
-26.0171548642511
 20
-35.1640622605732
 21
-35.1640622605732
 62
7
  0
LINE
  6
BYLAYER
  8
0
 10
63.2459129323591
 11
63.6155739493082
 20
-33.2095571758274
 21
-33.2095571758274
 62
7
  0
LINE
  6
BYLAYER
  8
0
 10
63.6155739493082
 11
63.6155739493082
 20
-33.2095571758274
 21
-32.039887684302
 62
7
  0
LINE
  6
BYLAYER
  8
0
 10
63.6155739493082
 11
63.7866756442235
 20
-32.039887684302
 21
-31.4550402266749
 62
7
  0
LINE
  6
BYLAYER
  8
0
 10
63.7866756442235
 11
64.1728620849015
 20
-31.4550402266749
 21
-31.2895571758274
 62
7
  0
LINE
  6
BYLAYER
  8
0
 10
64.1728620849015
 11
64.4817603899862
 20
-31.2895571758274
 21
-31.4440317520986
 62
7
  0
LINE
  6
BYLAYER
  8
0
 10
64.4817603899862
 11
64.5369298815116
 20
-31.4440317520986
 21
-31.7695317520986
 62
7
  0
LINE
  6
BYLAYER
  8
0
 10
64.5369298815116
 11
64.5369298815116
 20
-31.7695317520986
 21
-33.2095571758274
 62
7
  0
LINE
  6
BYLAYER
  8
0
 10
64.5369298815116
 11
64.9121841187997
 20
-33.2095571758274
 21
-33.2095571758274
 62
7
  0
LINE
  6
BYLAYER
  8
0
 10
64.9121841187997
 11
64.9121841187997
 20
-33.2095571758274
 21
-31.9295487012512
 62
7
  0
LINE
  6
BYLAYER
  8
0
 10
64.9121841187997
 11
65.072099373037
 20
-31.9295487012512
 21
-31.4440317520986
 62
7
  0
LINE
  6
BYLAYER
  8
0
 10
65.072099373037
 11
65.447099373037
 20
-31.4440317520986
 21
-31.2950487012512
 62
7
  0
LINE
  6
BYLAYER
  8
0
 10
65.447099373037
 11
65.7176078476133
 20
-31.2950487012512
 21
-31.3778283622681
 62
7
  0
LINE
  6
BYLAYER
  8
0
 10
65.7176078476133
 11
65.8279468306641
 20
-31.3778283622681
 21
-31.6757436165054
 62
7
  0
LINE
  6
BYLAYER
  8
0
 10
65.8279468306641
 11
65.8279468306641
 20
-31.6757436165054
 21
-33.2095571758274
 62
7
  0
LINE
  6
BYLAYER
  8
0
 10
65.8279468306641
 11
66.2141332713421
 20
-33.2095571758274
 21
-33.2095571758274
 62
7
  0
LINE
  6
BYLAYER
  8
0
 10
66.2141332713421
 11
66.2141332713421
 20
-33.2095571758274
 21
-31.7474639554884
 62
7
  0
LINE
  6
BYLAYER
  8
0
 10
66.2141332713421
 11
66.1259129323591
 20
-31.7474639554884
 21
-31.2784978537935
 62
7
  0
LINE
  6
BYLAYER
  8
0
 10
66.1259129323591
 11
65.5187942882913
 20
-31.2784978537935
 21
-30.9585148029461
 62
7
  0
LINE
  6
BYLAYER
  8
0
 10
65.5187942882913
 11
65.1437942882913
 20
-30.9585148029461
 21
-31.0412436165054
 62
7
  0
LINE
  6
BYLAYER
  8
0
 10
65.1437942882913
 11
64.8514214069353
 20
-31.0412436165054
 21
-31.3005656504037
 62
7
  0
LINE
  6
BYLAYER
  8
0
 10
64.8514214069353
 11
64.691506152698
 20
-31.3005656504037
 21
-31.0853792097257
 62
7
  0
LINE
  6
BYLAYER
  8
0
 10
64.691506152698
 11
64.2610824238845
 20
-31.0853792097257
 21
-30.9585148029461
 62
7
  0
LINE
  6
BYLAYER
  8
0
 10
64.2610824238845
 11
63.8471841187998
 20
-30.9585148029461
 21
-31.0853792097257
 62
7
  0
LINE
  6
BYLAYER
  8
0
 10
63.8471841187998
 11
63.6046417459184
 20
-31.0853792097257
 21
-31.3171164978613
 62
7
  0
LINE
  6
BYLAYER
  8
0
 10
63.6046417459184
 11
63.6046417459184
 20
-31.3171164978613
 21
-31.0081673453189
 62
7
  0
LINE
  6
BYLAYER
  8
0
 10
63.6046417459184
 11
63.2459129323591
 20
-31.0081673453189
 21
-31.0081673453189
 62
7
  0
LINE
  6
BYLAYER
  8
0
 10
63.2459129323591
 11
63.2459129323591
 20
-31.0081673453189
 21
-33.2095571758274
 62
7
  0
LINE
  6
BYLAYER
  8
0
 10
63.2459129323591
 11
63.2459129323591
 20
-33.2095571758274
 21
-33.2095571758274
 62
7
  0
LINE
  6
BYLAYER
  8
0
 10
59.7176078476133
 11
60.0872688645624
 20
-33.2095571758274
 21
-33.2095571758274
 62
7
  0
LINE
  6
BYLAYER
  8
0
 10
60.0872688645624
 11
60.0872688645624
 20
-33.2095571758274
 21
-32.039887684302
 62
7
  0
LINE
  6
BYLAYER
  8
0
 10
60.0872688645624
 11
60.2583705594777
 20
-32.039887684302
 21
-31.4550402266749
 62
7
  0
LINE
  6
BYLAYER
  8
0
 10
60.2583705594777
 11
60.6445570001557
 20
-31.4550402266749
 21
-31.2895571758274
 62
7
  0
LINE
  6
BYLAYER
  8
0
 10
60.6445570001557
 11
60.9534553052404
 20
-31.2895571758274
 21
-31.4440317520986
 62
7
  0
LINE
  6
BYLAYER
  8
0
 10
60.9534553052404
 11
61.0086247967659
 20
-31.4440317520986
 21
-31.7695317520986
 62
7
  0
LINE
  6
BYLAYER
  8
0
 10
61.0086247967659
 11
61.0086247967659
 20
-31.7695317520986
 21
-33.2095571758274
 62
7
  0
LINE
  6
BYLAYER
  8
0
 10
61.0086247967659
 11
61.3836247967658
 20
-33.2095571758274
 21
-33.2095571758274
 62
7
  0
LINE
  6
BYLAYER
  8
0
 10
61.3836247967658
 11
61.3836247967658
 20
-33.2095571758274
 21
-31.9295487012512
 62
7
  0
LINE
  6
BYLAYER
  8
0
 10
61.3836247967658
 11
61.5440485255794
 20
-31.9295487012512
 21
-31.4440317520986
 62
7
  0
LINE
  6
BYLAYER
  8
0
 10
61.5440485255794
 11
61.9190485255794
 20
-31.4440317520986
 21
-31.2950487012512
 62
7
  0
LINE
  6
BYLAYER
  8
0
 10
61.9190485255794
 11
62.1895570001557
 20
-31.2950487012512
 21
-31.3778283622681
 62
7
  0
LINE
  6
BYLAYER
  8
0
 10
62.1895570001557
 11
62.2996417459184
 20
-31.3778283622681
 21
-31.6757436165054
 62
7
  0
LINE
  6
BYLAYER
  8
0
 10
62.2996417459184
 11
62.2996417459184
 20
-31.6757436165054
 21
-33.2095571758274
 62
7
  0
LINE
  6
BYLAYER
  8
0
 10
62.2996417459184
 11
62.6858281865964
 20
-33.2095571758274
 21
-33.2095571758274
 62
7
  0
LINE
  6
BYLAYER
  8
0
 10
62.6858281865964
 11
62.6858281865964
 20
-33.2095571758274
 21
-31.7474639554884
 62
7
  0
LINE
  6
BYLAYER
  8
0
 10
62.6858281865964
 11
62.5976078476133
 20
-31.7474639554884
 21
-31.2784978537935
 62
7
  0
LINE
  6
BYLAYER
  8
0
 10
62.5976078476133
 11
61.9907434408337
 20
-31.2784978537935
 21
-30.9585148029461
 62
7
  0
LINE
  6
BYLAYER
  8
0
 10
61.9907434408337
 11
61.6157434408337
 20
-30.9585148029461
 21
-31.0412436165054
 62
7
  0
LINE
  6
BYLAYER
  8
0
 10
61.6157434408337
 11
61.3233705594777
 20
-31.0412436165054
 21
-31.3005656504037
 62
7
  0
LINE
  6
BYLAYER
  8
0
 10
61.3233705594777
 11
61.1629468306642
 20
-31.3005656504037
 21
-31.0853792097257
 62
7
  0
LINE
  6
BYLAYER
  8
0
 10
61.1629468306642
 11
60.7327773391387
 20
-31.0853792097257
 21
-30.9585148029461
 62
7
  0
LINE
  6
BYLAYER
  8
0
 10
60.7327773391387
 11
60.3191332713421
 20
-30.9585148029461
 21
-31.0853792097257
 62
7
  0
LINE
  6
BYLAYER
  8
0
 10
60.3191332713421
 11
60.0760824238845
 20
-31.0853792097257
 21
-31.3171164978613
 62
7
  0
LINE
  6
BYLAYER
  8
0
 10
60.0760824238845
 11
60.0760824238845
 20
-31.3171164978613
 21
-31.0081673453189
 62
7
  0
LINE
  6
BYLAYER
  8
0
 10
60.0760824238845
 11
59.7176078476133
 20
-31.0081673453189
 21
-31.0081673453189
 62
7
  0
LINE
  6
BYLAYER
  8
0
 10
59.7176078476133
 11
59.7176078476133
 20
-31.0081673453189
 21
-33.2095571758274
 62
7
  0
LINE
  6
BYLAYER
  8
0
 10
59.7176078476133
 11
59.7176078476133
 20
-33.2095571758274
 21
-33.2095571758274
 62
7
  0
LINE
  6
BYLAYER
  8
0
 10
57.1215908984608
 11
56.6693027628676
 20
-32.9612690402342
 21
-32.7736927690478
 62
7
  0
LINE
  6
BYLAYER
  8
0
 10
56.6693027628676
 11
56.5037942882913
 20
-32.7736927690478
 21
-32.2991842944715
 62
7
  0
LINE
  6
BYLAYER
  8
0
 10
56.5037942882913
 11
56.6858281865964
 20
-32.2991842944715
 21
-31.8247266673528
 62
7
  0
LINE
  6
BYLAYER
  8
0
 10
56.6858281865964
 11
57.0997264916811
 20
-31.8247266673528
 21
-31.6647351419291
 62
7
  0
LINE
  6
BYLAYER
  8
0
 10
57.0997264916811
 11
57.573879034054
 20
-31.6647351419291
 21
-31.8688622605732
 62
7
  0
LINE
  6
BYLAYER
  8
0
 10
57.573879034054
 11
57.7009976781218
 20
-31.8688622605732
 21
-32.2991842944715
 62
7
  0
LINE
  6
BYLAYER
  8
0
 10
57.7009976781218
 11
57.5576078476133
 20
-32.2991842944715
 21
-32.7626334470139
 62
7
  0
LINE
  6
BYLAYER
  8
0
 10
57.5576078476133
 11
57.1215908984608
 20
-32.7626334470139
 21
-32.9612690402342
 62
7
  0
LINE
  6
BYLAYER
  8
0
 10
57.1215908984608
 11
57.1215908984608
 20
-32.9612690402342
 21
-32.9612690402342
 62
7
  0
LINE
  6
BYLAYER
  8
0
 10
57.1493027628675
 11
56.5714214069354
 20
-30.252294463963
 21
-30.4370995487088
 62
7
  0
LINE
  6
BYLAYER
  8
0
 10
56.5714214069354
 11
56.2055739493082
 20
-30.4370995487088
 21
-30.98607412498
 62
7
  0
LINE
  6
BYLAYER
  8
0
 10
56.2055739493082
 11
56.0733705594777
 20
-30.98607412498
 21
-31.9185148029461
 62
7
  0
LINE
  6
BYLAYER
  8
0
 10
56.0733705594777
 11
56.1478620849014
 20
-31.9185148029461
 21
-32.554387684302
 62
7
  0
LINE
  6
BYLAYER
  8
0
 10
56.1478620849014
 11
56.3713366611726
 20
-32.554387684302
 21
-32.9723029385393
 62
7
  0
LINE
  6
BYLAYER
  8
0
 10
56.3713366611726
 11
57.0885400510031
 20
-32.9723029385393
 21
-33.286794463963
 62
7
  0
LINE
  6
BYLAYER
  8
0
 10
57.0885400510031
 11
57.8334553052404
 20
-33.286794463963
 21
-32.9778198876918
 62
7
  0
LINE
  6
BYLAYER
  8
0
 10
57.8334553052404
 11
58.0927773391387
 20
-32.9778198876918
 21
-32.2715995487088
 62
7
  0
LINE
  6
BYLAYER
  8
0
 10
58.0927773391387
 11
57.8169298815116
 20
-32.2715995487088
 21
-31.5654046334545
 62
7
  0
LINE
  6
BYLAYER
  8
0
 10
57.8169298815116
 11
57.1714214069354
 20
-31.5654046334545
 21
-31.3281503961664
 62
7
  0
LINE
  6
BYLAYER
  8
0
 10
57.1714214069354
 11
56.7743027628676
 20
-31.3281503961664
 21
-31.4109046334545
 62
7
  0
LINE
  6
BYLAYER
  8
0
 10
56.7743027628676
 11
56.4542180171048
 20
-31.4109046334545
 21
-31.692294463963
 62
7
  0
LINE
  6
BYLAYER
  8
0
 10
56.4542180171048
 11
56.6583705594777
 20
-31.692294463963
 21
-30.864701243624
 62
7
  0
LINE
  6
BYLAYER
  8
0
 10
56.6583705594777
 11
57.1493027628675
 20
-30.864701243624
 21
-30.577794463963
 62
7
  0
LINE
  6
BYLAYER
  8
0
 10
57.1493027628675
 11
57.5576078476133
 20
-30.577794463963
 21
-30.7653961588783
 62
7
  0
LINE
  6
BYLAYER
  8
0
 10
57.5576078476133
 11
57.6623536103252
 20
-30.7653961588783
 21
-31.0357266673528
 62
7
  0
LINE
  6
BYLAYER
  8
0
 10
57.6623536103252
 11
58.0320146272743
 20
-31.0357266673528
 21
-31.0357266673528
 62
7
  0
LINE
  6
BYLAYER
  8
0
 10
58.0320146272743
 11
57.8387942882913
 20
-31.0357266673528
 21
-30.5115910741325
 62
7
  0
LINE
  6
BYLAYER
  8
0
 10
57.8387942882913
 11
57.1493027628675
 20
-30.5115910741325
 21
-30.252294463963
 62
7
  0
LINE
  6
BYLAYER
  8
0
 10
57.1493027628675
 11
57.1493027628675
 20
-30.252294463963
 21
-30.252294463963
 62
7
  0
LINE
  6
BYLAYER
  8
0
 10
54.6498959832065
 11
54.6498959832065
 20
-31.1240232775223
 21
-33.2095571758274
 62
7
  0
LINE
  6
BYLAYER
  8
0
 10
54.6498959832065
 11
55.0472688645625
 20
-33.2095571758274
 21
-33.2095571758274
 62
7
  0
LINE
  6
BYLAYER
  8
0
 10
55.0472688645625
 11
55.0472688645625
 20
-33.2095571758274
 21
-30.2798792097257
 62
7
  0
LINE
  6
BYLAYER
  8
0
 10
55.0472688645625
 11
54.7548959832065
 20
-30.2798792097257
 21
-30.2798792097257
 62
7
  0
LINE
  6
BYLAYER
  8
0
 10
54.7548959832065
 11
54.5174383560879
 20
-30.2798792097257
 21
-30.7157436165054
 62
7
  0
LINE
  6
BYLAYER
  8
0
 10
54.5174383560879
 11
53.9604044577828
 20
-30.7157436165054
 21
-30.8426080232851
 62
7
  0
LINE
  6
BYLAYER
  8
0
 10
53.9604044577828
 11
53.9604044577828
 20
-30.8426080232851
 21
-31.1240232775223
 62
7
  0
LINE
  6
BYLAYER
  8
0
 10
53.9604044577828
 11
54.6498959832065
 20
-31.1240232775223
 21
-31.1240232775223
 62
7
  0
LINE
  6
BYLAYER
  8
0
 10
54.6498959832065
 11
54.6498959832065
 20
-31.1240232775223
 21
-31.1240232775223
 62
7
  0
LINE
  6
BYLAYER
  8
0
 10
-44.493214186285
 11
-44.493214186285
 20
6.37274790891831
 21
6.7426631631556
 62
7
  0
LINE
  6
BYLAYER
  8
0
 10
-44.493214186285
 11
-45.6628913049291
 20
6.7426631631556
 21
6.7426631631556
 62
7
  0
LINE
  6
BYLAYER
  8
0
 10
-45.6628913049291
 11
-46.2477235083189
 20
6.7426631631556
 21
6.91376485807088
 62
7
  0
LINE
  6
BYLAYER
  8
0
 10
-46.2477235083189
 11
-46.4132421523867
 20
6.91376485807088
 21
7.29969706146071
 62
7
  0
LINE
  6
BYLAYER
  8
0
 10
-46.4132421523867
 11
-46.2587599489968
 20
7.29969706146071
 21
7.60859536654546
 62
7
  0
LINE
  6
BYLAYER
  8
0
 10
-46.2587599489968
 11
-45.9332396100138
 20
7.60859536654546
 21
7.66427333264713
 62
7
  0
LINE
  6
BYLAYER
  8
0
 10
-45.9332396100138
 11
-44.493214186285
 20
7.66427333264713
 21
7.66427333264713
 62
7
  0
LINE
  6
BYLAYER
  8
0
 10
-44.493214186285
 11
-44.493214186285
 20
7.66427333264713
 21
8.03927333264713
 62
7
  0
LINE
  6
BYLAYER
  8
0
 10
-44.493214186285
 11
-45.7732353727257
 20
8.03927333264713
 21
8.03927333264713
 62
7
  0
LINE
  6
BYLAYER
  8
0
 10
-45.7732353727257
 11
-46.2587599489968
 20
8.03927333264713
 21
8.19918858688442
 62
7
  0
LINE
  6
BYLAYER
  8
0
 10
-46.2587599489968
 11
-46.407727745607
 20
8.19918858688442
 21
8.57444282417255
 62
7
  0
LINE
  6
BYLAYER
  8
0
 10
-46.407727745607
 11
-46.3249658812002
 20
8.57444282417255
 21
8.84469706146071
 62
7
  0
LINE
  6
BYLAYER
  8
0
 10
-46.3249658812002
 11
-46.0270328303528
 20
8.84469706146071
 21
8.95503604451154
 62
7
  0
LINE
  6
BYLAYER
  8
0
 10
-46.0270328303528
 11
-44.493214186285
 20
8.95503604451154
 21
8.95503604451154
 62
7
  0
LINE
  6
BYLAYER
  8
0
 10
-44.493214186285
 11
-44.493214186285
 20
8.95503604451154
 21
9.34147672247764
 62
7
  0
LINE
  6
BYLAYER
  8
0
 10
-44.493214186285
 11
-45.9553099489968
 20
9.34147672247764
 21
9.34147672247764
 62
7
  0
LINE
  6
BYLAYER
  8
0
 10
-45.9553099489968
 11
-46.4242785930646
 20
9.34147672247764
 21
9.25325638349459
 62
7
  0
LINE
  6
BYLAYER
  8
0
 10
-46.4242785930646
 11
-46.7442819828952
 20
9.25325638349459
 21
8.64613773942678
 62
7
  0
LINE
  6
BYLAYER
  8
0
 10
-46.7442819828952
 11
-46.6615226608613
 20
8.64613773942678
 21
8.27088350213865
 62
7
  0
LINE
  6
BYLAYER
  8
0
 10
-46.6615226608613
 11
-46.4022082540816
 20
8.27088350213865
 21
7.97851062078274
 62
7
  0
LINE
  6
BYLAYER
  8
0
 10
-46.4022082540816
 11
-46.617384525268
 20
7.97851062078274
 21
7.81859536654546
 62
7
  0
LINE
  6
BYLAYER
  8
0
 10
-46.617384525268
 11
-46.7442819828952
 20
7.81859536654546
 21
7.38791740044376
 62
7
  0
LINE
  6
BYLAYER
  8
0
 10
-46.7442819828952
 11
-46.617384525268
 20
7.38791740044376
 21
6.97427333264712
 62
7
  0
LINE
  6
BYLAYER
  8
0
 10
-46.617384525268
 11
-46.385657406624
 20
6.97427333264712
 21
6.73147672247767
 62
7
  0
LINE
  6
BYLAYER
  8
0
 10
-46.385657406624
 11
-46.6946268981494
 20
6.73147672247767
 21
6.73147672247767
 62
7
  0
LINE
  6
BYLAYER
  8
0
 10
-46.6946268981494
 11
-46.6946268981494
 20
6.73147672247767
 21
6.37274790891831
 62
7
  0
LINE
  6
BYLAYER
  8
0
 10
-46.6946268981494
 11
-44.493214186285
 20
6.37274790891831
 21
6.37274790891831
 62
7
  0
LINE
  6
BYLAYER
  8
0
 10
-44.493214186285
 11
-44.493214186285
 20
6.37274790891831
 21
6.37274790891831
 62
7
  0
LINE
  6
BYLAYER
  8
0
 10
-44.493214186285
 11
-44.493214186285
 20
2.84317163773187
 21
3.21283265468105
 62
7
  0
LINE
  6
BYLAYER
  8
0
 10
-44.493214186285
 11
-45.6628913049291
 20
3.21283265468105
 21
3.21283265468105
 62
7
  0
LINE
  6
BYLAYER
  8
0
 10
-45.6628913049291
 11
-46.2477235083189
 20
3.21283265468105
 21
3.38368011230817
 62
7
  0
LINE
  6
BYLAYER
  8
0
 10
-46.2477235083189
 11
-46.4132421523867
 20
3.38368011230817
 21
3.77012079027425
 62
7
  0
LINE
  6
BYLAYER
  8
0
 10
-46.4132421523867
 11
-46.2587599489968
 20
3.77012079027425
 21
4.07901909535902
 62
7
  0
LINE
  6
BYLAYER
  8
0
 10
-46.2587599489968
 11
-45.9332396100138
 20
4.07901909535902
 21
4.13418858688444
 62
7
  0
LINE
  6
BYLAYER
  8
0
 10
-45.9332396100138
 11
-44.493214186285
 20
4.13418858688444
 21
4.13418858688444
 62
7
  0
LINE
  6
BYLAYER
  8
0
 10
-44.493214186285
 11
-44.493214186285
 20
4.13418858688444
 21
4.50944282417257
 62
7
  0
LINE
  6
BYLAYER
  8
0
 10
-44.493214186285
 11
-45.7732353727257
 20
4.50944282417257
 21
4.50944282417257
 62
7
  0
LINE
  6
BYLAYER
  8
0
 10
-45.7732353727257
 11
-46.2587599489968
 20
4.50944282417257
 21
4.66935807840986
 62
7
  0
LINE
  6
BYLAYER
  8
0
 10
-46.2587599489968
 11
-46.407727745607
 20
4.66935807840986
 21
5.04486655298614
 62
7
  0
LINE
  6
BYLAYER
  8
0
 10
-46.407727745607
 11
-46.3249658812002
 20
5.04486655298614
 21
5.31486655298614
 62
7
  0
LINE
  6
BYLAYER
  8
0
 10
-46.3249658812002
 11
-46.0270328303528
 20
5.31486655298614
 21
5.42545977332509
 62
7
  0
LINE
  6
BYLAYER
  8
0
 10
-46.0270328303528
 11
-44.493214186285
 20
5.42545977332509
 21
5.42545977332509
 62
7
  0
LINE
  6
BYLAYER
  8
0
 10
-44.493214186285
 11
-44.493214186285
 20
5.42545977332509
 21
5.81139197671492
 62
7
  0
LINE
  6
BYLAYER
  8
0
 10
-44.493214186285
 11
-45.9553099489968
 20
5.81139197671492
 21
5.81139197671492
 62
7
  0
LINE
  6
BYLAYER
  8
0
 10
-45.9553099489968
 11
-46.4242785930646
 20
5.81139197671492
 21
5.72317163773187
 62
7
  0
LINE
  6
BYLAYER
  8
0
 10
-46.4242785930646
 11
-46.7442819828952
 20
5.72317163773187
 21
5.11656146824038
 62
7
  0
LINE
  6
BYLAYER
  8
0
 10
-46.7442819828952
 11
-46.6615226608613
 20
5.11656146824038
 21
4.74105299366408
 62
7
  0
LINE
  6
BYLAYER
  8
0
 10
-46.6615226608613
 11
-46.4022082540816
 20
4.74105299366408
 21
4.44868011230814
 62
7
  0
LINE
  6
BYLAYER
  8
0
 10
-46.4022082540816
 11
-46.617384525268
 20
4.44868011230814
 21
4.28876485807086
 62
7
  0
LINE
  6
BYLAYER
  8
0
 10
-46.617384525268
 11
-46.7442819828952
 20
4.28876485807086
 21
3.8583411292573
 62
7
  0
LINE
  6
BYLAYER
  8
0
 10
-46.7442819828952
 11
-46.617384525268
 20
3.8583411292573
 21
3.44444282417255
 62
7
  0
LINE
  6
BYLAYER
  8
0
 10
-46.617384525268
 11
-46.385657406624
 20
3.44444282417255
 21
3.20190045129119
 62
7
  0
LINE
  6
BYLAYER
  8
0
 10
-46.385657406624
 11
-46.6946268981494
 20
3.20190045129119
 21
3.20190045129119
 62
7
  0
LINE
  6
BYLAYER
  8
0
 10
-46.6946268981494
 11
-46.6946268981494
 20
3.20190045129119
 21
2.84317163773187
 62
7
  0
LINE
  6
BYLAYER
  8
0
 10
-46.6946268981494
 11
-44.493214186285
 20
2.84317163773187
 21
2.84317163773187
 62
7
  0
LINE
  6
BYLAYER
  8
0
 10
-44.493214186285
 11
-44.493214186285
 20
2.84317163773187
 21
2.84317163773187
 62
7
  0
LINE
  6
BYLAYER
  8
0
 10
-44.493214186285
 11
-45.2104684235731
 20
0.804697061460686
 21
0.804697061460686
 62
7
  0
LINE
  6
BYLAYER
  8
0
 10
-45.2104684235731
 11
-45.2104684235731
 20
0.804697061460686
 21
1.24045977332509
 62
7
  0
LINE
  6
BYLAYER
  8
0
 10
-45.2104684235731
 11
-45.5415107964545
 20
1.24045977332509
 21
1.24045977332509
 62
7
  0
LINE
  6
BYLAYER
  8
0
 10
-45.5415107964545
 11
-45.5415107964545
 20
1.24045977332509
 21
0.804697061460686
 62
7
  0
LINE
  6
BYLAYER
  8
0
 10
-45.5415107964545
 11
-47.4449802879799
 20
0.804697061460686
 21
0.804697061460686
 62
7
  0
LINE
  6
BYLAYER
  8
0
 10
-47.4449802879799
 11
-47.4449802879799
 20
0.804697061460686
 21
0.495798756375969
 62
7
  0
LINE
  6
BYLAYER
  8
0
 10
-47.4449802879799
 11
-45.5801294405223
 20
0.495798756375969
 21
-0.855980904641008
 62
7
  0
LINE
  6
BYLAYER
  8
0
 10
-45.5801294405223
 11
-45.2104684235731
 20
-0.855980904641008
 21
-0.855980904641008
 62
7
  0
LINE
  6
BYLAYER
  8
0
 10
-45.2104684235731
 11
-45.2104684235731
 20
-0.855980904641008
 21
0.435036044511563
 62
7
  0
LINE
  6
BYLAYER
  8
0
 10
-45.2104684235731
 11
-44.493214186285
 20
0.435036044511563
 21
0.435036044511563
 62
7
  0
LINE
  6
BYLAYER
  8
0
 10
-44.493214186285
 11
-44.493214186285
 20
0.435036044511563
 21
0.804697061460686
 62
7
  0
LINE
  6
BYLAYER
  8
0
 10
-44.493214186285
 11
-44.493214186285
 20
0.804697061460686
 21
0.804697061460686
 62
7
  0
LINE
  6
BYLAYER
  8
0
 10
-45.5415107964545
 11
-46.8656624913697
 20
-0.51403175209861
 21
0.435036044511563
 62
7
  0
LINE
  6
BYLAYER
  8
0
 10
-46.8656624913697
 11
-45.5415107964545
 20
0.435036044511563
 21
0.435036044511563
 62
7
  0
LINE
  6
BYLAYER
  8
0
 10
-45.5415107964545
 11
-45.5415107964545
 20
0.435036044511563
 21
-0.51403175209861
 62
7
  0
LINE
  6
BYLAYER
  8
0
 10
-45.5415107964545
 11
-45.5415107964545
 20
-0.51403175209861
 21
-0.51403175209861
 62
7
  0
LINE
  6
BYLAYER
  8
0
 10
-44.493214186285
 11
-45.2104684235731
 20
-1.55259107413253
 21
-1.55259107413253
 62
7
  0
LINE
  6
BYLAYER
  8
0
 10
-45.2104684235731
 11
-45.2104684235731
 20
-1.55259107413253
 21
-1.1168283622681
 62
7
  0
LINE
  6
BYLAYER
  8
0
 10
-45.2104684235731
 11
-45.5415107964545
 20
-1.1168283622681
 21
-1.1168283622681
 62
7
  0
LINE
  6
BYLAYER
  8
0
 10
-45.5415107964545
 11
-45.5415107964545
 20
-1.1168283622681
 21
-1.55259107413253
 62
7
  0
LINE
  6
BYLAYER
  8
0
 10
-45.5415107964545
 11
-47.4449802879799
 20
-1.55259107413253
 21
-1.55259107413253
 62
7
  0
LINE
  6
BYLAYER
  8
0
 10
-47.4449802879799
 11
-47.4449802879799
 20
-1.55259107413253
 21
-1.86148937921728
 62
7
  0
LINE
  6
BYLAYER
  8
0
 10
-47.4449802879799
 11
-45.5801294405223
 20
-1.86148937921728
 21
-3.2132690402342
 62
7
  0
LINE
  6
BYLAYER
  8
0
 10
-45.5801294405223
 11
-45.2104684235731
 20
-3.2132690402342
 21
-3.2132690402342
 62
7
  0
LINE
  6
BYLAYER
  8
0
 10
-45.2104684235731
 11
-45.2104684235731
 20
-3.2132690402342
 21
-1.92225209108168
 62
7
  0
LINE
  6
BYLAYER
  8
0
 10
-45.2104684235731
 11
-44.493214186285
 20
-1.92225209108168
 21
-1.92225209108168
 62
7
  0
LINE
  6
BYLAYER
  8
0
 10
-44.493214186285
 11
-44.493214186285
 20
-1.92225209108168
 21
-1.55259107413253
 62
7
  0
LINE
  6
BYLAYER
  8
0
 10
-44.493214186285
 11
-44.493214186285
 20
-1.55259107413253
 21
-1.55259107413253
 62
7
  0
LINE
  6
BYLAYER
  8
0
 10
-45.5415107964545
 11
-46.8656624913697
 20
-2.87131988769183
 21
-1.92225209108168
 62
7
  0
LINE
  6
BYLAYER
  8
0
 10
-46.8656624913697
 11
-45.5415107964545
 20
-1.92225209108168
 21
-1.92225209108168
 62
7
  0
LINE
  6
BYLAYER
  8
0
 10
-45.5415107964545
 11
-45.5415107964545
 20
-1.92225209108168
 21
-2.87131988769183
 62
7
  0
LINE
  6
BYLAYER
  8
0
 10
-45.5415107964545
 11
-45.5415107964545
 20
-2.87131988769183
 21
-2.87131988769183
 62
7
  0
LINE
  6
BYLAYER
  8
0
 10
6.04252310185058
 11
6.41218411879974
 20
-33.21507412498
 21
-33.21507412498
 62
7
  0
LINE
  6
BYLAYER
  8
0
 10
6.41218411879974
 11
6.41218411879974
 20
-33.21507412498
 21
-32.0454046334545
 62
7
  0
LINE
  6
BYLAYER
  8
0
 10
6.41218411879974
 11
6.58328581371502
 20
-32.0454046334545
 21
-31.4605571758274
 62
7
  0
LINE
  6
BYLAYER
  8
0
 10
6.58328581371502
 11
6.96947225439298
 20
-31.4605571758274
 21
-31.2950487012512
 62
7
  0
LINE
  6
BYLAYER
  8
0
 10
6.96947225439298
 11
7.27837055947772
 20
-31.2950487012512
 21
-31.4495487012512
 62
7
  0
LINE
  6
BYLAYER
  8
0
 10
7.27837055947772
 11
7.33354005100315
 20
-31.4495487012512
 21
-31.77507412498
 62
7
  0
LINE
  6
BYLAYER
  8
0
 10
7.33354005100315
 11
7.33354005100315
 20
-31.77507412498
 21
-33.21507412498
 62
7
  0
LINE
  6
BYLAYER
  8
0
 10
7.33354005100315
 11
7.70879428829129
 20
-33.21507412498
 21
-33.21507412498
 62
7
  0
LINE
  6
BYLAYER
  8
0
 10
7.70879428829129
 11
7.70879428829129
 20
-33.21507412498
 21
-31.9350656504037
 62
7
  0
LINE
  6
BYLAYER
  8
0
 10
7.70879428829129
 11
7.86870954252858
 20
-31.9350656504037
 21
-31.4495487012512
 62
7
  0
LINE
  6
BYLAYER
  8
0
 10
7.86870954252858
 11
8.24370954252857
 20
-31.4495487012512
 21
-31.3005656504037
 62
7
  0
LINE
  6
BYLAYER
  8
0
 10
8.24370954252857
 11
8.51421801710482
 20
-31.3005656504037
 21
-31.3833198876918
 62
7
  0
LINE
  6
BYLAYER
  8
0
 10
8.51421801710482
 11
8.62455700015569
 20
-31.3833198876918
 21
-31.6812605656579
 62
7
  0
LINE
  6
BYLAYER
  8
0
 10
8.62455700015569
 11
8.62455700015569
 20
-31.6812605656579
 21
-33.21507412498
 62
7
  0
LINE
  6
BYLAYER
  8
0
 10
8.62455700015569
 11
9.01074344083364
 20
-33.21507412498
 21
-33.21507412498
 62
7
  0
LINE
  6
BYLAYER
  8
0
 10
9.01074344083364
 11
9.01074344083364
 20
-33.21507412498
 21
-31.7530063283698
 62
7
  0
LINE
  6
BYLAYER
  8
0
 10
9.01074344083364
 11
8.9225231018506
 20
-31.7530063283698
 21
-31.2840148029461
 62
7
  0
LINE
  6
BYLAYER
  8
0
 10
8.9225231018506
 11
8.31540445778278
 20
-31.2840148029461
 21
-30.9640063283698
 62
7
  0
LINE
  6
BYLAYER
  8
0
 10
8.31540445778278
 11
7.94040445778278
 20
-30.9640063283698
 21
-31.0467859893867
 62
7
  0
LINE
  6
BYLAYER
  8
0
 10
7.94040445778278
 11
7.64803157642688
 20
-31.0467859893867
 21
-31.3060825995562
 62
7
  0
LINE
  6
BYLAYER
  8
0
 10
7.64803157642688
 11
7.4881163221896
 20
-31.3060825995562
 21
-31.0909215826071
 62
7
  0
LINE
  6
BYLAYER
  8
0
 10
7.4881163221896
 11
7.05769259337604
 20
-31.0909215826071
 21
-30.9640063283698
 62
7
  0
LINE
  6
BYLAYER
  8
0
 10
7.05769259337604
 11
6.64379428829125
 20
-30.9640063283698
 21
-31.0909215826071
 62
7
  0
LINE
  6
BYLAYER
  8
0
 10
6.64379428829125
 11
6.40125191540993
 20
-31.0909215826071
 21
-31.3226334470139
 62
7
  0
LINE
  6
BYLAYER
  8
0
 10
6.40125191540993
 11
6.40125191540993
 20
-31.3226334470139
 21
-31.0136588707427
 62
7
  0
LINE
  6
BYLAYER
  8
0
 10
6.40125191540993
 11
6.04252310185058
 20
-31.0136588707427
 21
-31.0136588707427
 62
7
  0
LINE
  6
BYLAYER
  8
0
 10
6.04252310185058
 11
6.04252310185058
 20
-31.0136588707427
 21
-33.21507412498
 62
7
  0
LINE
  6
BYLAYER
  8
0
 10
6.04252310185058
 11
6.04252310185058
 20
-33.21507412498
 21
-33.21507412498
 62
7
  0
LINE
  6
BYLAYER
  8
0
 10
2.51421801710482
 11
2.88413327134211
 20
-33.21507412498
 21
-33.21507412498
 62
7
  0
LINE
  6
BYLAYER
  8
0
 10
2.88413327134211
 11
2.88413327134211
 20
-33.21507412498
 21
-32.0454046334545
 62
7
  0
LINE
  6
BYLAYER
  8
0
 10
2.88413327134211
 11
3.05498072896923
 20
-32.0454046334545
 21
-31.4605571758274
 62
7
  0
LINE
  6
BYLAYER
  8
0
 10
3.05498072896923
 11
3.44116716964722
 20
-31.4605571758274
 21
-31.2950487012512
 62
7
  0
LINE
  6
BYLAYER
  8
0
 10
3.44116716964722
 11
3.75006547473197
 20
-31.2950487012512
 21
-31.4495487012512
 62
7
  0
LINE
  6
BYLAYER
  8
0
 10
3.75006547473197
 11
3.80523496625736
 20
-31.4495487012512
 21
-31.77507412498
 62
7
  0
LINE
  6
BYLAYER
  8
0
 10
3.80523496625736
 11
3.80523496625736
 20
-31.77507412498
 21
-33.21507412498
 62
7
  0
LINE
  6
BYLAYER
  8
0
 10
3.80523496625736
 11
4.18023496625737
 20
-33.21507412498
 21
-33.21507412498
 62
7
  0
LINE
  6
BYLAYER
  8
0
 10
4.18023496625737
 11
4.18023496625737
 20
-33.21507412498
 21
-31.9350656504037
 62
7
  0
LINE
  6
BYLAYER
  8
0
 10
4.18023496625737
 11
4.34065869507093
 20
-31.9350656504037
 21
-31.4495487012512
 62
7
  0
LINE
  6
BYLAYER
  8
0
 10
4.34065869507093
 11
4.71565869507094
 20
-31.4495487012512
 21
-31.3005656504037
 62
7
  0
LINE
  6
BYLAYER
  8
0
 10
4.71565869507094
 11
4.98616716964719
 20
-31.3005656504037
 21
-31.3833198876918
 62
7
  0
LINE
  6
BYLAYER
  8
0
 10
4.98616716964719
 11
5.09625191540994
 20
-31.3833198876918
 21
-31.6812605656579
 62
7
  0
LINE
  6
BYLAYER
  8
0
 10
5.09625191540994
 11
5.09625191540994
 20
-31.6812605656579
 21
-33.21507412498
 62
7
  0
LINE
  6
BYLAYER
  8
0
 10
5.09625191540994
 11
5.48243835608787
 20
-33.21507412498
 21
-33.21507412498
 62
7
  0
LINE
  6
BYLAYER
  8
0
 10
5.48243835608787
 11
5.48243835608787
 20
-33.21507412498
 21
-31.7530063283698
 62
7
  0
LINE
  6
BYLAYER
  8
0
 10
5.48243835608787
 11
5.39421801710482
 20
-31.7530063283698
 21
-31.2840148029461
 62
7
  0
LINE
  6
BYLAYER
  8
0
 10
5.39421801710482
 11
4.78735361032518
 20
-31.2840148029461
 21
-30.9640063283698
 62
7
  0
LINE
  6
BYLAYER
  8
0
 10
4.78735361032518
 11
4.41235361032518
 20
-30.9640063283698
 21
-31.0467859893867
 62
7
  0
LINE
  6
BYLAYER
  8
0
 10
4.41235361032518
 11
4.11998072896923
 20
-31.0467859893867
 21
-31.3060825995562
 62
7
  0
LINE
  6
BYLAYER
  8
0
 10
4.11998072896923
 11
3.95955700015567
 20
-31.3060825995562
 21
-31.0909215826071
 62
7
  0
LINE
  6
BYLAYER
  8
0
 10
3.95955700015567
 11
3.52938750863025
 20
-31.0909215826071
 21
-30.9640063283698
 62
7
  0
LINE
  6
BYLAYER
  8
0
 10
3.52938750863025
 11
3.11574344083366
 20
-30.9640063283698
 21
-31.0909215826071
 62
7
  0
LINE
  6
BYLAYER
  8
0
 10
3.11574344083366
 11
2.87269259337604
 20
-31.0909215826071
 21
-31.3226334470139
 62
7
  0
LINE
  6
BYLAYER
  8
0
 10
2.87269259337604
 11
2.87269259337604
 20
-31.3226334470139
 21
-31.0136588707427
 62
7
  0
LINE
  6
BYLAYER
  8
0
 10
2.87269259337604
 11
2.51421801710482
 20
-31.0136588707427
 21
-31.0136588707427
 62
7
  0
LINE
  6
BYLAYER
  8
0
 10
2.51421801710482
 11
2.51421801710482
 20
-31.0136588707427
 21
-33.21507412498
 62
7
  0
LINE
  6
BYLAYER
  8
0
 10
2.51421801710482
 11
2.51421801710482
 20
-33.21507412498
 21
-33.21507412498
 62
7
  0
LINE
  6
BYLAYER
  8
0
 10
-0.164426050691766
 11
-0.660951474420578
 20
-32.9557520910817
 21
-32.5419554809122
 62
7
  0
LINE
  6
BYLAYER
  8
0
 10
-0.660951474420578
 11
-0.760358254081623
 20
-32.5419554809122
 21
-31.8192097182003
 62
7
  0
LINE
  6
BYLAYER
  8
0
 10
-0.760358254081623
 11
-0.605781982895181
 20
-31.8192097182003
 21
-30.9143792097257
 62
7
  0
LINE
  6
BYLAYER
  8
0
 10
-0.605781982895181
 11
-0.131120965946025
 20
-30.9143792097257
 21
-30.6054046334545
 62
7
  0
LINE
  6
BYLAYER
  8
0
 10
-0.131120965946025
 11
0.343031576426853
 20
-30.6054046334545
 21
-30.9309046334545
 62
7
  0
LINE
  6
BYLAYER
  8
0
 10
0.343031576426853
 11
0.464557000155672
 20
-30.9309046334545
 21
-31.7530063283698
 62
7
  0
LINE
  6
BYLAYER
  8
0
 10
0.464557000155672
 11
0.29879428829129
 20
-31.7530063283698
 21
-32.7019724300647
 62
7
  0
LINE
  6
BYLAYER
  8
0
 10
0.29879428829129
 11
-0.164426050691766
 20
-32.7019724300647
 21
-32.9557520910817
 62
7
  0
LINE
  6
BYLAYER
  8
0
 10
-0.164426050691766
 11
-0.164426050691766
 20
-32.9557520910817
 21
-32.9557520910817
 62
7
  0
LINE
  6
BYLAYER
  8
0
 10
-0.153493847301931
 11
-0.69120571170874
 20
-30.2688198876918
 21
-30.4343537859969
 62
7
  0
LINE
  6
BYLAYER
  8
0
 10
-0.69120571170874
 11
-1.03061249136975
 20
-30.4343537859969
 21
-30.9364470063359
 62
7
  0
LINE
  6
BYLAYER
  8
0
 10
-1.03061249136975
 11
-1.15773113543755
 20
-30.9364470063359
 21
-31.8026588707427
 62
7
  0
LINE
  6
BYLAYER
  8
0
 10
-1.15773113543755
 11
-0.94213791509857
 20
-31.8026588707427
 21
-32.8343792097257
 62
7
  0
LINE
  6
BYLAYER
  8
0
 10
-0.94213791509857
 11
-0.619510796454477
 20
-32.8343792097257
 21
-33.179201243624
 62
7
  0
LINE
  6
BYLAYER
  8
0
 10
-0.619510796454477
 11
-0.159087067640939
 20
-33.179201243624
 21
-33.2923114131156
 62
7
  0
LINE
  6
BYLAYER
  8
0
 10
-0.159087067640939
 11
0.345828186596371
 20
-33.2923114131156
 21
-33.1516164978613
 62
7
  0
LINE
  6
BYLAYER
  8
0
 10
0.345828186596371
 11
0.690828186596349
 20
-33.1516164978613
 21
-32.7295571758274
 62
7
  0
LINE
  6
BYLAYER
  8
0
 10
0.690828186596349
 11
0.86752310185058
 20
-32.7295571758274
 21
-31.7364300571834
 62
7
  0
LINE
  6
BYLAYER
  8
0
 10
0.86752310185058
 11
0.668709542528575
 20
-31.7364300571834
 21
-30.7378114131156
 62
7
  0
LINE
  6
BYLAYER
  8
0
 10
0.668709542528575
 11
0.33642140693533
 20
-30.7378114131156
 21
-30.384701243624
 62
7
  0
LINE
  6
BYLAYER
  8
0
 10
0.33642140693533
 11
-0.153493847301931
 20
-30.384701243624
 21
-30.2688198876918
 62
7
  0
LINE
  6
BYLAYER
  8
0
 10
-0.153493847301931
 11
-0.153493847301931
 20
-30.2688198876918
 21
-30.2688198876918
 62
7
  0
LINE
  6
BYLAYER
  8
0
 10
-2.43756164391213
 11
-2.89010401679348
 20
-32.9668114131156
 21
-32.7792097182003
 62
7
  0
LINE
  6
BYLAYER
  8
0
 10
-2.89010401679348
 11
-3.05561249136973
 20
-32.7792097182003
 21
-32.3047266673528
 62
7
  0
LINE
  6
BYLAYER
  8
0
 10
-3.05561249136973
 11
-2.87332435577651
 20
-32.3047266673528
 21
-31.8302181927766
 62
7
  0
LINE
  6
BYLAYER
  8
0
 10
-2.87332435577651
 11
-2.4596802879799
 20
-31.8302181927766
 21
-31.6702266673528
 62
7
  0
LINE
  6
BYLAYER
  8
0
 10
-2.4596802879799
 11
-1.98501927103077
 20
-31.6702266673528
 21
-31.8743537859969
 62
7
  0
LINE
  6
BYLAYER
  8
0
 10
-1.98501927103077
 11
-1.85815486425108
 20
-31.8743537859969
 21
-32.3047266673528
 62
7
  0
LINE
  6
BYLAYER
  8
0
 10
-1.85815486425108
 11
-2.00154469475956
 20
-32.3047266673528
 21
-32.7681758198952
 62
7
  0
LINE
  6
BYLAYER
  8
0
 10
-2.00154469475956
 11
-2.43756164391213
 20
-32.7681758198952
 21
-32.9668114131156
 62
7
  0
LINE
  6
BYLAYER
  8
0
 10
-2.43756164391213
 11
-2.43756164391213
 20
-32.9668114131156
 21
-32.9668114131156
 62
7
  0
LINE
  6
BYLAYER
  8
0
 10
-2.41010401679346
 11
-2.98773113543752
 20
-30.2578114131156
 21
-30.4426164978613
 62
7
  0
LINE
  6
BYLAYER
  8
0
 10
-2.98773113543752
 11
-3.35332435577651
 20
-30.4426164978613
 21
-30.9915910741325
 62
7
  0
LINE
  6
BYLAYER
  8
0
 10
-3.35332435577651
 11
-3.48578198289518
 20
-30.9915910741325
 21
-31.9240063283698
 62
7
  0
LINE
  6
BYLAYER
  8
0
 10
-3.48578198289518
 11
-3.41154469475956
 20
-31.9240063283698
 21
-32.5598792097257
 62
7
  0
LINE
  6
BYLAYER
  8
0
 10
-3.41154469475956
 11
-3.18807011848838
 20
-32.5598792097257
 21
-32.9778198876918
 62
7
  0
LINE
  6
BYLAYER
  8
0
 10
-3.18807011848838
 11
-2.47061249136976
 20
-32.9778198876918
 21
-33.2923114131156
 62
7
  0
LINE
  6
BYLAYER
  8
0
 10
-2.47061249136976
 11
-1.72569723713247
 20
-33.2923114131156
 21
-32.9833368368444
 62
7
  0
LINE
  6
BYLAYER
  8
0
 10
-1.72569723713247
 11
-1.4666294405223
 20
-32.9833368368444
 21
-32.2771164978613
 62
7
  0
LINE
  6
BYLAYER
  8
0
 10
-1.4666294405223
 11
-1.74247689814939
 20
-32.2771164978613
 21
-31.5708961588783
 62
7
  0
LINE
  6
BYLAYER
  8
0
 10
-1.74247689814939
 11
-2.38798537272569
 20
-31.5708961588783
 21
-31.3336927690478
 62
7
  0
LINE
  6
BYLAYER
  8
0
 10
-2.38798537272569
 11
-2.78510401679346
 20
-31.3336927690478
 21
-31.4164215826071
 62
7
  0
LINE
  6
BYLAYER
  8
0
 10
-2.78510401679346
 11
-3.10493452526806
 20
-31.4164215826071
 21
-31.6978114131156
 62
7
  0
LINE
  6
BYLAYER
  8
0
 10
-3.10493452526806
 11
-2.90103622018331
 20
-31.6978114131156
 21
-30.8702436165054
 62
7
  0
LINE
  6
BYLAYER
  8
0
 10
-2.90103622018331
 11
-2.41010401679346
 20
-30.8702436165054
 21
-30.5833368368444
 62
7
  0
LINE
  6
BYLAYER
  8
0
 10
-2.41010401679346
 11
-2.00154469475956
 20
-30.5833368368444
 21
-30.7709131080308
 62
7
  0
LINE
  6
BYLAYER
  8
0
 10
-2.00154469475956
 11
-1.89679893204772
 20
-30.7709131080308
 21
-31.0412436165054
 62
7
  0
LINE
  6
BYLAYER
  8
0
 10
-1.89679893204772
 11
-1.5273921523867
 20
-31.0412436165054
 21
-31.0412436165054
 62
7
  0
LINE
  6
BYLAYER
  8
0
 10
-1.5273921523867
 11
-1.72010401679348
 20
-31.0412436165054
 21
-30.5171334470139
 62
7
  0
LINE
  6
BYLAYER
  8
0
 10
-1.72010401679348
 11
-2.41010401679346
 20
-30.5171334470139
 21
-30.2578114131156
 62
7
  0
LINE
  6
BYLAYER
  8
0
 10
-2.41010401679346
 11
-2.41010401679346
 20
-30.2578114131156
 21
-30.2578114131156
 62
7
  0
LINE
  6
BYLAYER
  8
0
 10
52.262099373037
 11
68.1519298815116
 20
-34.6275071758274
 21
-34.6275071758274
 62
7
  0
LINE
  6
BYLAYER
  8
0
 10
68.1519298815116
 11
68.1519298815116
 20
-19.6204470063359
 21
-36.0399351419291
 62
7
  0
LINE
  6
BYLAYER
  8
0
 10
52.262099373037
 11
52.262099373037
 20
-24.9170487012512
 21
-36.0399351419291
 62
7
  0
LINE
  6
BYLAYER
  8
0
 10
52.262099373037
 11
52.3037942882913
 20
-17.9431927690478
 21
-18.3376673453189
 62
7
  0
LINE
  6
BYLAYER
  8
0
 10
52.3037942882913
 11
52.5270146272743
 20
-18.3376673453189
 21
-18.649387684302
 62
7
  0
LINE
  6
BYLAYER
  8
0
 10
52.5270146272743
 11
52.7670146272743
 20
-18.649387684302
 21
-18.8259554809122
 62
7
  0
LINE
  6
BYLAYER
  8
0
 10
52.7670146272743
 11
53.0565908984608
 20
-18.8259554809122
 21
-18.8549131080308
 62
7
  0
LINE
  6
BYLAYER
  8
0
 10
53.0565908984608
 11
58.2648959832065
 20
-18.8549131080308
 21
-18.8549131080308
 62
7
  0
LINE
  6
BYLAYER
  8
0
 10
58.2648959832065
 11
67.2692180171048
 20
-18.8549131080308
 21
-18.1418029385393
 62
7
  0
LINE
  6
BYLAYER
  8
0
 10
67.2692180171048
 11
67.5382010679523
 20
-18.1418029385393
 21
-18.1266249724376
 62
7
  0
LINE
  6
BYLAYER
  8
0
 10
67.5382010679523
 11
67.9536247967659
 20
-18.1266249724376
 21
-17.8769639554884
 62
7
  0
LINE
  6
BYLAYER
  8
0
 10
67.9536247967659
 11
68.1272688645624
 20
-17.8769639554884
 21
-17.5818198876918
 62
7
  0
LINE
  6
BYLAYER
  8
0
 10
68.1272688645624
 11
68.1519298815116
 20
-17.5818198876918
 21
-17.2369724300647
 62
7
  0
LINE
  6
BYLAYER
  8
0
 10
68.1519298815116
 11
68.1519298815116
 20
-17.2369724300647
 21
23.7676631631556
 62
7
  0
LINE
  6
BYLAYER
  8
0
 10
68.1519298815116
 11
68.1519298815116
 20
23.7676631631556
 21
23.6133411292573
 62
7
  0
LINE
  6
BYLAYER
  8
0
 10
68.1519298815116
 11
68.1191332713421
 20
23.6133411292573
 21
24.0157987563759
 62
7
  0
LINE
  6
BYLAYER
  8
0
 10
68.1191332713421
 11
67.9536247967659
 20
24.0157987563759
 21
24.319612315698
 62
7
  0
LINE
  6
BYLAYER
  8
0
 10
67.9536247967659
 11
67.7604044577828
 20
24.319612315698
 21
24.4642733326472
 62
7
  0
LINE
  6
BYLAYER
  8
0
 10
67.7604044577828
 11
67.3810824238845
 20
24.4642733326472
 21
24.5692733326471
 62
7
  0
LINE
  6
BYLAYER
  8
0
 10
67.3810824238845
 11
58.2648959832065
 20
24.5692733326471
 21
25.1649512987488
 62
7
  0
LINE
  6
BYLAYER
  8
0
 10
58.2648959832065
 11
53.0565908984608
 20
25.1649512987488
 21
25.1649512987488
 62
7
  0
LINE
  6
BYLAYER
  8
0
 10
53.0565908984608
 11
52.6732010679523
 20
25.1649512987488
 21
25.1041885868844
 62
7
  0
LINE
  6
BYLAYER
  8
0
 10
52.6732010679523
 11
52.372692593376
 20
25.1041885868844
 21
24.89342587502
 62
7
  0
LINE
  6
BYLAYER
  8
0
 10
52.372692593376
 11
52.3175231018506
 20
24.89342587502
 21
24.78842587502
 62
7
  0
LINE
  6
BYLAYER
  8
0
 10
52.3175231018506
 11
52.262099373037
 20
24.78842587502
 21
24.319612315698
 62
7
  0
LINE
  6
BYLAYER
  8
0
 10
52.262099373037
 11
52.262099373037
 20
24.319612315698
 21
24.319612315698
 62
7
  0
LINE
  6
BYLAYER
  8
0
 10
52.262099373037
 11
52.262099373037
 20
24.319612315698
 21
-18.0535317520986
 62
7
  0
LINE
  6
BYLAYER
  8
0
 10
56.6759129323591
 11
56.6759129323591
 20
-22.7984131080308
 21
-18.8549131080308
 62
7
  0
LINE
  6
BYLAYER
  8
0
 10
52.262099373037
 11
58.2648959832065
 20
-22.7984131080308
 21
-22.7984131080308
 62
7
  0
LINE
  6
BYLAYER
  8
0
 10
58.2648959832065
 11
58.2648959832065
 20
-19.0314554809122
 21
-23.8577436165054
 62
7
  0
LINE
  6
BYLAYER
  8
0
 10
58.2648959832065
 11
52.262099373037
 20
-23.8577436165054
 21
-23.8577436165054
 62
7
  0
LINE
  6
BYLAYER
  8
0
 10
52.262099373037
 11
52.262099373037
 20
-23.8577436165054
 21
-18.8549131080308
 62
7
  0
LINE
  6
BYLAYER
  8
0
 10
58.2648959832065
 11
58.2648959832065
 20
25.1649512987488
 21
-18.8549131080308
 62
7
  0
LINE
  6
BYLAYER
  8
0
 10
-27.8930446947596
 11
32.3708281865964
 20
-34.6275071758274
 21
-34.6275071758274
 62
7
  0
LINE
  6
BYLAYER
  8
0
 10
-43.0766548642511
 11
-43.0766548642511
 20
25.1649512987488
 21
-18.8549131080308
 62
7
  0
LINE
  6
BYLAYER
  8
0
 10
32.3708281865964
 11
32.3708281865964
 20
-25.4467266673528
 21
-36.3930427690478
 62
7
  0
LINE
  6
BYLAYER
  8
0
 10
-27.8930446947596
 11
-27.8930446947596
 20
-20.8563198876918
 21
-36.7461503961664
 62
7
  0
LINE
  6
BYLAYER
  8
0
 10
-45.1952904574714
 11
-29.6585701184884
 20
-18.8549131080308
 21
-18.8549131080308
 62
7
  0
LINE
  6
BYLAYER
  8
0
 10
-45.1952904574714
 11
-30.0116802879799
 20
25.1649512987488
 21
25.1649512987488
 62
7
  0
LINE
  6
BYLAYER
  8
0
 10
8.71277733913872
 11
8.71277733913872
 20
-18.8549131080308
 21
-22.5046164978613
 62
7
  0
LINE
  6
BYLAYER
  8
0
 10
8.71277733913872
 11
10.1845570001557
 20
-22.5046164978613
 21
-22.5046164978613
 62
7
  0
LINE
  6
BYLAYER
  8
0
 10
10.1845570001557
 11
10.1845570001557
 20
-22.5046164978613
 21
-18.8549131080308
 62
7
  0
LINE
  6
BYLAYER
  8
0
 10
-0.799002321878227
 11
-0.799002321878227
 20
-19.1349300571834
 21
-20.5032097182003
 62
7
  0
LINE
  6
BYLAYER
  8
0
 10
-0.799002321878227
 11
1.06150615269807
 20
-20.5032097182003
 21
-21.092201243624
 62
7
  0
LINE
  6
BYLAYER
  8
0
 10
1.06150615269807
 11
1.06150615269807
 20
-21.092201243624
 21
-22.0921927690478
 62
7
  0
LINE
  6
BYLAYER
  8
0
 10
1.06150615269807
 11
-0.799002321878227
 20
-22.0921927690478
 21
-23.107387684302
 62
7
  0
LINE
  6
BYLAYER
  8
0
 10
-0.799002321878227
 11
-4.11629045747145
 20
-23.107387684302
 21
-23.107387684302
 62
7
  0
LINE
  6
BYLAYER
  8
0
 10
-4.11629045747145
 11
-18.0060362201833
 20
-23.107387684302
 21
-18.5459385317596
 62
7
  0
LINE
  6
BYLAYER
  8
0
 10
37.6317603899862
 11
37.4733705594777
 20
14.7785953665454
 21
15.5593580784099
 62
7
  0
LINE
  6
BYLAYER
  8
0
 10
37.4733705594777
 11
37.0442180171049
 20
15.5593580784099
 21
16.195205536037
 62
7
  0
LINE
  6
BYLAYER
  8
0
 10
37.0442180171049
 11
36.4083705594777
 20
16.195205536037
 21
16.6243580784098
 62
7
  0
LINE
  6
BYLAYER
  8
0
 10
36.4083705594777
 11
35.6304044577828
 20
16.6243580784098
 21
16.7814767224777
 62
7
  0
LINE
  6
BYLAYER
  8
0
 10
35.6939637798167
 11
35.4003197120201
 20
14.0461377394268
 21
14.755205536037
 62
7
  0
LINE
  6
BYLAYER
  8
0
 10
35.4003197120201
 11
34.6940485255794
 20
14.755205536037
 21
15.0475784173929
 62
7
  0
LINE
  6
BYLAYER
  8
0
 10
34.6940485255794
 11
34.5285400510031
 20
15.0475784173929
 21
15.0338496038336
 62
7
  0
LINE
  6
BYLAYER
  8
0
 10
33.5408281865964
 11
32.9446417459184
 20
15.0613072309522
 21
14.7249512987488
 62
7
  0
LINE
  6
BYLAYER
  8
0
 10
32.9446417459184
 11
32.7048959832065
 20
14.7249512987488
 21
14.0738496038336
 62
7
  0
LINE
  6
BYLAYER
  8
0
 10
32.7216756442235
 11
33.0140485255794
 20
17.8007140106132
 21
17.0931716377319
 62
7
  0
LINE
  6
BYLAYER
  8
0
 10
33.0140485255794
 11
33.7231163221896
 20
17.0931716377319
 21
16.7995275699353
 62
7
  0
LINE
  6
BYLAYER
  8
0
 10
35.6840485255794
 11
33.6537095425285
 20
16.8089343495963
 21
16.8089343495963
 62
7
  0
LINE
  6
BYLAYER
  8
0
 10
37.627692593376
 11
37.627692593376
 20
14.8739343495963
 21
-22.0328792097257
 62
7
  0
LINE
  6
BYLAYER
  8
0
 10
37.627692593376
 11
38.6870993730371
 20
-22.0328792097257
 21
-22.0328792097257
 62
7
  0
LINE
  6
BYLAYER
  8
0
 10
38.6870993730371
 11
39.3931163221896
 20
-22.0328792097257
 21
-18.8549131080308
 62
7
  0
LINE
  6
BYLAYER
  8
0
 10
39.3931163221896
 11
40.0993875086303
 20
-18.8549131080308
 21
-18.8549131080308
 62
7
  0
LINE
  6
BYLAYER
  8
0
 10
40.0993875086303
 11
40.0993875086303
 20
-18.8549131080308
 21
-23.9749724300647
 62
7
  0
LINE
  6
BYLAYER
  8
0
 10
40.0993875086303
 11
34.0950654747319
 20
-23.9749724300647
 21
-23.9749724300647
 62
7
  0
LINE
  6
BYLAYER
  8
0
 10
34.0950654747319
 11
32.3296417459184
 20
-23.9749724300647
 21
-22.0328792097257
 62
7
  0
LINE
  6
BYLAYER
  8
0
 10
32.3296417459184
 11
32.3296417459184
 20
-22.0328792097257
 21
-20.9735487012511
 62
7
  0
LINE
  6
BYLAYER
  8
0
 10
32.3296417459184
 11
34.4482010679523
 20
-20.9735487012511
 21
-20.4438961588783
 62
7
  0
LINE
  6
BYLAYER
  8
0
 10
34.4482010679523
 11
34.4482010679523
 20
-20.4438961588783
 21
-18.7666419215901
 62
7
  0
LINE
  6
BYLAYER
  8
0
 10
34.4482010679523
 11
35.6840485255794
 20
-18.7666419215901
 21
-17.0893622605732
 62
7
  0
LINE
  6
BYLAYER
  8
0
 10
35.6840485255794
 11
35.6662519154099
 20
-17.0893622605732
 21
-9.0866588707427
 62
7
  0
LINE
  6
BYLAYER
  8
0
 10
35.6662519154099
 11
32.4221841187998
 20
-9.0866588707427
 21
-9.0866588707427
 62
7
  0
LINE
  6
BYLAYER
  8
0
 10
35.6840485255794
 11
35.6662519154099
 20
14.0941885868844
 21
-7.20225209108166
 62
7
  0
LINE
  6
BYLAYER
  8
0
 10
35.6662519154099
 11
32.4814214069354
 20
-7.20225209108166
 21
-7.20225209108166
 62
7
  0
LINE
  6
BYLAYER
  8
0
 10
33.3793875086302
 11
34.5806586950709
 20
15.0254597733251
 21
15.0435106207827
 62
7
  0
LINE
  6
BYLAYER
  8
0
 10
20.6893875086303
 11
20.6893875086303
 20
-17.0893622605732
 21
23.1648665529861
 62
7
  0
LINE
  6
BYLAYER
  8
0
 10
20.6893875086303
 11
-16.2116294405223
 20
23.1648665529861
 21
23.1648665529861
 62
7
  0
LINE
  6
BYLAYER
  8
0
 10
-16.2116294405223
 11
-16.2116294405223
 20
23.1648665529861
 21
-17.0893622605732
 62
7
  0
LINE
  6
BYLAYER
  8
0
 10
-16.2116294405223
 11
20.6893875086303
 20
-17.0893622605732
 21
-17.0893622605732
 62
7
  0
LINE
  6
BYLAYER
  8
0
 10
20.6893875086303
 11
20.6893875086303
 20
-17.0893622605732
 21
-17.0893622605732
 62
7
  0
LINE
  6
BYLAYER
  8
0
 10
21.2260824238845
 11
21.9323536103252
 20
-18.8687181927766
 21
-18.5749215826071
 62
7
  0
LINE
  6
BYLAYER
  8
0
 10
21.9323536103252
 11
22.2262519154099
 20
-18.5749215826071
 21
-17.8673283622681
 62
7
  0
LINE
  6
BYLAYER
  8
0
 10
22.2262519154099
 11
22.2262519154099
 20
-17.8673283622681
 21
24.1719004512912
 62
7
  0
LINE
  6
BYLAYER
  8
0
 10
22.2262519154099
 11
21.9323536103252
 20
24.1719004512912
 21
24.8807140106133
 62
7
  0
LINE
  6
BYLAYER
  8
0
 10
21.9323536103252
 11
21.2260824238845
 20
24.8807140106133
 21
25.1730868919692
 62
7
  0
LINE
  6
BYLAYER
  8
0
 10
21.2260824238845
 11
-16.8101040167935
 20
25.1730868919692
 21
25.1730868919692
 62
7
  0
LINE
  6
BYLAYER
  8
0
 10
-16.8101040167935
 11
-17.5176463896748
 20
25.1730868919692
 21
24.8807140106133
 62
7
  0
LINE
  6
BYLAYER
  8
0
 10
-17.5176463896748
 11
-17.8102735083189
 20
24.8807140106133
 21
24.1719004512912
 62
7
  0
LINE
  6
BYLAYER
  8
0
 10
-17.8102735083189
 11
-17.8102735083189
 20
24.1719004512912
 21
-17.8673283622681
 62
7
  0
LINE
  6
BYLAYER
  8
0
 10
-17.8102735083189
 11
-17.5176463896748
 20
-17.8673283622681
 21
-18.5749215826071
 62
7
  0
LINE
  6
BYLAYER
  8
0
 10
-17.5176463896748
 11
-16.8101040167935
 20
-18.5749215826071
 21
-18.8687181927766
 62
7
  0
LINE
  6
BYLAYER
  8
0
 10
-16.8101040167935
 11
21.2260824238845
 20
-18.8687181927766
 21
-18.8687181927766
 62
7
  0
LINE
  6
BYLAYER
  8
0
 10
21.2260824238845
 11
21.2260824238845
 20
-18.8687181927766
 21
-18.8687181927766
 62
7
  0
LINE
  6
BYLAYER
  8
0
 10
21.2260824238845
 11
21.9323536103252
 20
-18.8687181927766
 21
-18.5749215826071
 62
7
  0
LINE
  6
BYLAYER
  8
0
 10
21.9323536103252
 11
22.2262519154099
 20
-18.5749215826071
 21
-17.8673283622681
 62
7
  0
LINE
  6
BYLAYER
  8
0
 10
22.2262519154099
 11
22.2262519154099
 20
-17.8673283622681
 21
24.1719004512912
 62
7
  0
LINE
  6
BYLAYER
  8
0
 10
22.2262519154099
 11
21.9323536103252
 20
24.1719004512912
 21
24.8807140106133
 62
7
  0
LINE
  6
BYLAYER
  8
0
 10
21.9323536103252
 11
21.2260824238845
 20
24.8807140106133
 21
25.1730868919692
 62
7
  0
LINE
  6
BYLAYER
  8
0
 10
21.2260824238845
 11
-16.8101040167935
 20
25.1730868919692
 21
25.1730868919692
 62
7
  0
LINE
  6
BYLAYER
  8
0
 10
-16.8101040167935
 11
-17.5176463896748
 20
25.1730868919692
 21
24.8807140106133
 62
7
  0
LINE
  6
BYLAYER
  8
0
 10
-17.5176463896748
 11
-17.8102735083189
 20
24.8807140106133
 21
24.1719004512912
 62
7
  0
LINE
  6
BYLAYER
  8
0
 10
-17.8102735083189
 11
-17.8102735083189
 20
24.1719004512912
 21
-17.8673283622681
 62
7
  0
LINE
  6
BYLAYER
  8
0
 10
-17.8102735083189
 11
-17.5176463896748
 20
-17.8673283622681
 21
-18.5749215826071
 62
7
  0
LINE
  6
BYLAYER
  8
0
 10
-17.5176463896748
 11
-16.8101040167935
 20
-18.5749215826071
 21
-18.8687181927766
 62
7
  0
LINE
  6
BYLAYER
  8
0
 10
-16.8101040167935
 11
21.2260824238845
 20
-18.8687181927766
 21
-18.8687181927766
 62
7
  0
LINE
  6
BYLAYER
  8
0
 10
21.2260824238845
 11
21.2260824238845
 20
-18.8687181927766
 21
-18.8687181927766
 62
7
  0
LINE
  6
BYLAYER
  8
0
 10
30.3875231018506
 11
30.3875231018506
 20
-17.0893622605732
 21
23.1648665529861
 62
7
  0
LINE
  6
BYLAYER
  8
0
 10
30.3875231018506
 11
-25.7564599489968
 20
23.1648665529861
 21
23.1648665529861
 62
7
  0
LINE
  6
BYLAYER
  8
0
 10
-25.7564599489968
 11
-25.7564599489968
 20
23.1648665529861
 21
-17.0893622605732
 62
7
  0
LINE
  6
BYLAYER
  8
0
 10
-25.7564599489968
 11
30.3875231018506
 20
-17.0893622605732
 21
-17.0893622605732
 62
7
  0
LINE
  6
BYLAYER
  8
0
 10
30.3875231018506
 11
30.3875231018506
 20
-17.0893622605732
 21
-17.0893622605732
 62
7
  0
LINE
  6
BYLAYER
  8
0
 10
31.3434553052404
 11
32.0509976781218
 20
-18.8066334470139
 21
-18.5128622605732
 62
7
  0
LINE
  6
BYLAYER
  8
0
 10
32.0509976781218
 11
32.3448959832065
 20
-18.5128622605732
 21
-17.8052690402342
 62
7
  0
LINE
  6
BYLAYER
  8
0
 10
32.3448959832065
 11
32.3448959832065
 20
-17.8052690402342
 21
24.2336801123082
 62
7
  0
LINE
  6
BYLAYER
  8
0
 10
32.3448959832065
 11
32.0509976781218
 20
24.2336801123082
 21
24.9414767224776
 62
7
  0
LINE
  6
BYLAYER
  8
0
 10
32.0509976781218
 11
31.3434553052404
 20
24.9414767224776
 21
25.2335953665455
 62
7
  0
LINE
  6
BYLAYER
  8
0
 10
31.3434553052404
 11
-26.7109429998443
 20
25.2335953665455
 21
25.2335953665455
 62
7
  0
LINE
  6
BYLAYER
  8
0
 10
-26.7109429998443
 11
-27.4185362201833
 20
25.2335953665455
 21
24.9414767224776
 62
7
  0
LINE
  6
BYLAYER
  8
0
 10
-27.4185362201833
 11
-27.7109853727257
 20
24.9414767224776
 21
24.2336801123082
 62
7
  0
LINE
  6
BYLAYER
  8
0
 10
-27.7109853727257
 11
-27.7109853727257
 20
24.2336801123082
 21
-17.8052690402342
 62
7
  0
LINE
  6
BYLAYER
  8
0
 10
-27.7109853727257
 11
-27.4185362201833
 20
-17.8052690402342
 21
-18.5128622605732
 62
7
  0
LINE
  6
BYLAYER
  8
0
 10
-27.4185362201833
 11
-26.7109429998443
 20
-18.5128622605732
 21
-18.8066334470139
 62
7
  0
LINE
  6
BYLAYER
  8
0
 10
-26.7109429998443
 11
31.3434553052404
 20
-18.8066334470139
 21
-18.8066334470139
 62
7
  0
LINE
  6
BYLAYER
  8
0
 10
31.3434553052404
 11
31.3434553052404
 20
-18.8066334470139
 21
-18.8066334470139
 62
7
  0
ENDSEC
  0
EOF
