  0
SECTION
  2
HEADER
  9
$CECOLOR
 62
256
  9
$CELTYPE
  6
CONTINUOUS
  9
$CLAYER
  8
0
  9
$TEXTSTYLE
  7
STANDARD
  9
$DWGCODEPAGE
  3
ANSI_1252
  9
$LTSCALE
 40
1
  0
ENDSEC
  0
SECTION
  2
TABLES
  0
TABLE
  2
LTYPE
 70
5
  0
LTYPE
  2
CONTINUOUS
  3
CONTINUOUS
 70
0
 72
65
 73
0
 40
0
  0
LTYPE
  2
DASHED
  3
DASHED
 70
0
 72
65
 73
2
 40
0.75
 49
0.5
 49
-0.25
  0
LTYPE
  2
DOT
  3
DOT
 70
0
 72
65
 73
2
 40
0.25
 49
0
 49
-0.25
  0
LTYPE
  2
DASHDOT
  3
DASHDOT
 70
0
 72
65
 73
4
 40
1
 49
0.5
 49
-0.25
 49
0
 49
-0.25
  0
LTYPE
  2
DIVIDE
  3
DIVIDE
 70
0
 72
65
 73
6
 40
1.25
 49
0.5
 49
-0.25
 49
0
 49
-0.25
 49
0
 49
-0.25
  0
ENDTAB
  0
TABLE
  2
LAYER
 70
3
  0
LAYER
  2
0
  6
CONTINUOUS
 70
0
 62
7
  0
LAYER
  2
_FLOOR1_W
  6
CONTINUOUS
 70
4
 62
7
  0
LAYER
  2
_FLOOR1_WH
  6
CONTINUOUS
 70
5
 62
1
  0
ENDTAB
  0
TABLE
  2
STYLE
 70
3
  0
STYLE
  2
STANDARD
 70
0
 40
0
 41
1
 50
0
 71
0
 42
1
  3
TXT.SHX
  0
STYLE
  2
ANNOTATIVE
 70
0
 40
0
 41
1
 50
0
 71
0
 42
1
  3
ROMANS.SHX
  0
STYLE
  2
ATTRIBUTI_SCATOLA
 70
0
 40
0
 41
1
 50
0
 71
0
 42
1
  3
ROMANS.SHX
  0
ENDTAB
  0
ENDSEC
  0
SECTION
  2
BLOCKS
  0
BLOCK
  2
*MODEL_SPACE
 10
0
 20
0
 70
1
  0
ENDBLK
  0
BLOCK
  2
*PAPER_SPACE
 10
0
 20
0
 70
1
  0
ENDBLK
  0
ENDSEC
  0
SECTION
  2
ENTITIES
  0
LINE
  6
BYLAYER
  8
0
 10
-27.1313890892676
 11
-27.0809553543278
 20
-2.30435096038275
 21
-2.66615818929841
 62
7
  0
LINE
  6
BYLAYER
  8
0
 10
-27.0809553543278
 11
-26.4541601736049
 20
-2.66615818929841
 21
-3.02880879170812
 62
7
  0
LINE
  6
BYLAYER
  8
0
 10
-26.4541601736049
 11
111.829490428805
 20
-3.02880879170812
 21
-3.02880879170812
 62
7
  0
LINE
  6
BYLAYER
  8
0
 10
111.829490428805
 11
112.49659886254
 20
-3.02880879170812
 21
-2.61133891219004
 62
7
  0
LINE
  6
BYLAYER
  8
0
 10
112.49659886254
 11
112.575032597479
 20
-2.61133891219004
 21
-2.19555577965997
 62
7
  0
LINE
  6
BYLAYER
  8
0
 10
102.335635007118
 11
102.911659103503
 20
36.7438418107016
 21
37.319865907087
 62
7
  0
LINE
  6
BYLAYER
  8
0
 10
102.911659103503
 11
103.922863922781
 20
37.319865907087
 21
36.3407092805811
 62
7
  0
LINE
  6
BYLAYER
  8
0
 10
103.922863922781
 11
104.916357898684
 20
36.3407092805811
 21
37.3013116902195
 62
7
  0
LINE
  6
BYLAYER
  8
0
 10
104.916357898684
 11
105.537924163744
 20
37.3013116902195
 21
36.6789020516654
 62
7
  0
LINE
  6
BYLAYER
  8
0
 10
105.537924163744
 11
104.544430187841
 20
36.6789020516654
 21
35.7182996420268
 62
7
  0
LINE
  6
BYLAYER
  8
0
 10
104.544430187841
 11
105.49238199507
 20
35.7182996420268
 21
34.7711912082919
 62
7
  0
LINE
  6
BYLAYER
  8
0
 10
105.49238199507
 11
104.916357898684
 20
34.7711912082919
 21
34.1951671119063
 62
7
  0
LINE
  6
BYLAYER
  8
0
 10
104.916357898684
 11
103.968406091455
 20
34.1951671119063
 21
35.1414321721474
 62
7
  0
LINE
  6
BYLAYER
  8
0
 10
103.968406091455
 11
103.003586814347
 20
35.1414321721474
 21
34.1487815697377
 62
7
  0
LINE
  6
BYLAYER
  8
0
 10
103.003586814347
 11
102.386237416756
 20
34.1487815697377
 21
34.7711912082919
 62
7
  0
LINE
  6
BYLAYER
  8
0
 10
102.386237416756
 11
103.345996452901
 20
34.7711912082919
 21
35.7646851841955
 62
7
  0
LINE
  6
BYLAYER
  8
0
 10
103.345996452901
 11
102.335635007118
 20
35.7646851841955
 21
36.7438418107016
 62
7
  0
LINE
  6
BYLAYER
  8
0
 10
102.335635007118
 11
102.335635007118
 20
36.7438418107016
 21
36.7438418107016
 62
7
  0
LINE
  6
BYLAYER
  8
0
 10
105.711659103504
 11
106.440333802299
 20
33.9885406058823
 21
35.7503478347979
 62
7
  0
LINE
  6
BYLAYER
  8
0
 10
106.440333802299
 11
105.711659103504
 20
35.7503478347979
 21
37.5121550637136
 62
7
  0
LINE
  6
BYLAYER
  8
0
 10
105.711659103504
 11
103.950695248082
 20
37.5121550637136
 21
38.2391430155207
 62
7
  0
LINE
  6
BYLAYER
  8
0
 10
103.950695248082
 11
102.19394826013
 20
38.2391430155207
 21
37.5121550637136
 62
7
  0
LINE
  6
BYLAYER
  8
0
 10
102.19394826013
 11
101.461900067359
 20
37.5121550637136
 21
35.7503478347979
 62
7
  0
LINE
  6
BYLAYER
  8
0
 10
101.461900067359
 11
102.19394826013
 20
35.7503478347979
 21
33.9885406058823
 62
7
  0
LINE
  6
BYLAYER
  8
0
 10
102.19394826013
 11
103.950695248082
 20
33.9885406058823
 21
33.2615526540751
 62
7
  0
LINE
  6
BYLAYER
  8
0
 10
103.950695248082
 11
105.711659103504
 20
33.2615526540751
 21
33.9885406058823
 62
7
  0
LINE
  6
BYLAYER
  8
0
 10
105.711659103504
 11
105.711659103504
 20
33.9885406058823
 21
33.9885406058823
 62
7
  0
LINE
  6
BYLAYER
  8
0
 10
103.954068742058
 11
105.309369946877
 20
32.2629984372076
 21
32.5387815697377
 62
7
  0
LINE
  6
BYLAYER
  8
0
 10
105.309369946877
 11
106.416719344467
 20
32.5387815697377
 21
33.2885406058822
 62
7
  0
LINE
  6
BYLAYER
  8
0
 10
106.416719344467
 11
107.167321754106
 20
33.2885406058822
 21
34.3958900034727
 62
7
  0
LINE
  6
BYLAYER
  8
0
 10
107.167321754106
 11
107.441418139648
 20
34.3958900034727
 21
35.7503478347979
 62
7
  0
LINE
  6
BYLAYER
  8
0
 10
107.441418139648
 11
107.167321754106
 20
35.7503478347979
 21
37.1090225335931
 62
7
  0
LINE
  6
BYLAYER
  8
0
 10
107.167321754106
 11
106.416719344467
 20
37.1090225335931
 21
38.2163719311835
 62
7
  0
LINE
  6
BYLAYER
  8
0
 10
106.416719344467
 11
105.309369946877
 20
38.2163719311835
 21
38.966974340822
 62
7
  0
LINE
  6
BYLAYER
  8
0
 10
105.309369946877
 11
103.954068742058
 20
38.966974340822
 21
39.2360104854003
 62
7
  0
LINE
  6
BYLAYER
  8
0
 10
103.954068742058
 11
102.595394043263
 20
39.2360104854003
 21
38.966974340822
 62
7
  0
LINE
  6
BYLAYER
  8
0
 10
102.595394043263
 11
101.483827778202
 20
38.966974340822
 21
38.2163719311835
 62
7
  0
LINE
  6
BYLAYER
  8
0
 10
101.483827778202
 11
100.737442236034
 20
38.2163719311835
 21
37.1090225335931
 62
7
  0
LINE
  6
BYLAYER
  8
0
 10
100.737442236034
 11
100.463345850491
 20
37.1090225335931
 21
35.7503478347979
 62
7
  0
LINE
  6
BYLAYER
  8
0
 10
100.463345850491
 11
100.737442236034
 20
35.7503478347979
 21
34.3958900034727
 62
7
  0
LINE
  6
BYLAYER
  8
0
 10
100.737442236034
 11
101.483827778202
 20
34.3958900034727
 21
33.2885406058822
 62
7
  0
LINE
  6
BYLAYER
  8
0
 10
101.483827778202
 11
102.595394043263
 20
33.2885406058822
 21
32.5387815697377
 62
7
  0
LINE
  6
BYLAYER
  8
0
 10
102.595394043263
 11
103.954068742058
 20
32.5387815697377
 21
32.2629984372076
 62
7
  0
LINE
  6
BYLAYER
  8
0
 10
103.954068742058
 11
103.954068742058
 20
32.2629984372076
 21
32.2629984372076
 62
7
  0
LINE
  6
BYLAYER
  8
0
 10
29.7886470553107
 11
31.1937072962745
 20
15.0092634974486
 21
15.0092634974486
 62
7
  0
LINE
  6
BYLAYER
  8
0
 10
29.7886470553107
 11
31.1937072962745
 20
15.0092634974486
 21
15.0092634974486
 62
7
  0
LINE
  6
BYLAYER
  8
0
 10
29.7886470553107
 11
31.1937072962745
 20
56.6061309673281
 21
56.6061309673281
 62
7
  0
LINE
  6
BYLAYER
  8
0
 10
31.1937072962745
 11
31.1937072962745
 20
57.7176972323883
 21
13.8648056661231
 62
7
  0
LINE
  6
BYLAYER
  8
0
 10
29.7886470553107
 11
29.7886470553107
 20
57.7176972323883
 21
13.8648056661231
 62
7
  0
LINE
  6
BYLAYER
  8
0
 10
74.2184060914553
 11
76.2399723565156
 20
-1.11097746640684
 21
-1.11097746640684
 62
7
  0
LINE
  6
BYLAYER
  8
0
 10
74.2546711516963
 11
74.2546711516963
 20
-2.95965216520216
 21
2.90685385889424
 62
7
  0
LINE
  6
BYLAYER
  8
0
 10
74.2546711516963
 11
74.5473217541059
 20
2.90685385889424
 21
3.61107072636412
 62
7
  0
LINE
  6
BYLAYER
  8
0
 10
74.5473217541059
 11
75.2523819950697
 20
3.61107072636412
 21
3.90034783479786
 62
7
  0
LINE
  6
BYLAYER
  8
0
 10
75.2523819950697
 11
75.2523819950697
 20
3.90034783479786
 21
3.90034783479786
 62
7
  0
LINE
  6
BYLAYER
  8
0
 10
75.2523819950697
 11
75.9565988625396
 20
3.90034783479786
 21
3.61107072636412
 62
7
  0
LINE
  6
BYLAYER
  8
0
 10
75.9565988625396
 11
76.2492494649492
 20
3.61107072636412
 21
2.90685385889424
 62
7
  0
LINE
  6
BYLAYER
  8
0
 10
76.2492494649492
 11
76.2492494649492
 20
2.90685385889424
 21
-3.0001340929129
 62
7
  0
LINE
  6
BYLAYER
  8
0
 10
79.1411771757926
 11
81.1602133203709
 20
-1.11097746640684
 21
-1.11097746640684
 62
7
  0
LINE
  6
BYLAYER
  8
0
 10
79.1782856095276
 11
79.1782856095276
 20
-2.95965216520216
 21
2.90685385889424
 62
7
  0
LINE
  6
BYLAYER
  8
0
 10
79.1782856095276
 11
79.4658759709733
 20
2.90685385889424
 21
3.61107072636412
 62
7
  0
LINE
  6
BYLAYER
  8
0
 10
79.4658759709733
 11
80.175996452901
 20
3.61107072636412
 21
3.90034783479786
 62
7
  0
LINE
  6
BYLAYER
  8
0
 10
80.175996452901
 11
80.175996452901
 20
3.90034783479786
 21
3.90034783479786
 62
7
  0
LINE
  6
BYLAYER
  8
0
 10
80.175996452901
 11
80.8751530794071
 20
3.90034783479786
 21
3.61107072636412
 62
7
  0
LINE
  6
BYLAYER
  8
0
 10
80.8751530794071
 11
81.1678036818168
 20
3.61107072636412
 21
2.90685385889424
 62
7
  0
LINE
  6
BYLAYER
  8
0
 10
81.1678036818168
 11
81.1678036818168
 20
2.90685385889424
 21
-3.0001340929129
 62
7
  0
LINE
  6
BYLAYER
  8
0
 10
84.1061169348287
 11
86.1285265733829
 20
-1.11097746640684
 21
-1.11097746640684
 62
7
  0
LINE
  6
BYLAYER
  8
0
 10
84.1423819950697
 11
84.1423819950697
 20
-2.95965216520216
 21
2.90685385889424
 62
7
  0
LINE
  6
BYLAYER
  8
0
 10
84.1423819950697
 11
84.4316591035035
 20
2.90685385889424
 21
3.61107072636412
 62
7
  0
LINE
  6
BYLAYER
  8
0
 10
84.4316591035035
 11
85.1400928384433
 20
3.61107072636412
 21
3.90034783479786
 62
7
  0
LINE
  6
BYLAYER
  8
0
 10
85.1400928384433
 11
85.1400928384433
 20
3.90034783479786
 21
3.90034783479786
 62
7
  0
LINE
  6
BYLAYER
  8
0
 10
85.1400928384433
 11
85.8409362119371
 20
3.90034783479786
 21
3.61107072636412
 62
7
  0
LINE
  6
BYLAYER
  8
0
 10
85.8409362119371
 11
86.1335868143468
 20
3.61107072636412
 21
2.90685385889424
 62
7
  0
LINE
  6
BYLAYER
  8
0
 10
86.1335868143468
 11
86.1335868143468
 20
2.90685385889424
 21
-3.0001340929129
 62
7
  0
LINE
  6
BYLAYER
  8
0
 10
89.1165988625396
 11
91.13394826013
 20
-1.11097746640684
 21
-1.11097746640684
 62
7
  0
LINE
  6
BYLAYER
  8
0
 10
89.1528639227805
 11
89.1528639227805
 20
-2.95965216520216
 21
2.90685385889424
 62
7
  0
LINE
  6
BYLAYER
  8
0
 10
89.1528639227805
 11
89.4412976577204
 20
2.90685385889424
 21
3.61107072636412
 62
7
  0
LINE
  6
BYLAYER
  8
0
 10
89.4412976577204
 11
90.1455145251902
 20
3.61107072636412
 21
3.90034783479786
 62
7
  0
LINE
  6
BYLAYER
  8
0
 10
90.1455145251902
 11
90.1455145251902
 20
3.90034783479786
 21
3.90034783479786
 62
7
  0
LINE
  6
BYLAYER
  8
0
 10
90.1455145251902
 11
90.850574766154
 20
3.90034783479786
 21
3.61107072636412
 62
7
  0
LINE
  6
BYLAYER
  8
0
 10
90.850574766154
 11
91.1432253685637
 20
3.61107072636412
 21
2.90685385889424
 62
7
  0
LINE
  6
BYLAYER
  8
0
 10
91.1432253685637
 11
91.1432253685637
 20
2.90685385889424
 21
-3.0001340929129
 62
7
  0
LINE
  6
BYLAYER
  8
0
 10
94.0806952480817
 11
96.1031048866359
 20
-1.11097746640684
 21
-1.11097746640684
 62
7
  0
LINE
  6
BYLAYER
  8
0
 10
94.1169603083227
 11
94.1169603083227
 20
-2.95965216520216
 21
2.90685385889424
 62
7
  0
LINE
  6
BYLAYER
  8
0
 10
94.1169603083227
 11
94.4053940432624
 20
2.90685385889424
 21
3.61107072636412
 62
7
  0
LINE
  6
BYLAYER
  8
0
 10
94.4053940432624
 11
95.1155145251902
 20
3.61107072636412
 21
3.90034783479786
 62
7
  0
LINE
  6
BYLAYER
  8
0
 10
95.1155145251902
 11
95.1155145251902
 20
3.90034783479786
 21
3.90034783479786
 62
7
  0
LINE
  6
BYLAYER
  8
0
 10
95.1155145251902
 11
95.8146711516963
 20
3.90034783479786
 21
3.61107072636412
 62
7
  0
LINE
  6
BYLAYER
  8
0
 10
95.8146711516963
 11
96.1073217541058
 20
3.61107072636412
 21
2.90685385889424
 62
7
  0
LINE
  6
BYLAYER
  8
0
 10
96.1073217541058
 11
96.1073217541058
 20
2.90685385889424
 21
-3.0001340929129
 62
7
  0
LINE
  6
BYLAYER
  8
0
 10
99.0684060914553
 11
101.089972356515
 20
-1.06543529773222
 21
-1.06543529773222
 62
7
  0
LINE
  6
BYLAYER
  8
0
 10
99.1046711516962
 11
99.1046711516962
 20
-2.9090497555635
 21
2.95239602756897
 62
7
  0
LINE
  6
BYLAYER
  8
0
 10
99.1046711516962
 11
99.393104886636
 20
2.95239602756897
 21
3.65661289503885
 62
7
  0
LINE
  6
BYLAYER
  8
0
 10
99.393104886636
 11
100.101538621576
 20
3.65661289503885
 21
3.9492634974485
 62
7
  0
LINE
  6
BYLAYER
  8
0
 10
100.101538621576
 11
100.101538621576
 20
3.9492634974485
 21
3.9492634974485
 62
7
  0
LINE
  6
BYLAYER
  8
0
 10
100.101538621576
 11
100.80238199507
 20
3.9492634974485
 21
3.65661289503885
 62
7
  0
LINE
  6
BYLAYER
  8
0
 10
100.80238199507
 11
101.095032597479
 20
3.65661289503885
 21
2.95239602756897
 62
7
  0
LINE
  6
BYLAYER
  8
0
 10
101.095032597479
 11
101.095032597479
 20
2.95239602756897
 21
-2.95459192423817
 62
7
  0
LINE
  6
BYLAYER
  8
0
 10
104.078044645672
 11
106.09708079025
 20
-1.06543529773222
 21
-1.06543529773222
 62
7
  0
LINE
  6
BYLAYER
  8
0
 10
104.115153079407
 11
104.115153079407
 20
-2.9090497555635
 21
2.95239602756897
 62
7
  0
LINE
  6
BYLAYER
  8
0
 10
104.115153079407
 11
104.402743440853
 20
2.95239602756897
 21
3.65661289503885
 62
7
  0
LINE
  6
BYLAYER
  8
0
 10
104.402743440853
 11
105.107803681817
 20
3.65661289503885
 21
3.9492634974485
 62
7
  0
LINE
  6
BYLAYER
  8
0
 10
105.107803681817
 11
105.107803681817
 20
3.9492634974485
 21
3.9492634974485
 62
7
  0
LINE
  6
BYLAYER
  8
0
 10
105.107803681817
 11
105.812020549287
 20
3.9492634974485
 21
3.65661289503885
 62
7
  0
LINE
  6
BYLAYER
  8
0
 10
105.812020549287
 11
106.104671151696
 20
3.65661289503885
 21
2.95239602756897
 62
7
  0
LINE
  6
BYLAYER
  8
0
 10
106.104671151696
 11
106.104671151696
 20
2.95239602756897
 21
-2.95459192423817
 62
7
  0
LINE
  6
BYLAYER
  8
0
 10
74.2782856095276
 11
76.2998518745877
 20
72.5517936179305
 21
72.5517936179305
 62
7
  0
LINE
  6
BYLAYER
  8
0
 10
74.3145506697685
 11
74.3145506697685
 20
74.3954080757617
 21
68.5339622926292
 62
7
  0
LINE
  6
BYLAYER
  8
0
 10
74.3145506697685
 11
74.6072012721781
 20
68.5339622926292
 21
67.8297454251593
 62
7
  0
LINE
  6
BYLAYER
  8
0
 10
74.6072012721781
 11
75.311418139648
 20
67.8297454251593
 21
67.5370948227497
 62
7
  0
LINE
  6
BYLAYER
  8
0
 10
75.311418139648
 11
75.311418139648
 20
67.5370948227497
 21
67.5370948227497
 62
7
  0
LINE
  6
BYLAYER
  8
0
 10
75.311418139648
 11
76.0164783806119
 20
67.5370948227497
 21
67.8297454251593
 62
7
  0
LINE
  6
BYLAYER
  8
0
 10
76.0164783806119
 11
76.3091289830215
 20
67.8297454251593
 21
68.5339622926292
 62
7
  0
LINE
  6
BYLAYER
  8
0
 10
76.3091289830215
 11
76.3091289830215
 20
68.5339622926292
 21
74.4409502444364
 62
7
  0
LINE
  6
BYLAYER
  8
0
 10
79.201056693865
 11
81.2184060914553
 20
72.5517936179305
 21
72.5517936179305
 62
7
  0
LINE
  6
BYLAYER
  8
0
 10
79.2373217541058
 11
79.2373217541058
 20
74.3954080757617
 21
68.5339622926292
 62
7
  0
LINE
  6
BYLAYER
  8
0
 10
79.2373217541058
 11
79.5257554890457
 20
68.5339622926292
 21
67.8297454251593
 62
7
  0
LINE
  6
BYLAYER
  8
0
 10
79.5257554890457
 11
80.2308157300094
 20
67.8297454251593
 21
67.5370948227497
 62
7
  0
LINE
  6
BYLAYER
  8
0
 10
80.2308157300094
 11
80.2308157300094
 20
67.5370948227497
 21
67.5370948227497
 62
7
  0
LINE
  6
BYLAYER
  8
0
 10
80.2308157300094
 11
80.9350325974793
 20
67.5370948227497
 21
67.8297454251593
 62
7
  0
LINE
  6
BYLAYER
  8
0
 10
80.9350325974793
 11
81.227683199889
 20
67.8297454251593
 21
68.5339622926292
 62
7
  0
LINE
  6
BYLAYER
  8
0
 10
81.227683199889
 11
81.227683199889
 20
68.5339622926292
 21
74.4409502444364
 62
7
  0
LINE
  6
BYLAYER
  8
0
 10
84.165153079407
 11
86.1884060914553
 20
72.5517936179305
 21
72.5517936179305
 62
7
  0
LINE
  6
BYLAYER
  8
0
 10
84.201418139648
 11
84.201418139648
 20
74.3954080757617
 21
68.5339622926292
 62
7
  0
LINE
  6
BYLAYER
  8
0
 10
84.201418139648
 11
84.4898518745877
 20
68.5339622926292
 21
67.8297454251593
 62
7
  0
LINE
  6
BYLAYER
  8
0
 10
84.4898518745877
 11
85.1999723565154
 20
67.8297454251593
 21
67.5370948227497
 62
7
  0
LINE
  6
BYLAYER
  8
0
 10
85.1999723565154
 11
85.1999723565154
 20
67.5370948227497
 21
67.5370948227497
 62
7
  0
LINE
  6
BYLAYER
  8
0
 10
85.1999723565154
 11
85.8991289830215
 20
67.5370948227497
 21
67.8297454251593
 62
7
  0
LINE
  6
BYLAYER
  8
0
 10
85.8991289830215
 11
86.1917795854311
 20
67.8297454251593
 21
68.5339622926292
 62
7
  0
LINE
  6
BYLAYER
  8
0
 10
86.1917795854311
 11
86.1917795854311
 20
68.5339622926292
 21
74.4409502444364
 62
7
  0
LINE
  6
BYLAYER
  8
0
 10
89.1756350071179
 11
91.1938277782022
 20
72.5517936179305
 21
72.5517936179305
 62
7
  0
LINE
  6
BYLAYER
  8
0
 10
89.2127434408528
 11
89.2127434408528
 20
74.3954080757617
 21
68.5339622926292
 62
7
  0
LINE
  6
BYLAYER
  8
0
 10
89.2127434408528
 11
89.5011771757926
 20
68.5339622926292
 21
67.8297454251593
 62
7
  0
LINE
  6
BYLAYER
  8
0
 10
89.5011771757926
 11
90.2053940432625
 20
67.8297454251593
 21
67.5370948227497
 62
7
  0
LINE
  6
BYLAYER
  8
0
 10
90.2053940432625
 11
90.2053940432625
 20
67.5370948227497
 21
67.5370948227497
 62
7
  0
LINE
  6
BYLAYER
  8
0
 10
90.2053940432625
 11
90.9104542842264
 20
67.5370948227497
 21
67.8297454251593
 62
7
  0
LINE
  6
BYLAYER
  8
0
 10
90.9104542842264
 11
91.2031048866359
 20
67.8297454251593
 21
68.5339622926292
 62
7
  0
LINE
  6
BYLAYER
  8
0
 10
91.2031048866359
 11
91.2031048866359
 20
68.5339622926292
 21
74.4409502444364
 62
7
  0
LINE
  6
BYLAYER
  8
0
 10
94.1405747661541
 11
96.1579241637444
 20
72.5517936179305
 21
72.5517936179305
 62
7
  0
LINE
  6
BYLAYER
  8
0
 10
94.176839826395
 11
94.176839826395
 20
74.3954080757617
 21
68.5339622926292
 62
7
  0
LINE
  6
BYLAYER
  8
0
 10
94.176839826395
 11
94.4652735613348
 20
68.5339622926292
 21
67.8297454251593
 62
7
  0
LINE
  6
BYLAYER
  8
0
 10
94.4652735613348
 11
95.1694904288047
 20
67.8297454251593
 21
67.5370948227497
 62
7
  0
LINE
  6
BYLAYER
  8
0
 10
95.1694904288047
 11
95.1694904288047
 20
67.5370948227497
 21
67.5370948227497
 62
7
  0
LINE
  6
BYLAYER
  8
0
 10
95.1694904288047
 11
95.8745506697685
 20
67.5370948227497
 21
67.8297454251593
 62
7
  0
LINE
  6
BYLAYER
  8
0
 10
95.8745506697685
 11
96.1672012721781
 20
67.8297454251593
 21
68.5339622926292
 62
7
  0
LINE
  6
BYLAYER
  8
0
 10
96.1672012721781
 11
96.1672012721781
 20
68.5339622926292
 21
74.4409502444364
 62
7
  0
LINE
  6
BYLAYER
  8
0
 10
99.1274422360336
 11
101.149851874588
 20
72.5011912082918
 21
72.5011912082918
 62
7
  0
LINE
  6
BYLAYER
  8
0
 10
99.1645506697686
 11
99.1645506697686
 20
74.3498659070872
 21
68.4842032564846
 62
7
  0
LINE
  6
BYLAYER
  8
0
 10
99.1645506697686
 11
99.4529844047082
 20
68.4842032564846
 21
67.7842032564847
 62
7
  0
LINE
  6
BYLAYER
  8
0
 10
99.4529844047082
 11
100.157201272178
 20
67.7842032564847
 21
67.491552654075
 62
7
  0
LINE
  6
BYLAYER
  8
0
 10
100.157201272178
 11
100.157201272178
 20
67.491552654075
 21
67.491552654075
 62
7
  0
LINE
  6
BYLAYER
  8
0
 10
100.157201272178
 11
100.862261513142
 20
67.491552654075
 21
67.7842032564847
 62
7
  0
LINE
  6
BYLAYER
  8
0
 10
100.862261513142
 11
101.154912115552
 20
67.7842032564847
 21
68.4842032564846
 62
7
  0
LINE
  6
BYLAYER
  8
0
 10
101.154912115552
 11
101.154912115552
 20
68.4842032564846
 21
74.3911912082918
 62
7
  0
LINE
  6
BYLAYER
  8
0
 10
104.137924163744
 11
106.155273561335
 20
72.5011912082918
 21
72.5011912082918
 62
7
  0
LINE
  6
BYLAYER
  8
0
 10
104.169972356515
 11
104.169972356515
 20
74.3498659070872
 21
68.4842032564846
 62
7
  0
LINE
  6
BYLAYER
  8
0
 10
104.169972356515
 11
104.462622958925
 20
68.4842032564846
 21
67.7842032564847
 62
7
  0
LINE
  6
BYLAYER
  8
0
 10
104.462622958925
 11
105.167683199889
 20
67.7842032564847
 21
67.491552654075
 62
7
  0
LINE
  6
BYLAYER
  8
0
 10
105.167683199889
 11
105.167683199889
 20
67.491552654075
 21
67.491552654075
 62
7
  0
LINE
  6
BYLAYER
  8
0
 10
105.167683199889
 11
105.871900067359
 20
67.491552654075
 21
67.7842032564847
 62
7
  0
LINE
  6
BYLAYER
  8
0
 10
105.871900067359
 11
106.164550669768
 20
67.7842032564847
 21
68.4842032564846
 62
7
  0
LINE
  6
BYLAYER
  8
0
 10
106.164550669768
 11
106.164550669768
 20
68.4842032564846
 21
74.3911912082918
 62
7
  0
LINE
  6
BYLAYER
  8
0
 10
-20.4417505350507
 11
-18.4239794507134
 20
72.4919140998582
 21
72.4919140998582
 62
7
  0
LINE
  6
BYLAYER
  8
0
 10
-20.4143408964965
 11
-20.409786679629
 20
74.5058900034727
 21
68.474082774557
 62
7
  0
LINE
  6
BYLAYER
  8
0
 10
-20.409786679629
 11
-20.1169674025206
 20
68.474082774557
 21
67.770709280581
 62
7
  0
LINE
  6
BYLAYER
  8
0
 10
-20.1169674025206
 11
-19.4122445109543
 20
67.770709280581
 21
67.4772153046774
 62
7
  0
LINE
  6
BYLAYER
  8
0
 10
-19.4122445109543
 11
-19.4122445109543
 20
67.4772153046774
 21
67.4772153046774
 62
7
  0
LINE
  6
BYLAYER
  8
0
 10
-19.4122445109543
 11
-18.7076902940869
 20
67.4772153046774
 21
67.770709280581
 62
7
  0
LINE
  6
BYLAYER
  8
0
 10
-18.7076902940869
 11
-18.4148710169784
 20
67.770709280581
 21
68.474082774557
 62
7
  0
LINE
  6
BYLAYER
  8
0
 10
-18.4148710169784
 11
-18.4148710169784
 20
68.474082774557
 21
74.3819140998582
 62
7
  0
LINE
  6
BYLAYER
  8
0
 10
-15.477316800111
 11
-13.4549071615567
 20
72.4919140998582
 21
72.4919140998582
 62
7
  0
LINE
  6
BYLAYER
  8
0
 10
-15.4498228242073
 11
-15.4407143904724
 20
74.4603478347979
 21
68.474082774557
 62
7
  0
LINE
  6
BYLAYER
  8
0
 10
-15.4407143904724
 11
-15.1524493302314
 20
68.474082774557
 21
67.770709280581
 62
7
  0
LINE
  6
BYLAYER
  8
0
 10
-15.1524493302314
 11
-14.4432565591471
 20
67.770709280581
 21
67.4772153046774
 62
7
  0
LINE
  6
BYLAYER
  8
0
 10
-14.4432565591471
 11
-14.4432565591471
 20
67.4772153046774
 21
67.4772153046774
 62
7
  0
LINE
  6
BYLAYER
  8
0
 10
-14.4432565591471
 11
-13.7431722217977
 20
67.4772153046774
 21
67.770709280581
 62
7
  0
LINE
  6
BYLAYER
  8
0
 10
-13.7431722217977
 11
-13.4503529446893
 20
67.770709280581
 21
68.474082774557
 62
7
  0
LINE
  6
BYLAYER
  8
0
 10
-13.4503529446893
 11
-13.4503529446893
 20
68.474082774557
 21
74.3819140998582
 62
7
  0
LINE
  6
BYLAYER
  8
0
 10
-10.5127987278219
 11
-8.49038908926757
 20
72.4919140998582
 21
72.4919140998582
 62
7
  0
LINE
  6
BYLAYER
  8
0
 10
-10.5035216193881
 11
-10.4765336675809
 20
74.3734803649183
 21
68.474082774557
 62
7
  0
LINE
  6
BYLAYER
  8
0
 10
-10.4765336675809
 11
-10.1880999326411
 20
68.474082774557
 21
67.770709280581
 62
7
  0
LINE
  6
BYLAYER
  8
0
 10
-10.1880999326411
 11
-9.47882282420733
 20
67.770709280581
 21
67.4772153046774
 62
7
  0
LINE
  6
BYLAYER
  8
0
 10
-9.47882282420733
 11
-9.47882282420733
 20
67.4772153046774
 21
67.4772153046774
 62
7
  0
LINE
  6
BYLAYER
  8
0
 10
-9.47882282420733
 11
-8.77882282420733
 20
67.4772153046774
 21
67.770709280581
 62
7
  0
LINE
  6
BYLAYER
  8
0
 10
-8.77882282420733
 11
-8.48617222179778
 20
67.770709280581
 21
68.474082774557
 62
7
  0
LINE
  6
BYLAYER
  8
0
 10
-8.48617222179778
 11
-8.48617222179778
 20
68.474082774557
 21
74.3819140998582
 62
7
  0
LINE
  6
BYLAYER
  8
0
 10
-5.54785896878565
 11
-3.52544933023151
 20
72.4919140998582
 21
72.4919140998582
 62
7
  0
LINE
  6
BYLAYER
  8
0
 10
-5.51665414950864
 11
-5.51159390854468
 20
74.5236008468461
 21
68.474082774557
 62
7
  0
LINE
  6
BYLAYER
  8
0
 10
-5.51159390854468
 11
-5.21894330613503
 20
68.474082774557
 21
67.770709280581
 62
7
  0
LINE
  6
BYLAYER
  8
0
 10
-5.21894330613503
 11
-4.5138830651712
 20
67.770709280581
 21
67.4772153046774
 62
7
  0
LINE
  6
BYLAYER
  8
0
 10
-4.5138830651712
 11
-4.5138830651712
 20
67.4772153046774
 21
67.4772153046774
 62
7
  0
LINE
  6
BYLAYER
  8
0
 10
-4.5138830651712
 11
-3.8096661977014
 20
67.4772153046774
 21
67.770709280581
 62
7
  0
LINE
  6
BYLAYER
  8
0
 10
-3.8096661977014
 11
-3.51701559529175
 20
67.770709280581
 21
68.474082774557
 62
7
  0
LINE
  6
BYLAYER
  8
0
 10
-3.51701559529175
 11
-3.51701559529175
 20
68.474082774557
 21
74.3819140998582
 62
7
  0
LINE
  6
BYLAYER
  8
0
 10
-0.538220414568855
 11
1.48418922398545
 20
72.4919140998582
 21
72.4919140998582
 62
7
  0
LINE
  6
BYLAYER
  8
0
 10
-0.510389089267647
 11
-0.501111980833912
 20
74.5058900034727
 21
68.474082774557
 62
7
  0
LINE
  6
BYLAYER
  8
0
 10
-0.501111980833912
 11
-0.213521619388075
 20
68.474082774557
 21
67.770709280581
 62
7
  0
LINE
  6
BYLAYER
  8
0
 10
-0.213521619388075
 11
0.495755489045592
 20
67.770709280581
 21
67.4772153046774
 62
7
  0
LINE
  6
BYLAYER
  8
0
 10
0.495755489045592
 11
0.495755489045592
 20
67.4772153046774
 21
67.4772153046774
 62
7
  0
LINE
  6
BYLAYER
  8
0
 10
0.495755489045592
 11
1.19575548904558
 20
67.4772153046774
 21
67.770709280581
 62
7
  0
LINE
  6
BYLAYER
  8
0
 10
1.19575548904558
 11
1.4892494649493
 20
67.770709280581
 21
68.474082774557
 62
7
  0
LINE
  6
BYLAYER
  8
0
 10
1.4892494649493
 11
1.4892494649493
 20
68.474082774557
 21
74.3819140998582
 62
7
  0
LINE
  6
BYLAYER
  8
0
 10
4.47226151314197
 11
6.49467115169628
 20
72.5155285576895
 21
72.5155285576895
 62
7
  0
LINE
  6
BYLAYER
  8
0
 10
4.50852657338302
 11
4.50852657338302
 20
74.3591430155207
 21
68.4976972323883
 62
7
  0
LINE
  6
BYLAYER
  8
0
 10
4.50852657338302
 11
4.7969603083227
 20
68.4976972323883
 21
67.7926369914245
 62
7
  0
LINE
  6
BYLAYER
  8
0
 10
4.7969603083227
 11
5.50202054928664
 20
67.7926369914245
 21
67.4999863890147
 62
7
  0
LINE
  6
BYLAYER
  8
0
 10
5.50202054928664
 11
5.50202054928664
 20
67.4999863890147
 21
67.4999863890147
 62
7
  0
LINE
  6
BYLAYER
  8
0
 10
5.50202054928664
 11
6.20623741675644
 20
67.4999863890147
 21
67.7926369914245
 62
7
  0
LINE
  6
BYLAYER
  8
0
 10
6.20623741675644
 11
6.49973139266012
 20
67.7926369914245
 21
68.4976972323883
 62
7
  0
LINE
  6
BYLAYER
  8
0
 10
6.49973139266012
 11
6.49973139266012
 20
68.4976972323883
 21
74.4046851841956
 62
7
  0
LINE
  6
BYLAYER
  8
0
 10
9.39081573000954
 11
11.4132253685637
 20
72.5155285576895
 21
72.5155285576895
 62
7
  0
LINE
  6
BYLAYER
  8
0
 10
9.42792416374439
 11
9.42792416374439
 20
74.3591430155207
 21
68.4976972323883
 62
7
  0
LINE
  6
BYLAYER
  8
0
 10
9.42792416374439
 11
9.72057476615402
 20
68.4976972323883
 21
67.7926369914245
 62
7
  0
LINE
  6
BYLAYER
  8
0
 10
9.72057476615402
 11
10.424791633624
 20
67.7926369914245
 21
67.4999863890147
 62
7
  0
LINE
  6
BYLAYER
  8
0
 10
10.424791633624
 11
10.424791633624
 20
67.4999863890147
 21
67.4999863890147
 62
7
  0
LINE
  6
BYLAYER
  8
0
 10
10.424791633624
 11
11.1298518745878
 20
67.4999863890147
 21
67.7926369914245
 62
7
  0
LINE
  6
BYLAYER
  8
0
 10
11.1298518745878
 11
11.4225024769975
 20
67.7926369914245
 21
68.4976972323883
 62
7
  0
LINE
  6
BYLAYER
  8
0
 10
11.4225024769975
 11
11.4225024769975
 20
68.4976972323883
 21
74.4046851841956
 62
7
  0
LINE
  6
BYLAYER
  8
0
 10
-20.4280878844483
 11
-18.4056782458941
 20
-1.17085698447926
 21
-1.17085698447926
 62
7
  0
LINE
  6
BYLAYER
  8
0
 10
-20.3914854748097
 11
-20.3914854748097
 20
-3.01447144231042
 21
2.84697434082199
 62
7
  0
LINE
  6
BYLAYER
  8
0
 10
-20.3914854748097
 11
-20.1032204145688
 20
2.84697434082199
 21
3.55709482274978
 62
7
  0
LINE
  6
BYLAYER
  8
0
 10
-20.1032204145688
 11
-19.3985818603519
 20
3.55709482274978
 21
3.84468518419544
 62
7
  0
LINE
  6
BYLAYER
  8
0
 10
-19.3985818603519
 11
-19.3985818603519
 20
3.84468518419544
 21
3.84468518419544
 62
7
  0
LINE
  6
BYLAYER
  8
0
 10
-19.3985818603519
 11
-18.6940276434844
 20
3.84468518419544
 21
3.55709482274978
 62
7
  0
LINE
  6
BYLAYER
  8
0
 10
-18.6940276434844
 11
-18.4011240290266
 20
3.55709482274978
 21
2.84697434082199
 62
7
  0
LINE
  6
BYLAYER
  8
0
 10
-18.4011240290266
 11
-18.4011240290266
 20
2.84697434082199
 21
-3.06001361098521
 62
7
  0
LINE
  6
BYLAYER
  8
0
 10
-15.4634854748098
 11
-13.4411601736049
 20
-1.17085698447926
 21
-1.17085698447926
 62
7
  0
LINE
  6
BYLAYER
  8
0
 10
-15.4269674025206
 11
-15.4269674025206
 20
-3.01447144231042
 21
2.84697434082199
 62
7
  0
LINE
  6
BYLAYER
  8
0
 10
-15.4269674025206
 11
-15.1341481254121
 20
2.84697434082199
 21
3.55709482274978
 62
7
  0
LINE
  6
BYLAYER
  8
0
 10
-15.1341481254121
 11
-14.4294252338459
 20
3.55709482274978
 21
3.84468518419544
 62
7
  0
LINE
  6
BYLAYER
  8
0
 10
-14.4294252338459
 11
-14.4294252338459
 20
3.84468518419544
 21
3.84468518419544
 62
7
  0
LINE
  6
BYLAYER
  8
0
 10
-14.4294252338459
 11
-13.7248710169784
 20
3.84468518419544
 21
3.55709482274978
 62
7
  0
LINE
  6
BYLAYER
  8
0
 10
-13.7248710169784
 11
-13.43205173987
 20
3.55709482274978
 21
2.84697434082199
 62
7
  0
LINE
  6
BYLAYER
  8
0
 10
-13.43205173987
 11
-13.43205173987
 20
2.84697434082199
 21
-3.06001361098521
 62
7
  0
LINE
  6
BYLAYER
  8
0
 10
-10.4993047519182
 11
-8.47689511336404
 20
-1.17085698447926
 21
-1.17085698447926
 62
7
  0
LINE
  6
BYLAYER
  8
0
 10
-10.4621963181832
 11
-10.4621963181832
 20
-3.01447144231042
 21
2.84697434082199
 62
7
  0
LINE
  6
BYLAYER
  8
0
 10
-10.4621963181832
 11
-10.1695457157736
 20
2.84697434082199
 21
3.55709482274978
 62
7
  0
LINE
  6
BYLAYER
  8
0
 10
-10.1695457157736
 11
-9.46532884830381
 20
3.55709482274978
 21
3.84468518419544
 62
7
  0
LINE
  6
BYLAYER
  8
0
 10
-9.46532884830381
 11
-9.46532884830381
 20
3.84468518419544
 21
3.84468518419544
 62
7
  0
LINE
  6
BYLAYER
  8
0
 10
-9.46532884830381
 11
-8.76026860733995
 20
3.84468518419544
 21
3.55709482274978
 62
7
  0
LINE
  6
BYLAYER
  8
0
 10
-8.76026860733995
 11
-8.46761800493022
 20
3.55709482274978
 21
2.84697434082199
 62
7
  0
LINE
  6
BYLAYER
  8
0
 10
-8.46761800493022
 11
-8.46761800493022
 20
2.84697434082199
 21
-3.06001361098521
 62
7
  0
LINE
  6
BYLAYER
  8
0
 10
-5.53436499288205
 11
-3.51195535432782
 20
-1.17085698447926
 21
-1.17085698447926
 62
7
  0
LINE
  6
BYLAYER
  8
0
 10
-5.49809993264114
 11
-5.49809993264114
 20
-3.01447144231042
 21
2.84697434082199
 62
7
  0
LINE
  6
BYLAYER
  8
0
 10
-5.49809993264114
 11
-5.20544933023152
 20
2.84697434082199
 21
3.55709482274978
 62
7
  0
LINE
  6
BYLAYER
  8
0
 10
-5.20544933023152
 11
-4.50038908926766
 20
3.55709482274978
 21
3.84468518419544
 62
7
  0
LINE
  6
BYLAYER
  8
0
 10
-4.50038908926766
 11
-4.50038908926766
 20
3.84468518419544
 21
3.84468518419544
 62
7
  0
LINE
  6
BYLAYER
  8
0
 10
-4.50038908926766
 11
-3.79617222179769
 20
3.84468518419544
 21
3.55709482274978
 62
7
  0
LINE
  6
BYLAYER
  8
0
 10
-3.79617222179769
 11
-3.50267824589417
 20
3.55709482274978
 21
2.84697434082199
 62
7
  0
LINE
  6
BYLAYER
  8
0
 10
-3.50267824589417
 11
-3.50267824589417
 20
2.84697434082199
 21
-3.06001361098521
 62
7
  0
LINE
  6
BYLAYER
  8
0
 10
-0.523883065171276
 11
1.49852657338303
 20
-1.17085698447926
 21
-1.17085698447926
 62
7
  0
LINE
  6
BYLAYER
  8
0
 10
-0.487618004930226
 11
-0.487618004930226
 20
-3.01447144231042
 21
2.84697434082199
 62
7
  0
LINE
  6
BYLAYER
  8
0
 10
-0.487618004930226
 11
-0.194967402520604
 20
2.84697434082199
 21
3.55709482274978
 62
7
  0
LINE
  6
BYLAYER
  8
0
 10
-0.194967402520604
 11
0.510092838443171
 20
3.55709482274978
 21
3.84468518419544
 62
7
  0
LINE
  6
BYLAYER
  8
0
 10
0.510092838443171
 11
0.510092838443171
 20
3.84468518419544
 21
3.84468518419544
 62
7
  0
LINE
  6
BYLAYER
  8
0
 10
0.510092838443171
 11
1.21430970591314
 20
3.84468518419544
 21
3.55709482274978
 62
7
  0
LINE
  6
BYLAYER
  8
0
 10
1.21430970591314
 11
1.50696030832279
 20
3.55709482274978
 21
2.84697434082199
 62
7
  0
LINE
  6
BYLAYER
  8
0
 10
1.50696030832279
 11
1.50696030832279
 20
2.84697434082199
 21
-3.06001361098521
 62
7
  0
LINE
  6
BYLAYER
  8
0
 10
4.4857554890456
 11
6.50816512759988
 20
-1.19278469532264
 21
-1.19278469532264
 62
7
  0
LINE
  6
BYLAYER
  8
0
 10
4.52286392278052
 11
4.52286392278052
 20
-3.03639915315381
 21
2.82504662997871
 62
7
  0
LINE
  6
BYLAYER
  8
0
 10
4.52286392278052
 11
4.81045428422641
 20
2.82504662997871
 21
3.52842012395456
 62
7
  0
LINE
  6
BYLAYER
  8
0
 10
4.81045428422641
 11
5.51973139266013
 20
3.52842012395456
 21
3.82191409985813
 62
7
  0
LINE
  6
BYLAYER
  8
0
 10
5.51973139266013
 11
5.51973139266013
 20
3.82191409985813
 21
3.82191409985813
 62
7
  0
LINE
  6
BYLAYER
  8
0
 10
5.51973139266013
 11
6.22057476615413
 20
3.82191409985813
 21
3.52842012395456
 62
7
  0
LINE
  6
BYLAYER
  8
0
 10
6.22057476615413
 11
6.51322536856367
 20
3.52842012395456
 21
2.82504662997871
 62
7
  0
LINE
  6
BYLAYER
  8
0
 10
6.51322536856367
 11
6.51322536856367
 20
2.82504662997871
 21
-3.08194132182865
 62
7
  0
LINE
  6
BYLAYER
  8
0
 10
9.40936994687692
 11
11.4275627179613
 20
-1.19278469532264
 21
-1.19278469532264
 62
7
  0
LINE
  6
BYLAYER
  8
0
 10
9.44141813964808
 11
9.44141813964808
 20
-3.03639915315381
 21
2.82504662997871
 62
7
  0
LINE
  6
BYLAYER
  8
0
 10
9.44141813964808
 11
9.7340687420577
 20
2.82504662997871
 21
3.52842012395456
 62
7
  0
LINE
  6
BYLAYER
  8
0
 10
9.7340687420577
 11
10.4391289830215
 20
3.52842012395456
 21
3.82191409985813
 62
7
  0
LINE
  6
BYLAYER
  8
0
 10
10.4391289830215
 11
10.4391289830215
 20
3.82191409985813
 21
3.82191409985813
 62
7
  0
LINE
  6
BYLAYER
  8
0
 10
10.4391289830215
 11
11.1433458504914
 20
3.82191409985813
 21
3.52842012395456
 62
7
  0
LINE
  6
BYLAYER
  8
0
 10
11.1433458504914
 11
11.435996452901
 20
3.52842012395456
 21
2.82504662997871
 62
7
  0
LINE
  6
BYLAYER
  8
0
 10
11.435996452901
 11
11.435996452901
 20
2.82504662997871
 21
-3.08194132182865
 62
7
  0
LINE
  6
BYLAYER
  8
0
 10
102.393827778202
 11
102.971538621576
 20
-6.83917023749115
 21
-6.26230276761174
 62
7
  0
LINE
  6
BYLAYER
  8
0
 10
102.971538621576
 11
103.982743440853
 20
-6.26230276761174
 21
-7.24145939411773
 62
7
  0
LINE
  6
BYLAYER
  8
0
 10
103.982743440853
 11
104.975394043262
 20
-7.24145939411773
 21
-6.28085698447916
 62
7
  0
LINE
  6
BYLAYER
  8
0
 10
104.975394043262
 11
105.597803681817
 20
-6.28085698447916
 21
-6.90326662303346
 62
7
  0
LINE
  6
BYLAYER
  8
0
 10
105.597803681817
 11
104.604309705913
 20
-6.90326662303346
 21
-7.86386903267191
 62
7
  0
LINE
  6
BYLAYER
  8
0
 10
104.604309705913
 11
105.552261513142
 20
-7.86386903267191
 21
-8.81097746640694
 62
7
  0
LINE
  6
BYLAYER
  8
0
 10
105.552261513142
 11
104.975394043262
 20
-8.81097746640694
 21
-9.38784493628634
 62
7
  0
LINE
  6
BYLAYER
  8
0
 10
104.975394043262
 11
104.028285609528
 20
-9.38784493628634
 21
-8.44157987604541
 62
7
  0
LINE
  6
BYLAYER
  8
0
 10
104.028285609528
 11
103.067683199889
 20
-8.44157987604541
 21
-9.43338710496101
 62
7
  0
LINE
  6
BYLAYER
  8
0
 10
103.067683199889
 11
102.444430187841
 20
-9.43338710496101
 21
-8.81097746640694
 62
7
  0
LINE
  6
BYLAYER
  8
0
 10
102.444430187841
 11
103.405875970973
 20
-8.81097746640694
 21
-7.81832686399719
 62
7
  0
LINE
  6
BYLAYER
  8
0
 10
103.405875970973
 11
102.393827778202
 20
-7.81832686399719
 21
-6.83917023749115
 62
7
  0
LINE
  6
BYLAYER
  8
0
 10
102.393827778202
 11
102.393827778202
 20
-6.83917023749115
 21
-6.83917023749115
 62
7
  0
LINE
  6
BYLAYER
  8
0
 10
105.775755489046
 11
106.503586814347
 20
-9.59362806881649
 21
-7.83182083990084
 62
7
  0
LINE
  6
BYLAYER
  8
0
 10
106.503586814347
 11
105.775755489046
 20
-7.83182083990084
 21
-6.07085698447912
 62
7
  0
LINE
  6
BYLAYER
  8
0
 10
105.775755489046
 11
104.00973139266
 20
-6.07085698447912
 21
-5.34302565917795
 62
7
  0
LINE
  6
BYLAYER
  8
0
 10
104.00973139266
 11
102.252141031214
 20
-5.34302565917795
 21
-6.07085698447912
 62
7
  0
LINE
  6
BYLAYER
  8
0
 10
102.252141031214
 11
101.520092838443
 20
-6.07085698447912
 21
-7.83182083990084
 62
7
  0
LINE
  6
BYLAYER
  8
0
 10
101.520092838443
 11
102.252141031214
 20
-7.83182083990084
 21
-9.59362806881649
 62
7
  0
LINE
  6
BYLAYER
  8
0
 10
102.252141031214
 11
104.00973139266
 20
-9.59362806881649
 21
-10.3214593941178
 62
7
  0
LINE
  6
BYLAYER
  8
0
 10
104.00973139266
 11
105.775755489046
 20
-10.3214593941178
 21
-9.59362806881649
 62
7
  0
LINE
  6
BYLAYER
  8
0
 10
105.775755489046
 11
105.775755489046
 20
-9.59362806881649
 21
-9.59362806881649
 62
7
  0
LINE
  6
BYLAYER
  8
0
 10
104.00973139266
 11
105.369249464949
 20
-11.324230478455
 21
-11.0442304784552
 62
7
  0
LINE
  6
BYLAYER
  8
0
 10
105.369249464949
 11
106.47659886254
 20
-11.0442304784552
 21
-10.2986883097805
 62
7
  0
LINE
  6
BYLAYER
  8
0
 10
106.47659886254
 11
107.22551452519
 20
-10.2986883097805
 21
-9.18627867122615
 62
7
  0
LINE
  6
BYLAYER
  8
0
 10
107.22551452519
 11
107.50129765772
 20
-9.18627867122615
 21
-7.83182083990084
 62
7
  0
LINE
  6
BYLAYER
  8
0
 10
107.50129765772
 11
106.47659886254
 20
-7.83182083990084
 21
-5.36664011700924
 62
7
  0
LINE
  6
BYLAYER
  8
0
 10
106.47659886254
 11
104.00973139266
 20
-5.36664011700924
 21
-4.34615818929848
 62
7
  0
LINE
  6
BYLAYER
  8
0
 10
104.00973139266
 11
102.650213320371
 20
-4.34615818929848
 21
-4.61519433387673
 62
7
  0
LINE
  6
BYLAYER
  8
0
 10
102.650213320371
 11
101.543707296275
 20
-4.61519433387673
 21
-5.36664011700924
 62
7
  0
LINE
  6
BYLAYER
  8
0
 10
101.543707296275
 11
100.797321754106
 20
-5.36664011700924
 21
-6.47314614110564
 62
7
  0
LINE
  6
BYLAYER
  8
0
 10
100.797321754106
 11
100.523225368564
 20
-6.47314614110564
 21
-7.83182083990084
 62
7
  0
LINE
  6
BYLAYER
  8
0
 10
100.523225368564
 11
100.797321754106
 20
-7.83182083990084
 21
-9.18627867122615
 62
7
  0
LINE
  6
BYLAYER
  8
0
 10
100.797321754106
 11
101.543707296275
 20
-9.18627867122615
 21
-10.2986883097805
 62
7
  0
LINE
  6
BYLAYER
  8
0
 10
101.543707296275
 11
102.650213320371
 20
-10.2986883097805
 21
-11.0442304784552
 62
7
  0
LINE
  6
BYLAYER
  8
0
 10
102.650213320371
 11
104.00973139266
 20
-11.0442304784552
 21
-11.324230478455
 62
7
  0
LINE
  6
BYLAYER
  8
0
 10
104.00973139266
 11
104.00973139266
 20
-11.324230478455
 21
-11.324230478455
 62
7
  0
LINE
  6
BYLAYER
  8
0
 10
-19.9522565591471
 11
-19.3802806555327
 20
80.586612895039
 21
81.1626369914245
 62
7
  0
LINE
  6
BYLAYER
  8
0
 10
-19.3802806555327
 11
-18.3690758362555
 20
81.1626369914245
 21
80.1843237384123
 62
7
  0
LINE
  6
BYLAYER
  8
0
 10
-18.3690758362555
 11
-17.3762565591471
 20
80.1843237384123
 21
81.1499863890147
 62
7
  0
LINE
  6
BYLAYER
  8
0
 10
-17.3762565591471
 11
-16.7538469205929
 20
81.1499863890147
 21
80.5267333769666
 62
7
  0
LINE
  6
BYLAYER
  8
0
 10
-16.7538469205929
 11
-17.7468348724001
 20
80.5267333769666
 21
79.5610707263641
 62
7
  0
LINE
  6
BYLAYER
  8
0
 10
-17.7468348724001
 11
-16.7996421013158
 20
79.5610707263641
 21
78.6148056661231
 62
7
  0
LINE
  6
BYLAYER
  8
0
 10
-16.7996421013158
 11
-17.3762565591471
 20
78.6148056661231
 21
78.0421550637135
 62
7
  0
LINE
  6
BYLAYER
  8
0
 10
-17.3762565591471
 11
-18.3233649928821
 20
78.0421550637135
 21
78.9892634974485
 62
7
  0
LINE
  6
BYLAYER
  8
0
 10
-18.3233649928821
 11
-19.2842204145688
 20
78.9892634974485
 21
77.991552654075
 62
7
  0
LINE
  6
BYLAYER
  8
0
 10
-19.2842204145688
 11
-19.9064613784242
 20
77.991552654075
 21
78.6148056661231
 62
7
  0
LINE
  6
BYLAYER
  8
0
 10
-19.9064613784242
 11
-18.9456059567374
 20
78.6148056661231
 21
79.6066128950389
 62
7
  0
LINE
  6
BYLAYER
  8
0
 10
-18.9456059567374
 11
-19.9522565591471
 20
79.6066128950389
 21
80.586612895039
 62
7
  0
LINE
  6
BYLAYER
  8
0
 10
-19.9522565591471
 11
-19.9522565591471
 20
80.586612895039
 21
80.586612895039
 62
7
  0
LINE
  6
BYLAYER
  8
0
 10
-16.575473426617
 11
-15.8479794507134
 20
77.8321550637135
 21
79.599022533593
 62
7
  0
LINE
  6
BYLAYER
  8
0
 10
-15.8479794507134
 11
-16.575473426617
 20
79.599022533593
 21
81.3557695215448
 62
7
  0
LINE
  6
BYLAYER
  8
0
 10
-16.575473426617
 11
-18.3416661977013
 20
81.3557695215448
 21
82.0878177143161
 62
7
  0
LINE
  6
BYLAYER
  8
0
 10
-18.3416661977013
 11
-20.0986661977013
 20
82.0878177143161
 21
81.3557695215448
 62
7
  0
LINE
  6
BYLAYER
  8
0
 10
-20.0986661977013
 11
-20.8307987278218
 20
81.3557695215448
 21
79.599022533593
 62
7
  0
LINE
  6
BYLAYER
  8
0
 10
-20.8307987278218
 11
-20.0986661977013
 20
79.599022533593
 21
77.8321550637135
 62
7
  0
LINE
  6
BYLAYER
  8
0
 10
-20.0986661977013
 11
-18.3416661977013
 20
77.8321550637135
 21
77.1051671119063
 62
7
  0
LINE
  6
BYLAYER
  8
0
 10
-18.3416661977013
 11
-16.575473426617
 20
77.1051671119063
 21
77.8321550637135
 62
7
  0
LINE
  6
BYLAYER
  8
0
 10
-16.575473426617
 11
-16.575473426617
 20
77.8321550637135
 21
77.8321550637135
 62
7
  0
LINE
  6
BYLAYER
  8
0
 10
-18.3371119808339
 11
-15.8753890892676
 20
76.1066128950389
 21
77.1321550637136
 62
7
  0
LINE
  6
BYLAYER
  8
0
 10
-15.8753890892676
 11
-14.8504372820387
 20
77.1321550637136
 21
79.5939622926292
 62
7
  0
LINE
  6
BYLAYER
  8
0
 10
-14.8504372820387
 11
-15.8753890892676
 20
79.5939622926292
 21
82.0599863890147
 62
7
  0
LINE
  6
BYLAYER
  8
0
 10
-15.8753890892676
 11
-18.3371119808339
 20
82.0599863890147
 21
83.0796249432318
 62
7
  0
LINE
  6
BYLAYER
  8
0
 10
-18.3371119808339
 11
-19.6959553543278
 20
83.0796249432318
 21
82.8105887986535
 62
7
  0
LINE
  6
BYLAYER
  8
0
 10
-19.6959553543278
 11
-20.8077746314363
 20
82.8105887986535
 21
82.0599863890147
 62
7
  0
LINE
  6
BYLAYER
  8
0
 10
-20.8077746314363
 11
-21.5537384868579
 20
82.0599863890147
 21
80.9526369914243
 62
7
  0
LINE
  6
BYLAYER
  8
0
 10
-21.5537384868579
 11
-21.8281722217977
 20
80.9526369914243
 21
79.5939622926292
 62
7
  0
LINE
  6
BYLAYER
  8
0
 10
-21.8281722217977
 11
-21.5537384868579
 20
79.5939622926292
 21
78.23866108781
 62
7
  0
LINE
  6
BYLAYER
  8
0
 10
-21.5537384868579
 11
-20.8077746314363
 20
78.23866108781
 21
77.1321550637136
 62
7
  0
LINE
  6
BYLAYER
  8
0
 10
-20.8077746314363
 11
-19.6959553543278
 20
77.1321550637136
 21
76.380709280581
 62
7
  0
LINE
  6
BYLAYER
  8
0
 10
-19.6959553543278
 11
-18.3371119808339
 20
76.380709280581
 21
76.1066128950389
 62
7
  0
LINE
  6
BYLAYER
  8
0
 10
-18.3371119808339
 11
-18.3371119808339
 20
76.1066128950389
 21
76.1066128950389
 62
7
  0
LINE
  6
BYLAYER
  8
0
 10
27.8758759709733
 11
27.8758759709733
 20
-17.6613389121901
 21
-18.854712406166
 62
7
  0
LINE
  6
BYLAYER
  8
0
 10
27.8758759709733
 11
40.8849121155517
 20
-18.854712406166
 21
-18.854712406166
 62
7
  0
LINE
  6
BYLAYER
  8
0
 10
40.8849121155517
 11
40.8849121155517
 20
-18.854712406166
 21
-17.6739895145996
 62
7
  0
LINE
  6
BYLAYER
  8
0
 10
40.8849121155517
 11
27.8758759709733
 20
-17.6739895145996
 21
-17.6613389121901
 62
7
  0
LINE
  6
BYLAYER
  8
0
 10
27.8758759709733
 11
27.8758759709733
 20
-17.6613389121901
 21
-17.6613389121901
 62
7
  0
LINE
  6
BYLAYER
  8
0
 10
27.8758759709733
 11
27.8758759709733
 20
-17.6613389121901
 21
-18.854712406166
 62
7
  0
LINE
  6
BYLAYER
  8
0
 10
27.8758759709733
 11
40.8849121155517
 20
-18.854712406166
 21
-18.854712406166
 62
7
  0
LINE
  6
BYLAYER
  8
0
 10
40.8849121155517
 11
40.8849121155517
 20
-18.854712406166
 21
-17.6739895145996
 62
7
  0
LINE
  6
BYLAYER
  8
0
 10
40.8849121155517
 11
27.8758759709733
 20
-17.6739895145996
 21
-17.6613389121901
 62
7
  0
LINE
  6
BYLAYER
  8
0
 10
27.8758759709733
 11
27.8758759709733
 20
-17.6613389121901
 21
-17.6613389121901
 62
7
  0
LINE
  6
BYLAYER
  8
0
 10
-12.946943306135
 11
98.6011771757926
 20
87.7982996420269
 21
87.7982996420269
 62
7
  0
LINE
  6
BYLAYER
  8
0
 10
-12.946943306135
 11
98.6011771757926
 20
-16.0226642133949
 21
-16.0226642133949
 62
7
  0
LINE
  6
BYLAYER
  8
0
 10
-20.0711722217977
 11
-19.4947264386652
 20
-6.82567626158772
 21
-6.24965216520201
 62
7
  0
LINE
  6
BYLAYER
  8
0
 10
-19.4947264386652
 11
-18.4880758362555
 20
-6.24965216520201
 21
-7.22796541821418
 62
7
  0
LINE
  6
BYLAYER
  8
0
 10
-18.4880758362555
 11
-17.4905336675808
 20
-7.22796541821418
 21
-6.26230276761174
 62
7
  0
LINE
  6
BYLAYER
  8
0
 10
-17.4905336675808
 11
-16.8682927037254
 20
-6.26230276761174
 21
-6.88555577965997
 62
7
  0
LINE
  6
BYLAYER
  8
0
 10
-16.8682927037254
 11
-17.8657505350507
 20
-6.88555577965997
 21
-7.85121843026235
 62
7
  0
LINE
  6
BYLAYER
  8
0
 10
-17.8657505350507
 11
-16.9185577639664
 20
-7.85121843026235
 21
-8.79748349050323
 62
7
  0
LINE
  6
BYLAYER
  8
0
 10
-16.9185577639664
 11
-17.4905336675808
 20
-8.79748349050323
 21
-9.37013409291285
 62
7
  0
LINE
  6
BYLAYER
  8
0
 10
-17.4905336675808
 11
-18.4422806555326
 20
-9.37013409291285
 21
-8.42218228568396
 62
7
  0
LINE
  6
BYLAYER
  8
0
 10
-18.4422806555326
 11
-19.4031360772194
 20
-8.42218228568396
 21
-9.42073650255145
 62
7
  0
LINE
  6
BYLAYER
  8
0
 10
-19.4031360772194
 11
-20.0254613784242
 20
-9.42073650255145
 21
-8.79748349050323
 62
7
  0
LINE
  6
BYLAYER
  8
0
 10
-20.0254613784242
 11
-19.06005173987
 20
-8.79748349050323
 21
-7.80061602062369
 62
7
  0
LINE
  6
BYLAYER
  8
0
 10
-19.06005173987
 11
-20.0711722217977
 20
-7.80061602062369
 21
-6.82567626158772
 62
7
  0
LINE
  6
BYLAYER
  8
0
 10
-20.0711722217977
 11
-20.0711722217977
 20
-6.82567626158772
 21
-6.82567626158772
 62
7
  0
LINE
  6
BYLAYER
  8
0
 10
-16.6943890892676
 11
-15.9668107760146
 20
-9.580134092913
 21
-7.81832686399719
 62
7
  0
LINE
  6
BYLAYER
  8
0
 10
-15.9668107760146
 11
-16.6943890892676
 20
-7.81832686399719
 21
-6.05651963508166
 62
7
  0
LINE
  6
BYLAYER
  8
0
 10
-16.6943890892676
 11
-18.455943306135
 20
-6.05651963508166
 21
-5.32447144231054
 62
7
  0
LINE
  6
BYLAYER
  8
0
 10
-18.455943306135
 11
-20.2175818603519
 20
-5.32447144231054
 21
-6.05651963508166
 62
7
  0
LINE
  6
BYLAYER
  8
0
 10
-20.2175818603519
 11
-20.9450758362555
 20
-6.05651963508166
 21
-7.81832686399719
 62
7
  0
LINE
  6
BYLAYER
  8
0
 10
-20.9450758362555
 11
-20.2175818603519
 20
-7.81832686399719
 21
-9.580134092913
 62
7
  0
LINE
  6
BYLAYER
  8
0
 10
-20.2175818603519
 11
-18.455943306135
 20
-9.580134092913
 21
-10.3071220447201
 62
7
  0
LINE
  6
BYLAYER
  8
0
 10
-18.455943306135
 11
-16.6943890892676
 20
-10.3071220447201
 21
-9.580134092913
 62
7
  0
LINE
  6
BYLAYER
  8
0
 10
-16.6943890892676
 11
-16.6943890892676
 20
-9.580134092913
 21
-9.580134092913
 62
7
  0
LINE
  6
BYLAYER
  8
0
 10
-18.455943306135
 11
-15.9943890892676
 20
-11.3048328880936
 21
-10.280134092913
 62
7
  0
LINE
  6
BYLAYER
  8
0
 10
-15.9943890892676
 11
-14.9694372820387
 20
-10.280134092913
 21
-7.81832686399719
 62
7
  0
LINE
  6
BYLAYER
  8
0
 10
-14.9694372820387
 11
-15.9943890892676
 20
-7.81832686399719
 21
-5.35230276761177
 62
7
  0
LINE
  6
BYLAYER
  8
0
 10
-15.9943890892676
 11
-18.455943306135
 20
-5.35230276761177
 21
-4.33182083990084
 62
7
  0
LINE
  6
BYLAYER
  8
0
 10
-18.455943306135
 11
-20.9222204145688
 20
-4.33182083990084
 21
-5.35230276761177
 62
7
  0
LINE
  6
BYLAYER
  8
0
 10
-20.9222204145688
 11
-21.9426180049302
 20
-5.35230276761177
 21
-7.81832686399719
 62
7
  0
LINE
  6
BYLAYER
  8
0
 10
-21.9426180049302
 11
-20.9222204145688
 20
-7.81832686399719
 21
-10.280134092913
 62
7
  0
LINE
  6
BYLAYER
  8
0
 10
-20.9222204145688
 11
-18.455943306135
 20
-10.280134092913
 21
-11.3048328880936
 62
7
  0
LINE
  6
BYLAYER
  8
0
 10
-18.455943306135
 11
-18.455943306135
 20
-11.3048328880936
 21
-11.3048328880936
 62
7
  0
LINE
  6
BYLAYER
  8
0
 10
102.527924163744
 11
103.098888019166
 20
80.581552654075
 21
81.1592634974486
 62
7
  0
LINE
  6
BYLAYER
  8
0
 10
103.098888019166
 11
104.110092838443
 20
81.1592634974486
 21
80.1801068709425
 62
7
  0
LINE
  6
BYLAYER
  8
0
 10
104.110092838443
 11
105.103586814347
 20
80.1801068709425
 21
81.144926148051
 62
7
  0
LINE
  6
BYLAYER
  8
0
 10
105.103586814347
 11
105.725153079407
 20
81.144926148051
 21
80.5225165094966
 62
7
  0
LINE
  6
BYLAYER
  8
0
 10
105.725153079407
 11
104.733345850491
 20
80.5225165094966
 21
79.5568538588943
 62
7
  0
LINE
  6
BYLAYER
  8
0
 10
104.733345850491
 11
105.679610910732
 20
79.5568538588943
 21
78.6097454251594
 62
7
  0
LINE
  6
BYLAYER
  8
0
 10
105.679610910732
 11
105.103586814347
 20
78.6097454251594
 21
78.0370948227497
 62
7
  0
LINE
  6
BYLAYER
  8
0
 10
105.103586814347
 11
104.155635007118
 20
78.0370948227497
 21
78.9850466299785
 62
7
  0
LINE
  6
BYLAYER
  8
0
 10
104.155635007118
 11
103.19081573001
 20
78.9850466299785
 21
77.991552654075
 62
7
  0
LINE
  6
BYLAYER
  8
0
 10
103.19081573001
 11
102.573466332419
 20
77.991552654075
 21
78.6097454251594
 62
7
  0
LINE
  6
BYLAYER
  8
0
 10
102.573466332419
 11
103.534068742058
 20
78.6097454251594
 21
79.6023960275689
 62
7
  0
LINE
  6
BYLAYER
  8
0
 10
103.534068742058
 11
102.527924163744
 20
79.6023960275689
 21
80.581552654075
 62
7
  0
LINE
  6
BYLAYER
  8
0
 10
102.527924163744
 11
102.527924163744
 20
80.581552654075
 21
80.581552654075
 62
7
  0
LINE
  6
BYLAYER
  8
0
 10
105.904791633624
 11
106.631779585431
 20
77.8279381962436
 21
79.5897454251594
 62
7
  0
LINE
  6
BYLAYER
  8
0
 10
106.631779585431
 11
105.904791633624
 20
79.5897454251594
 21
81.3507092805811
 62
7
  0
LINE
  6
BYLAYER
  8
0
 10
105.904791633624
 11
104.137924163744
 20
81.3507092805811
 21
82.0827574733521
 62
7
  0
LINE
  6
BYLAYER
  8
0
 10
104.137924163744
 11
102.381177175793
 20
82.0827574733521
 21
81.3507092805811
 62
7
  0
LINE
  6
BYLAYER
  8
0
 10
102.381177175793
 11
101.649128983021
 20
81.3507092805811
 21
79.5897454251594
 62
7
  0
LINE
  6
BYLAYER
  8
0
 10
101.649128983021
 11
102.381177175793
 20
79.5897454251594
 21
77.8279381962436
 62
7
  0
LINE
  6
BYLAYER
  8
0
 10
102.381177175793
 11
104.137924163744
 20
77.8279381962436
 21
77.1001068709425
 62
7
  0
LINE
  6
BYLAYER
  8
0
 10
104.137924163744
 11
105.904791633624
 20
77.1001068709425
 21
77.8279381962436
 62
7
  0
LINE
  6
BYLAYER
  8
0
 10
105.904791633624
 11
105.904791633624
 20
77.8279381962436
 21
77.8279381962436
 62
7
  0
LINE
  6
BYLAYER
  8
0
 10
104.142984404708
 11
105.49659886254
 20
76.1023960275689
 21
76.3773357866051
 62
7
  0
LINE
  6
BYLAYER
  8
0
 10
105.49659886254
 11
106.60394826013
 20
76.3773357866051
 21
77.1270948227496
 62
7
  0
LINE
  6
BYLAYER
  8
0
 10
106.60394826013
 11
107.354550669768
 20
77.1270948227496
 21
78.2344442203401
 62
7
  0
LINE
  6
BYLAYER
  8
0
 10
107.354550669768
 11
107.628647055311
 20
78.2344442203401
 21
79.5897454251594
 62
7
  0
LINE
  6
BYLAYER
  8
0
 10
107.628647055311
 11
107.354550669768
 20
79.5897454251594
 21
80.9484201239545
 62
7
  0
LINE
  6
BYLAYER
  8
0
 10
107.354550669768
 11
106.60394826013
 20
80.9484201239545
 21
82.054926148051
 62
7
  0
LINE
  6
BYLAYER
  8
0
 10
106.60394826013
 11
105.49659886254
 20
82.054926148051
 21
82.8055285576895
 62
7
  0
LINE
  6
BYLAYER
  8
0
 10
105.49659886254
 11
104.142984404708
 20
82.8055285576895
 21
83.0754080757618
 62
7
  0
LINE
  6
BYLAYER
  8
0
 10
104.142984404708
 11
102.782622958925
 20
83.0754080757618
 21
82.8055285576895
 62
7
  0
LINE
  6
BYLAYER
  8
0
 10
102.782622958925
 11
101.671056693865
 20
82.8055285576895
 21
82.054926148051
 62
7
  0
LINE
  6
BYLAYER
  8
0
 10
101.671056693865
 11
100.926357898684
 20
82.054926148051
 21
80.9484201239545
 62
7
  0
LINE
  6
BYLAYER
  8
0
 10
100.926357898684
 11
100.651418139648
 20
80.9484201239545
 21
79.5897454251594
 62
7
  0
LINE
  6
BYLAYER
  8
0
 10
100.651418139648
 11
100.926357898684
 20
79.5897454251594
 21
78.2344442203401
 62
7
  0
LINE
  6
BYLAYER
  8
0
 10
100.926357898684
 11
101.671056693865
 20
78.2344442203401
 21
77.1270948227496
 62
7
  0
LINE
  6
BYLAYER
  8
0
 10
101.671056693865
 11
102.782622958925
 20
77.1270948227496
 21
76.3773357866051
 62
7
  0
LINE
  6
BYLAYER
  8
0
 10
102.782622958925
 11
104.142984404708
 20
76.3773357866051
 21
76.1023960275689
 62
7
  0
LINE
  6
BYLAYER
  8
0
 10
104.142984404708
 11
104.142984404708
 20
76.1023960275689
 21
76.1023960275689
 62
7
  0
LINE
  6
BYLAYER
  8
0
 10
-12.9378348724001
 11
-12.946943306135
 20
89.5820345817859
 21
77.8372153046774
 62
7
  0
LINE
  6
BYLAYER
  8
0
 10
-12.946943306135
 11
98.6062374167565
 20
77.8372153046774
 21
77.7992634974486
 62
7
  0
LINE
  6
BYLAYER
  8
0
 10
98.6062374167565
 11
98.6062374167565
 20
77.7992634974486
 21
89.5314321721473
 62
7
  0
LINE
  6
BYLAYER
  8
0
 10
-12.9378348724001
 11
-12.9378348724001
 20
-17.9759172254431
 21
-6.37700156279249
 62
7
  0
LINE
  6
BYLAYER
  8
0
 10
-12.9378348724001
 11
98.6011771757926
 20
-6.37700156279249
 21
-6.29519433387685
 62
7
  0
LINE
  6
BYLAYER
  8
0
 10
98.6011771757926
 11
98.6011771757926
 20
-6.29519433387685
 21
-17.770134092913
 62
7
  0
LINE
  6
BYLAYER
  8
0
 10
14.4012976577204
 11
16.4237072962745
 20
-1.14218228568399
 21
-1.14218228568399
 62
7
  0
LINE
  6
BYLAYER
  8
0
 10
14.4375627179613
 11
14.4375627179613
 20
-2.99085698447914
 21
2.87480566612317
 62
7
  0
LINE
  6
BYLAYER
  8
0
 10
14.4375627179613
 11
14.731056693865
 20
2.87480566612317
 21
3.57902253359305
 62
7
  0
LINE
  6
BYLAYER
  8
0
 10
14.731056693865
 11
15.4352735613348
 20
3.57902253359305
 21
3.87167313600281
 62
7
  0
LINE
  6
BYLAYER
  8
0
 10
15.4352735613348
 11
15.4352735613348
 20
3.87167313600281
 21
3.87167313600281
 62
7
  0
LINE
  6
BYLAYER
  8
0
 10
15.4352735613348
 11
16.1403338022986
 20
3.87167313600281
 21
3.57902253359305
 62
7
  0
LINE
  6
BYLAYER
  8
0
 10
16.1403338022986
 11
16.4329844047083
 20
3.57902253359305
 21
2.87480566612317
 62
7
  0
LINE
  6
BYLAYER
  8
0
 10
16.4329844047083
 11
16.4329844047083
 20
2.87480566612317
 21
-3.03218228568397
 62
7
  0
LINE
  6
BYLAYER
  8
0
 10
19.3662374167564
 11
21.3878036818168
 20
-1.14218228568399
 21
-1.14218228568399
 62
7
  0
LINE
  6
BYLAYER
  8
0
 10
19.4025024769974
 11
19.4025024769974
 20
-2.99085698447914
 21
2.87480566612317
 62
7
  0
LINE
  6
BYLAYER
  8
0
 10
19.4025024769974
 11
19.695153079407
 20
2.87480566612317
 21
3.57902253359305
 62
7
  0
LINE
  6
BYLAYER
  8
0
 10
19.695153079407
 11
20.3993699468769
 20
3.57902253359305
 21
3.87167313600281
 62
7
  0
LINE
  6
BYLAYER
  8
0
 10
20.3993699468769
 11
20.3993699468769
 20
3.87167313600281
 21
3.87167313600281
 62
7
  0
LINE
  6
BYLAYER
  8
0
 10
20.3993699468769
 11
21.1044301878408
 20
3.87167313600281
 21
3.57902253359305
 62
7
  0
LINE
  6
BYLAYER
  8
0
 10
21.1044301878408
 11
21.3970807902505
 20
3.57902253359305
 21
2.87480566612317
 62
7
  0
LINE
  6
BYLAYER
  8
0
 10
21.3970807902505
 11
21.3970807902505
 20
2.87480566612317
 21
-3.03218228568397
 62
7
  0
LINE
  6
BYLAYER
  8
0
 10
24.3303338022986
 11
26.3519000673589
 20
-1.14218228568399
 21
-1.14218228568399
 62
7
  0
LINE
  6
BYLAYER
  8
0
 10
24.3665988625397
 11
24.3665988625397
 20
-2.99085698447914
 21
2.87480566612317
 62
7
  0
LINE
  6
BYLAYER
  8
0
 10
24.3665988625397
 11
24.6592494649492
 20
2.87480566612317
 21
3.57902253359305
 62
7
  0
LINE
  6
BYLAYER
  8
0
 10
24.6592494649492
 11
25.365153079407
 20
3.57902253359305
 21
3.87167313600281
 62
7
  0
LINE
  6
BYLAYER
  8
0
 10
25.365153079407
 11
25.365153079407
 20
3.87167313600281
 21
3.87167313600281
 62
7
  0
LINE
  6
BYLAYER
  8
0
 10
25.365153079407
 11
26.068526573383
 20
3.87167313600281
 21
3.57902253359305
 62
7
  0
LINE
  6
BYLAYER
  8
0
 10
26.068526573383
 11
26.3611771757927
 20
3.57902253359305
 21
2.87480566612317
 62
7
  0
LINE
  6
BYLAYER
  8
0
 10
26.3611771757927
 11
26.3611771757927
 20
2.87480566612317
 21
-3.03218228568397
 62
7
  0
LINE
  6
BYLAYER
  8
0
 10
29.2944301878409
 11
31.317683199889
 20
-1.14218228568399
 21
-1.14218228568399
 62
7
  0
LINE
  6
BYLAYER
  8
0
 10
29.3306952480818
 11
29.3306952480818
 20
-2.99085698447914
 21
2.87480566612317
 62
7
  0
LINE
  6
BYLAYER
  8
0
 10
29.3306952480818
 11
29.6241892239854
 20
2.87480566612317
 21
3.57902253359305
 62
7
  0
LINE
  6
BYLAYER
  8
0
 10
29.6241892239854
 11
30.3292494649493
 20
3.57902253359305
 21
3.87167313600281
 62
7
  0
LINE
  6
BYLAYER
  8
0
 10
30.3292494649493
 11
30.3292494649493
 20
3.87167313600281
 21
3.87167313600281
 62
7
  0
LINE
  6
BYLAYER
  8
0
 10
30.3292494649493
 11
31.0343097059131
 20
3.87167313600281
 21
3.57902253359305
 62
7
  0
LINE
  6
BYLAYER
  8
0
 10
31.0343097059131
 11
31.3269603083228
 20
3.57902253359305
 21
2.87480566612317
 62
7
  0
LINE
  6
BYLAYER
  8
0
 10
31.3269603083228
 11
31.3269603083228
 20
2.87480566612317
 21
-3.03218228568397
 62
7
  0
LINE
  6
BYLAYER
  8
0
 10
34.3057554890457
 11
36.3273217541058
 20
-1.14218228568399
 21
-1.14218228568399
 62
7
  0
LINE
  6
BYLAYER
  8
0
 10
34.3420205492866
 11
34.3420205492866
 20
-2.99085698447914
 21
2.87480566612317
 62
7
  0
LINE
  6
BYLAYER
  8
0
 10
34.3420205492866
 11
34.6346711516963
 20
2.87480566612317
 21
3.57902253359305
 62
7
  0
LINE
  6
BYLAYER
  8
0
 10
34.6346711516963
 11
35.3388880191661
 20
3.57902253359305
 21
3.87167313600281
 62
7
  0
LINE
  6
BYLAYER
  8
0
 10
35.3388880191661
 11
35.3388880191661
 20
3.87167313600281
 21
3.87167313600281
 62
7
  0
LINE
  6
BYLAYER
  8
0
 10
35.3388880191661
 11
36.0439482601299
 20
3.87167313600281
 21
3.57902253359305
 62
7
  0
LINE
  6
BYLAYER
  8
0
 10
36.0439482601299
 11
36.3365988625395
 20
3.57902253359305
 21
2.87480566612317
 62
7
  0
LINE
  6
BYLAYER
  8
0
 10
36.3365988625395
 11
36.3365988625395
 20
2.87480566612317
 21
-3.03218228568397
 62
7
  0
LINE
  6
BYLAYER
  8
0
 10
39.3153940432625
 11
41.3369603083228
 20
-1.16579674351527
 21
-1.16579674351527
 62
7
  0
LINE
  6
BYLAYER
  8
0
 10
39.3516591035034
 11
39.3516591035034
 20
-3.01447144231042
 21
2.84697434082199
 62
7
  0
LINE
  6
BYLAYER
  8
0
 10
39.3516591035034
 11
39.645153079407
 20
2.84697434082199
 21
3.55709482274978
 62
7
  0
LINE
  6
BYLAYER
  8
0
 10
39.645153079407
 11
40.350213320371
 20
3.55709482274978
 21
3.84468518419544
 62
7
  0
LINE
  6
BYLAYER
  8
0
 10
40.350213320371
 11
40.350213320371
 20
3.84468518419544
 21
3.84468518419544
 62
7
  0
LINE
  6
BYLAYER
  8
0
 10
40.350213320371
 11
41.0493699468769
 20
3.84468518419544
 21
3.55709482274978
 62
7
  0
LINE
  6
BYLAYER
  8
0
 10
41.0493699468769
 11
41.3420205492866
 20
3.55709482274978
 21
2.84697434082199
 62
7
  0
LINE
  6
BYLAYER
  8
0
 10
41.3420205492866
 11
41.3420205492866
 20
2.84697434082199
 21
-3.05495337002134
 62
7
  0
LINE
  6
BYLAYER
  8
0
 10
44.2390085010938
 11
46.2572012721781
 20
-1.16579674351527
 21
-1.16579674351527
 62
7
  0
LINE
  6
BYLAYER
  8
0
 10
44.270213320371
 11
44.270213320371
 20
-3.01447144231042
 21
2.84697434082199
 62
7
  0
LINE
  6
BYLAYER
  8
0
 10
44.270213320371
 11
44.5628639227806
 20
2.84697434082199
 21
3.55709482274978
 62
7
  0
LINE
  6
BYLAYER
  8
0
 10
44.5628639227806
 11
45.2687675372383
 20
3.55709482274978
 21
3.84468518419544
 62
7
  0
LINE
  6
BYLAYER
  8
0
 10
45.2687675372383
 11
45.2687675372383
 20
3.84468518419544
 21
3.84468518419544
 62
7
  0
LINE
  6
BYLAYER
  8
0
 10
45.2687675372383
 11
45.9721410312143
 20
3.84468518419544
 21
3.55709482274978
 62
7
  0
LINE
  6
BYLAYER
  8
0
 10
45.9721410312143
 11
46.2656350071179
 20
3.55709482274978
 21
2.84697434082199
 62
7
  0
LINE
  6
BYLAYER
  8
0
 10
46.2656350071179
 11
46.2656350071179
 20
2.84697434082199
 21
-3.05495337002134
 62
7
  0
LINE
  6
BYLAYER
  8
0
 10
49.2031048866359
 11
51.2255145251902
 20
-1.16579674351527
 21
-1.16579674351527
 62
7
  0
LINE
  6
BYLAYER
  8
0
 10
49.240213320371
 11
49.240213320371
 20
-3.01447144231042
 21
2.84697434082199
 62
7
  0
LINE
  6
BYLAYER
  8
0
 10
49.240213320371
 11
49.5286470553107
 20
2.84697434082199
 21
3.55709482274978
 62
7
  0
LINE
  6
BYLAYER
  8
0
 10
49.5286470553107
 11
50.2328639227806
 20
3.55709482274978
 21
3.84468518419544
 62
7
  0
LINE
  6
BYLAYER
  8
0
 10
50.2328639227806
 11
50.2328639227806
 20
3.84468518419544
 21
3.84468518419544
 62
7
  0
LINE
  6
BYLAYER
  8
0
 10
50.2328639227806
 11
50.9379241637445
 20
3.84468518419544
 21
3.55709482274978
 62
7
  0
LINE
  6
BYLAYER
  8
0
 10
50.9379241637445
 11
51.2305747661541
 20
3.55709482274978
 21
2.84697434082199
 62
7
  0
LINE
  6
BYLAYER
  8
0
 10
51.2305747661541
 11
51.2305747661541
 20
2.84697434082199
 21
-3.05495337002134
 62
7
  0
LINE
  6
BYLAYER
  8
0
 10
54.2144301878407
 11
56.2309362119372
 20
-1.16579674351527
 21
-1.16579674351527
 62
7
  0
LINE
  6
BYLAYER
  8
0
 10
54.2506952480817
 11
54.2506952480817
 20
-3.01447144231042
 21
2.84697434082199
 62
7
  0
LINE
  6
BYLAYER
  8
0
 10
54.2506952480817
 11
54.5382856095276
 20
2.84697434082199
 21
3.55709482274978
 62
7
  0
LINE
  6
BYLAYER
  8
0
 10
54.5382856095276
 11
55.2433458504914
 20
3.55709482274978
 21
3.84468518419544
 62
7
  0
LINE
  6
BYLAYER
  8
0
 10
55.2433458504914
 11
55.2433458504914
 20
3.84468518419544
 21
3.84468518419544
 62
7
  0
LINE
  6
BYLAYER
  8
0
 10
55.2433458504914
 11
55.9475627179612
 20
3.84468518419544
 21
3.55709482274978
 62
7
  0
LINE
  6
BYLAYER
  8
0
 10
55.9475627179612
 11
56.240213320371
 20
3.55709482274978
 21
2.84697434082199
 62
7
  0
LINE
  6
BYLAYER
  8
0
 10
56.240213320371
 11
56.240213320371
 20
2.84697434082199
 21
-3.05495337002134
 62
7
  0
LINE
  6
BYLAYER
  8
0
 10
59.178526573383
 11
61.2000928384432
 20
-1.16579674351527
 21
-1.16579674351527
 62
7
  0
LINE
  6
BYLAYER
  8
0
 10
59.214791633624
 11
59.214791633624
 20
-3.01447144231042
 21
2.84697434082199
 62
7
  0
LINE
  6
BYLAYER
  8
0
 10
59.214791633624
 11
59.5023819950697
 20
2.84697434082199
 21
3.55709482274978
 62
7
  0
LINE
  6
BYLAYER
  8
0
 10
59.5023819950697
 11
60.2074422360336
 20
3.55709482274978
 21
3.84468518419544
 62
7
  0
LINE
  6
BYLAYER
  8
0
 10
60.2074422360336
 11
60.2074422360336
 20
3.84468518419544
 21
3.84468518419544
 62
7
  0
LINE
  6
BYLAYER
  8
0
 10
60.2074422360336
 11
60.9116591035034
 20
3.84468518419544
 21
3.55709482274978
 62
7
  0
LINE
  6
BYLAYER
  8
0
 10
60.9116591035034
 11
61.2043097059131
 20
3.55709482274978
 21
2.84697434082199
 62
7
  0
LINE
  6
BYLAYER
  8
0
 10
61.2043097059131
 11
61.2043097059131
 20
2.84697434082199
 21
-3.05495337002134
 62
7
  0
LINE
  6
BYLAYER
  8
0
 10
64.1653940432626
 11
66.1827434408528
 20
-1.12025457484066
 21
-1.12025457484066
 62
7
  0
LINE
  6
BYLAYER
  8
0
 10
64.2025024769974
 11
64.2025024769974
 20
-2.96386903267199
 21
2.89757675046047
 62
7
  0
LINE
  6
BYLAYER
  8
0
 10
64.2025024769974
 11
64.4900928384432
 20
2.89757675046047
 21
3.60263699142445
 62
7
  0
LINE
  6
BYLAYER
  8
0
 10
64.4900928384432
 11
65.195153079407
 20
3.60263699142445
 21
3.8952875938341
 62
7
  0
LINE
  6
BYLAYER
  8
0
 10
65.195153079407
 11
65.195153079407
 20
3.8952875938341
 21
3.8952875938341
 62
7
  0
LINE
  6
BYLAYER
  8
0
 10
65.195153079407
 11
65.8993699468769
 20
3.8952875938341
 21
3.60263699142445
 62
7
  0
LINE
  6
BYLAYER
  8
0
 10
65.8993699468769
 11
66.1920205492866
 20
3.60263699142445
 21
2.89757675046047
 62
7
  0
LINE
  6
BYLAYER
  8
0
 10
66.1920205492866
 11
66.1920205492866
 20
2.89757675046047
 21
-3.00941120134672
 62
7
  0
LINE
  6
BYLAYER
  8
0
 10
69.1708157300095
 11
71.1940687420576
 20
-1.12025457484066
 21
-1.12025457484066
 62
7
  0
LINE
  6
BYLAYER
  8
0
 10
69.2070807902505
 11
69.2070807902505
 20
-2.96386903267199
 21
2.89757675046047
 62
7
  0
LINE
  6
BYLAYER
  8
0
 10
69.2070807902505
 11
69.4997313926601
 20
2.89757675046047
 21
3.60263699142445
 62
7
  0
LINE
  6
BYLAYER
  8
0
 10
69.4997313926601
 11
70.2056350071179
 20
3.60263699142445
 21
3.8952875938341
 62
7
  0
LINE
  6
BYLAYER
  8
0
 10
70.2056350071179
 11
70.2056350071179
 20
3.8952875938341
 21
3.8952875938341
 62
7
  0
LINE
  6
BYLAYER
  8
0
 10
70.2056350071179
 11
70.9106952480818
 20
3.8952875938341
 21
3.60263699142445
 62
7
  0
LINE
  6
BYLAYER
  8
0
 10
70.9106952480818
 11
71.2033458504914
 20
3.60263699142445
 21
2.89757675046047
 62
7
  0
LINE
  6
BYLAYER
  8
0
 10
71.2033458504914
 11
71.2033458504914
 20
2.89757675046047
 21
-3.00941120134672
 62
7
  0
LINE
  6
BYLAYER
  8
0
 10
14.4653940432625
 11
16.4878036818168
 20
72.5745647022678
 21
72.5745647022678
 62
7
  0
LINE
  6
BYLAYER
  8
0
 10
14.5016591035035
 11
14.5016591035035
 20
74.4190225335931
 21
68.5575767504606
 62
7
  0
LINE
  6
BYLAYER
  8
0
 10
14.5016591035035
 11
14.7951530794071
 20
68.5575767504606
 21
67.8525165094968
 62
7
  0
LINE
  6
BYLAYER
  8
0
 10
14.7951530794071
 11
15.4993699468769
 20
67.8525165094968
 21
67.5598659070871
 62
7
  0
LINE
  6
BYLAYER
  8
0
 10
15.4993699468769
 11
15.4993699468769
 20
67.5598659070871
 21
67.5598659070871
 62
7
  0
LINE
  6
BYLAYER
  8
0
 10
15.4993699468769
 11
16.2044301878408
 20
67.5598659070871
 21
67.8525165094968
 62
7
  0
LINE
  6
BYLAYER
  8
0
 10
16.2044301878408
 11
16.4970807902505
 20
67.8525165094968
 21
68.5575767504606
 62
7
  0
LINE
  6
BYLAYER
  8
0
 10
16.4970807902505
 11
16.4970807902505
 20
68.5575767504606
 21
74.4645647022678
 62
7
  0
LINE
  6
BYLAYER
  8
0
 10
19.4345506697686
 11
21.4527434408529
 20
72.5745647022678
 21
72.5745647022678
 62
7
  0
LINE
  6
BYLAYER
  8
0
 10
19.4665988625397
 11
19.4665988625397
 20
74.4190225335931
 21
68.5575767504606
 62
7
  0
LINE
  6
BYLAYER
  8
0
 10
19.4665988625397
 11
19.7592494649492
 20
68.5575767504606
 21
67.8525165094968
 62
7
  0
LINE
  6
BYLAYER
  8
0
 10
19.7592494649492
 11
20.4634663324192
 20
67.8525165094968
 21
67.5598659070871
 62
7
  0
LINE
  6
BYLAYER
  8
0
 10
20.4634663324192
 11
20.4634663324192
 20
67.5598659070871
 21
67.5598659070871
 62
7
  0
LINE
  6
BYLAYER
  8
0
 10
20.4634663324192
 11
21.169369946877
 20
67.5598659070871
 21
67.8525165094968
 62
7
  0
LINE
  6
BYLAYER
  8
0
 10
21.169369946877
 11
21.4620205492866
 20
67.8525165094968
 21
68.5575767504606
 62
7
  0
LINE
  6
BYLAYER
  8
0
 10
21.4620205492866
 11
21.4620205492866
 20
68.5575767504606
 21
74.4645647022678
 62
7
  0
LINE
  6
BYLAYER
  8
0
 10
24.3994904288046
 11
26.416839826395
 20
72.5745647022678
 21
72.5745647022678
 62
7
  0
LINE
  6
BYLAYER
  8
0
 10
24.4357554890456
 11
24.4357554890456
 20
74.4190225335931
 21
68.5575767504606
 62
7
  0
LINE
  6
BYLAYER
  8
0
 10
24.4357554890456
 11
24.7241892239854
 20
68.5575767504606
 21
67.8525165094968
 62
7
  0
LINE
  6
BYLAYER
  8
0
 10
24.7241892239854
 11
25.4284060914552
 20
67.8525165094968
 21
67.5598659070871
 62
7
  0
LINE
  6
BYLAYER
  8
0
 10
25.4284060914552
 11
25.4284060914552
 20
67.5598659070871
 21
67.5598659070871
 62
7
  0
LINE
  6
BYLAYER
  8
0
 10
25.4284060914552
 11
26.1334663324191
 20
67.5598659070871
 21
67.8525165094968
 62
7
  0
LINE
  6
BYLAYER
  8
0
 10
26.1334663324191
 11
26.4261169348287
 20
67.8525165094968
 21
68.5575767504606
 62
7
  0
LINE
  6
BYLAYER
  8
0
 10
26.4261169348287
 11
26.4261169348287
 20
68.5575767504606
 21
74.4645647022678
 62
7
  0
LINE
  6
BYLAYER
  8
0
 10
29.3635868143469
 11
31.3851530794071
 20
72.5745647022678
 21
72.5745647022678
 62
7
  0
LINE
  6
BYLAYER
  8
0
 10
29.3998518745879
 11
29.3998518745879
 20
74.4190225335931
 21
68.5575767504606
 62
7
  0
LINE
  6
BYLAYER
  8
0
 10
29.3998518745879
 11
29.6882856095276
 20
68.5575767504606
 21
67.8525165094968
 62
7
  0
LINE
  6
BYLAYER
  8
0
 10
29.6882856095276
 11
30.3984060914552
 20
67.8525165094968
 21
67.5598659070871
 62
7
  0
LINE
  6
BYLAYER
  8
0
 10
30.3984060914552
 11
30.3984060914552
 20
67.5598659070871
 21
67.5598659070871
 62
7
  0
LINE
  6
BYLAYER
  8
0
 10
30.3984060914552
 11
31.0975627179612
 20
67.5598659070871
 21
67.8525165094968
 62
7
  0
LINE
  6
BYLAYER
  8
0
 10
31.0975627179612
 11
31.3902133203709
 20
67.8525165094968
 21
68.5575767504606
 62
7
  0
LINE
  6
BYLAYER
  8
0
 10
31.3902133203709
 11
31.3902133203709
 20
68.5575767504606
 21
74.4645647022678
 62
7
  0
LINE
  6
BYLAYER
  8
0
 10
34.3740687420576
 11
36.3964783806119
 20
72.5745647022678
 21
72.5745647022678
 62
7
  0
LINE
  6
BYLAYER
  8
0
 10
34.4103338022987
 11
34.4103338022987
 20
74.4190225335931
 21
68.5575767504606
 62
7
  0
LINE
  6
BYLAYER
  8
0
 10
34.4103338022987
 11
34.6979241637445
 20
68.5575767504606
 21
67.8525165094968
 62
7
  0
LINE
  6
BYLAYER
  8
0
 10
34.6979241637445
 11
35.4029844047082
 20
67.8525165094968
 21
67.5598659070871
 62
7
  0
LINE
  6
BYLAYER
  8
0
 10
35.4029844047082
 11
35.4029844047082
 20
67.5598659070871
 21
67.5598659070871
 62
7
  0
LINE
  6
BYLAYER
  8
0
 10
35.4029844047082
 11
36.1080446456722
 20
67.5598659070871
 21
67.8525165094968
 62
7
  0
LINE
  6
BYLAYER
  8
0
 10
36.1080446456722
 11
36.4015386215758
 20
67.8525165094968
 21
68.5575767504606
 62
7
  0
LINE
  6
BYLAYER
  8
0
 10
36.4015386215758
 11
36.4015386215758
 20
68.5575767504606
 21
74.4645647022678
 62
7
  0
LINE
  6
BYLAYER
  8
0
 10
39.3837072962745
 11
41.4019000673588
 20
72.5973357866052
 21
72.5973357866052
 62
7
  0
LINE
  6
BYLAYER
  8
0
 10
39.4165988625396
 11
39.4165988625396
 20
74.4460104854003
 21
68.5795044613039
 62
7
  0
LINE
  6
BYLAYER
  8
0
 10
39.4165988625396
 11
39.7092494649493
 20
68.5795044613039
 21
67.880347834798
 62
7
  0
LINE
  6
BYLAYER
  8
0
 10
39.7092494649493
 11
40.4134663324192
 20
67.880347834798
 21
67.5876972323883
 62
7
  0
LINE
  6
BYLAYER
  8
0
 10
40.4134663324192
 11
40.4134663324192
 20
67.5876972323883
 21
67.5876972323883
 62
7
  0
LINE
  6
BYLAYER
  8
0
 10
40.4134663324192
 11
41.118526573383
 20
67.5876972323883
 21
67.880347834798
 62
7
  0
LINE
  6
BYLAYER
  8
0
 10
41.118526573383
 11
41.4111771757927
 20
67.880347834798
 21
68.5795044613039
 62
7
  0
LINE
  6
BYLAYER
  8
0
 10
41.4111771757927
 11
41.4111771757927
 20
68.5795044613039
 21
74.4873357866051
 62
7
  0
LINE
  6
BYLAYER
  8
0
 10
44.303104886636
 11
46.3246711516962
 20
72.5973357866052
 21
72.5973357866052
 62
7
  0
LINE
  6
BYLAYER
  8
0
 10
44.339369946877
 11
44.339369946877
 20
74.4460104854003
 21
68.5795044613039
 62
7
  0
LINE
  6
BYLAYER
  8
0
 10
44.339369946877
 11
44.6320205492865
 20
68.5795044613039
 21
67.880347834798
 62
7
  0
LINE
  6
BYLAYER
  8
0
 10
44.6320205492865
 11
45.3379241637444
 20
67.880347834798
 21
67.5876972323883
 62
7
  0
LINE
  6
BYLAYER
  8
0
 10
45.3379241637444
 11
45.3379241637444
 20
67.5876972323883
 21
67.5876972323883
 62
7
  0
LINE
  6
BYLAYER
  8
0
 10
45.3379241637444
 11
46.0370807902505
 20
67.5876972323883
 21
67.880347834798
 62
7
  0
LINE
  6
BYLAYER
  8
0
 10
46.0370807902505
 11
46.3297313926601
 20
67.880347834798
 21
68.5795044613039
 62
7
  0
LINE
  6
BYLAYER
  8
0
 10
46.3297313926601
 11
46.3297313926601
 20
68.5795044613039
 21
74.4873357866051
 62
7
  0
LINE
  6
BYLAYER
  8
0
 10
49.2672012721782
 11
51.2904542842263
 20
72.5973357866052
 21
72.5973357866052
 62
7
  0
LINE
  6
BYLAYER
  8
0
 10
49.3034663324192
 11
49.3034663324192
 20
74.4460104854003
 21
68.5795044613039
 62
7
  0
LINE
  6
BYLAYER
  8
0
 10
49.3034663324192
 11
49.5961169348288
 20
68.5795044613039
 21
67.880347834798
 62
7
  0
LINE
  6
BYLAYER
  8
0
 10
49.5961169348288
 11
50.3020205492866
 20
67.880347834798
 21
67.5876972323883
 62
7
  0
LINE
  6
BYLAYER
  8
0
 10
50.3020205492866
 11
50.3020205492866
 20
67.5876972323883
 21
67.5876972323883
 62
7
  0
LINE
  6
BYLAYER
  8
0
 10
50.3020205492866
 11
51.0053940432624
 20
67.5876972323883
 21
67.880347834798
 62
7
  0
LINE
  6
BYLAYER
  8
0
 10
51.0053940432624
 11
51.2988880191661
 20
67.880347834798
 21
68.5795044613039
 62
7
  0
LINE
  6
BYLAYER
  8
0
 10
51.2988880191661
 11
51.2988880191661
 20
68.5795044613039
 21
74.4873357866051
 62
7
  0
LINE
  6
BYLAYER
  8
0
 10
54.2776831998889
 11
56.3000928384432
 20
72.5973357866052
 21
72.5973357866052
 62
7
  0
LINE
  6
BYLAYER
  8
0
 10
54.314791633624
 11
54.314791633624
 20
74.4460104854003
 21
68.5795044613039
 62
7
  0
LINE
  6
BYLAYER
  8
0
 10
54.314791633624
 11
54.6032253685638
 20
68.5795044613039
 21
67.880347834798
 62
7
  0
LINE
  6
BYLAYER
  8
0
 10
54.6032253685638
 11
55.3116591035035
 20
67.880347834798
 21
67.5876972323883
 62
7
  0
LINE
  6
BYLAYER
  8
0
 10
55.3116591035035
 11
55.3116591035035
 20
67.5876972323883
 21
67.5876972323883
 62
7
  0
LINE
  6
BYLAYER
  8
0
 10
55.3116591035035
 11
56.0167193444673
 20
67.5876972323883
 21
67.880347834798
 62
7
  0
LINE
  6
BYLAYER
  8
0
 10
56.0167193444673
 11
56.3093699468769
 20
67.880347834798
 21
68.5795044613039
 62
7
  0
LINE
  6
BYLAYER
  8
0
 10
56.3093699468769
 11
56.3093699468769
 20
68.5795044613039
 21
74.4873357866051
 62
7
  0
LINE
  6
BYLAYER
  8
0
 10
59.2426229589252
 11
61.2641892239854
 20
72.5973357866052
 21
72.5973357866052
 62
7
  0
LINE
  6
BYLAYER
  8
0
 10
59.2788880191661
 11
59.2788880191661
 20
74.4460104854003
 21
68.5795044613039
 62
7
  0
LINE
  6
BYLAYER
  8
0
 10
59.2788880191661
 11
59.5715386215758
 20
68.5795044613039
 21
67.880347834798
 62
7
  0
LINE
  6
BYLAYER
  8
0
 10
59.5715386215758
 11
60.2757554890456
 20
67.880347834798
 21
67.5876972323883
 62
7
  0
LINE
  6
BYLAYER
  8
0
 10
60.2757554890456
 11
60.2757554890456
 20
67.5876972323883
 21
67.5876972323883
 62
7
  0
LINE
  6
BYLAYER
  8
0
 10
60.2757554890456
 11
60.9808157300094
 20
67.5876972323883
 21
67.880347834798
 62
7
  0
LINE
  6
BYLAYER
  8
0
 10
60.9808157300094
 11
61.2734663324191
 20
67.880347834798
 21
68.5795044613039
 62
7
  0
LINE
  6
BYLAYER
  8
0
 10
61.2734663324191
 11
61.2734663324191
 20
68.5795044613039
 21
74.4873357866051
 62
7
  0
LINE
  6
BYLAYER
  8
0
 10
64.2286470553107
 11
66.2519000673588
 20
72.5517936179305
 21
72.5517936179305
 62
7
  0
LINE
  6
BYLAYER
  8
0
 10
64.2665988625396
 11
64.2665988625396
 20
74.3954080757617
 21
68.5339622926292
 62
7
  0
LINE
  6
BYLAYER
  8
0
 10
64.2665988625396
 11
64.5592494649493
 20
68.5339622926292
 21
67.8297454251593
 62
7
  0
LINE
  6
BYLAYER
  8
0
 10
64.5592494649493
 11
65.2634663324191
 20
67.8297454251593
 21
67.5370948227497
 62
7
  0
LINE
  6
BYLAYER
  8
0
 10
65.2634663324191
 11
65.2634663324191
 20
67.5370948227497
 21
67.5370948227497
 62
7
  0
LINE
  6
BYLAYER
  8
0
 10
65.2634663324191
 11
65.968526573383
 20
67.5370948227497
 21
67.8297454251593
 62
7
  0
LINE
  6
BYLAYER
  8
0
 10
65.968526573383
 11
66.2611771757927
 20
67.8297454251593
 21
68.5339622926292
 62
7
  0
LINE
  6
BYLAYER
  8
0
 10
66.2611771757927
 11
66.2611771757927
 20
68.5339622926292
 21
74.4409502444364
 62
7
  0
LINE
  6
BYLAYER
  8
0
 10
69.2399723565156
 11
71.2615386215757
 20
72.5517936179305
 21
72.5517936179305
 62
7
  0
LINE
  6
BYLAYER
  8
0
 10
69.2762374167565
 11
69.2762374167565
 20
74.3954080757617
 21
68.5339622926292
 62
7
  0
LINE
  6
BYLAYER
  8
0
 10
69.2762374167565
 11
69.5646711516963
 20
68.5339622926292
 21
67.8297454251593
 62
7
  0
LINE
  6
BYLAYER
  8
0
 10
69.5646711516963
 11
70.2747916336239
 20
67.8297454251593
 21
67.5370948227497
 62
7
  0
LINE
  6
BYLAYER
  8
0
 10
70.2747916336239
 11
70.2747916336239
 20
67.5370948227497
 21
67.5370948227497
 62
7
  0
LINE
  6
BYLAYER
  8
0
 10
70.2747916336239
 11
70.97394826013
 20
67.5370948227497
 21
67.8297454251593
 62
7
  0
LINE
  6
BYLAYER
  8
0
 10
70.97394826013
 11
71.2665988625396
 20
67.8297454251593
 21
68.5339622926292
 62
7
  0
LINE
  6
BYLAYER
  8
0
 10
71.2665988625396
 11
71.2665988625396
 20
68.5339622926292
 21
74.4409502444364
 62
7
  0
LINE
  6
BYLAYER
  8
0
 10
-27.1587987278218
 11
-27.0809553543278
 20
73.8885406058822
 21
74.3498659070872
 62
7
  0
LINE
  6
BYLAYER
  8
0
 10
-27.0809553543278
 11
-26.4541601736049
 20
74.3498659070872
 21
74.7664924131111
 62
7
  0
LINE
  6
BYLAYER
  8
0
 10
-26.4541601736049
 11
111.651538621576
 20
74.7664924131111
 21
74.7664924131111
 62
7
  0
LINE
  6
BYLAYER
  8
0
 10
111.651538621576
 11
112.561538621576
 20
74.7664924131111
 21
74.3043237384124
 62
7
  0
LINE
  6
BYLAYER
  8
0
 10
112.561538621576
 11
112.639972356516
 20
74.3043237384124
 21
73.8008297625088
 62
7
  0
LINE
  6
BYLAYER
  8
0
 10
-25.1363890892676
 11
14.5843097059131
 20
55.874082774557
 21
55.874082774557
 62
7
  0
LINE
  6
BYLAYER
  8
0
 10
14.5843097059131
 11
14.5843097059131
 20
55.874082774557
 21
15.8011912082919
 62
7
  0
LINE
  6
BYLAYER
  8
0
 10
14.5843097059131
 11
-25.1363890892676
 20
15.8011912082919
 21
15.8011912082919
 62
7
  0
LINE
  6
BYLAYER
  8
0
 10
-25.1363890892676
 11
-25.1363890892676
 20
15.8011912082919
 21
55.874082774557
 62
7
  0
LINE
  6
BYLAYER
  8
0
 10
-25.1363890892676
 11
-25.1363890892676
 20
55.874082774557
 21
55.874082774557
 62
7
  0
LINE
  6
BYLAYER
  8
0
 10
-26.367208366376
 11
-27.14505173987
 20
57.7354080757618
 21
57.2142032564846
 62
7
  0
LINE
  6
BYLAYER
  8
0
 10
-27.14505173987
 11
-27.1587987278218
 20
57.2142032564846
 21
14.4374562685329
 62
7
  0
LINE
  6
BYLAYER
  8
0
 10
-27.1587987278218
 11
-26.367208366376
 20
14.4374562685329
 21
13.7779381962436
 62
7
  0
LINE
  6
BYLAYER
  8
0
 10
-26.367208366376
 11
111.747683199889
 20
13.7779381962436
 21
13.9558900034726
 62
7
  0
LINE
  6
BYLAYER
  8
0
 10
111.747683199889
 11
112.580092838443
 20
13.9558900034726
 21
14.5698659070872
 62
7
  0
LINE
  6
BYLAYER
  8
0
 10
112.580092838443
 11
112.580092838443
 20
14.5698659070872
 21
57.1501068709426
 62
7
  0
LINE
  6
BYLAYER
  8
0
 10
112.580092838443
 11
111.724068742058
 20
57.1501068709426
 21
57.7632394010629
 62
7
  0
LINE
  6
BYLAYER
  8
0
 10
111.724068742058
 11
-26.367208366376
 20
57.7632394010629
 21
57.7354080757618
 62
7
  0
LINE
  6
BYLAYER
  8
0
 10
-26.367208366376
 11
-26.367208366376
 20
57.7354080757618
 21
57.7354080757618
 62
7
  0
LINE
  6
BYLAYER
  8
0
 10
111.591659103503
 11
112.296719344467
 20
89.7979381962437
 21
89.5086610878099
 62
7
  0
LINE
  6
BYLAYER
  8
0
 10
112.296719344467
 11
112.589369946877
 20
89.5086610878099
 21
88.8044442203402
 62
7
  0
LINE
  6
BYLAYER
  8
0
 10
112.589369946877
 11
112.589369946877
 20
88.8044442203402
 21
-16.8188087917081
 62
7
  0
LINE
  6
BYLAYER
  8
0
 10
112.589369946877
 11
112.222502476997
 20
-16.8188087917081
 21
-17.6706160206238
 62
7
  0
LINE
  6
BYLAYER
  8
0
 10
112.222502476997
 11
111.330213320371
 20
-17.6706160206238
 21
-17.9632666230335
 62
7
  0
LINE
  6
BYLAYER
  8
0
 10
111.330213320371
 11
-26.2802565591471
 20
-17.9632666230335
 21
-17.9160377073708
 62
7
  0
LINE
  6
BYLAYER
  8
0
 10
-26.2802565591471
 11
-26.7149312579423
 20
-17.9160377073708
 21
-17.7929051772502
 62
7
  0
LINE
  6
BYLAYER
  8
0
 10
-26.7149312579423
 11
-27.1085336675809
 20
-17.7929051772502
 21
-16.9604955386961
 62
7
  0
LINE
  6
BYLAYER
  8
0
 10
-27.1085336675809
 11
-27.1085336675809
 20
-16.9604955386961
 21
88.6627574733521
 62
7
  0
LINE
  6
BYLAYER
  8
0
 10
-27.1085336675809
 11
-26.8202686073399
 20
88.6627574733521
 21
89.366974340822
 62
7
  0
LINE
  6
BYLAYER
  8
0
 10
-26.8202686073399
 11
-26.1109914989061
 20
89.366974340822
 21
89.6596249432316
 62
7
  0
LINE
  6
BYLAYER
  8
0
 10
-26.1109914989061
 11
-26.2802565591471
 20
89.6596249432316
 21
89.6511912082919
 62
7
  0
LINE
  6
BYLAYER
  8
0
 10
-26.2802565591471
 11
111.591659103503
 20
89.6511912082919
 21
89.7979381962437
 62
7
  0
LINE
  6
BYLAYER
  8
0
 10
111.591659103503
 11
111.591659103503
 20
89.7979381962437
 21
89.7979381962437
 62
7
  0
LINE
  6
BYLAYER
  8
0
 10
308.095153079407
 11
301.6981651276
 20
-103.036037707371
 21
-101.321459394118
 62
7
  0
LINE
  6
BYLAYER
  8
0
 10
301.6981651276
 11
301.770695248082
 20
-101.321459394118
 21
-101.321459394118
 62
7
  0
LINE
  6
BYLAYER
  8
0
 10
301.770695248082
 11
308.167683199889
 20
-101.321459394118
 21
-99.6102545748407
 62
7
  0
LINE
  6
BYLAYER
  8
0
 10
308.167683199889
 11
307.326839826395
 20
-99.6102545748407
 21
-100.075796743515
 62
7
  0
LINE
  6
BYLAYER
  8
0
 10
307.326839826395
 11
306.484309705913
 20
-100.075796743515
 21
-101.425194333877
 62
7
  0
LINE
  6
BYLAYER
  8
0
 10
306.484309705913
 11
307.28973139266
 20
-101.425194333877
 21
-102.670856984479
 62
7
  0
LINE
  6
BYLAYER
  8
0
 10
307.28973139266
 11
308.095153079407
 20
-102.670856984479
 21
-103.036037707371
 62
7
  0
LINE
  6
BYLAYER
  8
0
 10
308.095153079407
 11
308.095153079407
 20
-103.036037707371
 21
-103.036037707371
 62
7
  0
LINE
  6
BYLAYER
  8
0
 10
308.095153079407
 11
301.6981651276
 20
-103.036037707371
 21
-101.321459394118
 62
7
  0
LINE
  6
BYLAYER
  8
0
 10
301.6981651276
 11
301.770695248082
 20
-101.321459394118
 21
-101.321459394118
 62
7
  0
LINE
  6
BYLAYER
  8
0
 10
301.770695248082
 11
308.167683199889
 20
-101.321459394118
 21
-99.6102545748407
 62
7
  0
LINE
  6
BYLAYER
  8
0
 10
308.167683199889
 11
307.326839826395
 20
-99.6102545748407
 21
-100.075796743515
 62
7
  0
LINE
  6
BYLAYER
  8
0
 10
307.326839826395
 11
306.484309705913
 20
-100.075796743515
 21
-101.425194333877
 62
7
  0
LINE
  6
BYLAYER
  8
0
 10
306.484309705913
 11
307.28973139266
 20
-101.425194333877
 21
-102.670856984479
 62
7
  0
LINE
  6
BYLAYER
  8
0
 10
307.28973139266
 11
308.095153079407
 20
-102.670856984479
 21
-103.036037707371
 62
7
  0
LINE
  6
BYLAYER
  8
0
 10
308.095153079407
 11
308.095153079407
 20
-103.036037707371
 21
-103.036037707371
 62
7
  0
LINE
  6
BYLAYER
  8
0
 10
230.785635007118
 11
237.182622958925
 20
-99.5217003579732
 21
-101.233748550744
 62
7
  0
LINE
  6
BYLAYER
  8
0
 10
237.182622958925
 11
237.104189223985
 20
-101.233748550744
 21
-101.233748550744
 62
7
  0
LINE
  6
BYLAYER
  8
0
 10
237.104189223985
 11
230.712261513142
 20
-101.233748550744
 21
-102.944953370021
 62
7
  0
LINE
  6
BYLAYER
  8
0
 10
230.712261513142
 11
231.554791633624
 20
-102.944953370021
 21
-102.478567827853
 62
7
  0
LINE
  6
BYLAYER
  8
0
 10
231.554791633624
 11
232.396478380612
 20
-102.478567827853
 21
-101.132543731467
 62
7
  0
LINE
  6
BYLAYER
  8
0
 10
232.396478380612
 11
231.591056693865
 20
-101.132543731467
 21
-99.8885678278527
 62
7
  0
LINE
  6
BYLAYER
  8
0
 10
231.591056693865
 11
230.785635007118
 20
-99.8885678278527
 21
-99.5217003579732
 62
7
  0
LINE
  6
BYLAYER
  8
0
 10
230.785635007118
 11
230.785635007118
 20
-99.5217003579732
 21
-99.5217003579732
 62
7
  0
LINE
  6
BYLAYER
  8
0
 10
230.785635007118
 11
237.182622958925
 20
-99.5217003579732
 21
-101.233748550744
 62
7
  0
LINE
  6
BYLAYER
  8
0
 10
237.182622958925
 11
237.104189223985
 20
-101.233748550744
 21
-101.233748550744
 62
7
  0
LINE
  6
BYLAYER
  8
0
 10
237.104189223985
 11
230.712261513142
 20
-101.233748550744
 21
-102.944953370021
 62
7
  0
LINE
  6
BYLAYER
  8
0
 10
230.712261513142
 11
231.554791633624
 20
-102.944953370021
 21
-102.478567827853
 62
7
  0
LINE
  6
BYLAYER
  8
0
 10
231.554791633624
 11
232.396478380612
 20
-102.478567827853
 21
-101.132543731467
 62
7
  0
LINE
  6
BYLAYER
  8
0
 10
232.396478380612
 11
231.591056693865
 20
-101.132543731467
 21
-99.8885678278527
 62
7
  0
LINE
  6
BYLAYER
  8
0
 10
231.591056693865
 11
230.785635007118
 20
-99.8885678278527
 21
-99.5217003579732
 62
7
  0
LINE
  6
BYLAYER
  8
0
 10
230.785635007118
 11
230.785635007118
 20
-99.5217003579732
 21
-99.5217003579732
 62
7
  0
LINE
  6
BYLAYER
  8
0
 10
238.303466332419
 11
244.695394043263
 20
-66.4310979483346
 21
-68.1431461411057
 62
7
  0
LINE
  6
BYLAYER
  8
0
 10
244.695394043263
 11
244.622020549287
 20
-68.1431461411057
 21
-68.1431461411057
 62
7
  0
LINE
  6
BYLAYER
  8
0
 10
244.622020549287
 11
238.230092838443
 20
-68.1431461411057
 21
-69.8543509603828
 62
7
  0
LINE
  6
BYLAYER
  8
0
 10
238.230092838443
 11
239.071779585431
 20
-69.8543509603828
 21
-69.3879654182142
 62
7
  0
LINE
  6
BYLAYER
  8
0
 10
239.071779585431
 11
239.914309705913
 20
-69.3879654182142
 21
-68.0419413218286
 62
7
  0
LINE
  6
BYLAYER
  8
0
 10
239.914309705913
 11
239.108044645672
 20
-68.0419413218286
 21
-66.7979654182142
 62
7
  0
LINE
  6
BYLAYER
  8
0
 10
239.108044645672
 11
238.303466332419
 20
-66.7979654182142
 21
-66.4310979483346
 62
7
  0
LINE
  6
BYLAYER
  8
0
 10
238.303466332419
 11
238.303466332419
 20
-66.4310979483346
 21
-66.4310979483346
 62
7
  0
LINE
  6
BYLAYER
  8
0
 10
238.303466332419
 11
244.695394043263
 20
-66.4310979483346
 21
-68.1431461411057
 62
7
  0
LINE
  6
BYLAYER
  8
0
 10
244.695394043263
 11
244.622020549287
 20
-68.1431461411057
 21
-68.1431461411057
 62
7
  0
LINE
  6
BYLAYER
  8
0
 10
244.622020549287
 11
238.230092838443
 20
-68.1431461411057
 21
-69.8543509603828
 62
7
  0
LINE
  6
BYLAYER
  8
0
 10
238.230092838443
 11
239.071779585431
 20
-69.8543509603828
 21
-69.3879654182142
 62
7
  0
LINE
  6
BYLAYER
  8
0
 10
239.071779585431
 11
239.914309705913
 20
-69.3879654182142
 21
-68.0419413218286
 62
7
  0
LINE
  6
BYLAYER
  8
0
 10
239.914309705913
 11
239.108044645672
 20
-68.0419413218286
 21
-66.7979654182142
 62
7
  0
LINE
  6
BYLAYER
  8
0
 10
239.108044645672
 11
238.303466332419
 20
-66.7979654182142
 21
-66.4310979483346
 62
7
  0
LINE
  6
BYLAYER
  8
0
 10
238.303466332419
 11
238.303466332419
 20
-66.4310979483346
 21
-66.4310979483346
 62
7
  0
LINE
  6
BYLAYER
  8
0
 10
294.134791633624
 11
287.742863922781
 20
-69.845917225443
 21
-68.134712406166
 62
7
  0
LINE
  6
BYLAYER
  8
0
 10
287.742863922781
 11
287.815394043262
 20
-68.134712406166
 21
-68.134712406166
 62
7
  0
LINE
  6
BYLAYER
  8
0
 10
287.815394043262
 11
294.207321754106
 20
-68.134712406166
 21
-66.418447345925
 62
7
  0
LINE
  6
BYLAYER
  8
0
 10
294.207321754106
 11
293.366478380612
 20
-66.418447345925
 21
-66.8848328880936
 62
7
  0
LINE
  6
BYLAYER
  8
0
 10
293.366478380612
 11
292.524791633624
 20
-66.8848328880936
 21
-68.235073851949
 62
7
  0
LINE
  6
BYLAYER
  8
0
 10
292.524791633624
 11
293.329369946877
 20
-68.235073851949
 21
-69.4790497555635
 62
7
  0
LINE
  6
BYLAYER
  8
0
 10
293.329369946877
 11
294.134791633624
 20
-69.4790497555635
 21
-69.845917225443
 62
7
  0
LINE
  6
BYLAYER
  8
0
 10
294.134791633624
 11
294.134791633624
 20
-69.845917225443
 21
-69.845917225443
 62
7
  0
LINE
  6
BYLAYER
  8
0
 10
294.134791633624
 11
287.742863922781
 20
-69.845917225443
 21
-68.134712406166
 62
7
  0
LINE
  6
BYLAYER
  8
0
 10
287.742863922781
 11
287.815394043262
 20
-68.134712406166
 21
-68.134712406166
 62
7
  0
LINE
  6
BYLAYER
  8
0
 10
287.815394043262
 11
294.207321754106
 20
-68.134712406166
 21
-66.418447345925
 62
7
  0
LINE
  6
BYLAYER
  8
0
 10
294.207321754106
 11
293.366478380612
 20
-66.418447345925
 21
-66.8848328880936
 62
7
  0
LINE
  6
BYLAYER
  8
0
 10
293.366478380612
 11
292.524791633624
 20
-66.8848328880936
 21
-68.235073851949
 62
7
  0
LINE
  6
BYLAYER
  8
0
 10
292.524791633624
 11
293.329369946877
 20
-68.235073851949
 21
-69.4790497555635
 62
7
  0
LINE
  6
BYLAYER
  8
0
 10
293.329369946877
 11
294.134791633624
 20
-69.4790497555635
 21
-69.845917225443
 62
7
  0
LINE
  6
BYLAYER
  8
0
 10
294.134791633624
 11
294.134791633624
 20
-69.845917225443
 21
-69.845917225443
 62
7
  0
LINE
  6
BYLAYER
  8
0
 10
349.678526573383
 11
351.38973139266
 20
7.17095024443648
 21
13.5670948227498
 62
7
  0
LINE
  6
BYLAYER
  8
0
 10
351.38973139266
 11
351.38973139266
 20
13.5670948227498
 21
13.4945647022678
 62
7
  0
LINE
  6
BYLAYER
  8
0
 10
351.38973139266
 11
353.105153079407
 20
13.4945647022678
 21
7.09757675046052
 62
7
  0
LINE
  6
BYLAYER
  8
0
 10
353.105153079407
 11
352.633707296275
 20
7.09757675046052
 21
7.94010687094243
 62
7
  0
LINE
  6
BYLAYER
  8
0
 10
352.633707296275
 11
351.288526573383
 20
7.94010687094243
 21
8.78095024443641
 62
7
  0
LINE
  6
BYLAYER
  8
0
 10
351.288526573383
 11
350.043707296274
 20
8.78095024443641
 21
7.97637193118345
 62
7
  0
LINE
  6
BYLAYER
  8
0
 10
350.043707296274
 11
349.678526573383
 20
7.97637193118345
 21
7.17095024443648
 62
7
  0
LINE
  6
BYLAYER
  8
0
 10
349.678526573383
 11
349.678526573383
 20
7.17095024443648
 21
7.17095024443648
 62
7
  0
LINE
  6
BYLAYER
  8
0
 10
349.678526573383
 11
351.38973139266
 20
7.17095024443648
 21
13.5670948227498
 62
7
  0
LINE
  6
BYLAYER
  8
0
 10
351.38973139266
 11
351.38973139266
 20
13.5670948227498
 21
13.4945647022678
 62
7
  0
LINE
  6
BYLAYER
  8
0
 10
351.38973139266
 11
353.105153079407
 20
13.4945647022678
 21
7.09757675046052
 62
7
  0
LINE
  6
BYLAYER
  8
0
 10
353.105153079407
 11
352.633707296275
 20
7.09757675046052
 21
7.94010687094243
 62
7
  0
LINE
  6
BYLAYER
  8
0
 10
352.633707296275
 11
351.288526573383
 20
7.94010687094243
 21
8.78095024443641
 62
7
  0
LINE
  6
BYLAYER
  8
0
 10
351.288526573383
 11
350.043707296274
 20
8.78095024443641
 21
7.97637193118345
 62
7
  0
LINE
  6
BYLAYER
  8
0
 10
350.043707296274
 11
349.678526573383
 20
7.97637193118345
 21
7.17095024443648
 62
7
  0
LINE
  6
BYLAYER
  8
0
 10
349.678526573383
 11
349.678526573383
 20
7.17095024443648
 21
7.17095024443648
 62
7
  0
LINE
  6
BYLAYER
  8
0
 10
353.095875970973
 11
351.380454284226
 20
64.6637213287738
 21
58.2675767504606
 62
7
  0
LINE
  6
BYLAYER
  8
0
 10
351.380454284226
 11
351.380454284226
 20
58.2675767504606
 21
58.3401068709424
 62
7
  0
LINE
  6
BYLAYER
  8
0
 10
351.380454284226
 11
349.664189223985
 20
58.3401068709424
 21
64.7362514492558
 62
7
  0
LINE
  6
BYLAYER
  8
0
 10
349.664189223985
 11
350.134791633624
 20
64.7362514492558
 21
63.8945647022677
 62
7
  0
LINE
  6
BYLAYER
  8
0
 10
350.134791633624
 11
351.485875970973
 20
63.8945647022677
 21
63.0537213287738
 62
7
  0
LINE
  6
BYLAYER
  8
0
 10
351.485875970973
 11
352.729851874588
 20
63.0537213287738
 21
63.8582996420268
 62
7
  0
LINE
  6
BYLAYER
  8
0
 10
352.729851874588
 11
353.095875970973
 20
63.8582996420268
 21
64.6637213287738
 62
7
  0
LINE
  6
BYLAYER
  8
0
 10
353.095875970973
 11
353.095875970973
 20
64.6637213287738
 21
64.6637213287738
 62
7
  0
LINE
  6
BYLAYER
  8
0
 10
353.095875970973
 11
351.380454284226
 20
64.6637213287738
 21
58.2675767504606
 62
7
  0
LINE
  6
BYLAYER
  8
0
 10
351.380454284226
 11
351.380454284226
 20
58.2675767504606
 21
58.3401068709424
 62
7
  0
LINE
  6
BYLAYER
  8
0
 10
351.380454284226
 11
349.664189223985
 20
58.3401068709424
 21
64.7362514492558
 62
7
  0
LINE
  6
BYLAYER
  8
0
 10
349.664189223985
 11
350.134791633624
 20
64.7362514492558
 21
63.8945647022677
 62
7
  0
LINE
  6
BYLAYER
  8
0
 10
350.134791633624
 11
351.485875970973
 20
63.8945647022677
 21
63.0537213287738
 62
7
  0
LINE
  6
BYLAYER
  8
0
 10
351.485875970973
 11
352.729851874588
 20
63.0537213287738
 21
63.8582996420268
 62
7
  0
LINE
  6
BYLAYER
  8
0
 10
352.729851874588
 11
353.095875970973
 20
63.8582996420268
 21
64.6637213287738
 62
7
  0
LINE
  6
BYLAYER
  8
0
 10
353.095875970973
 11
353.095875970973
 20
64.6637213287738
 21
64.6637213287738
 62
7
  0
LINE
  6
BYLAYER
  8
0
 10
-75.32605173987
 11
-77.0419794507134
 20
-11.3739895145996
 21
-17.770134092913
 62
7
  0
LINE
  6
BYLAYER
  8
0
 10
-77.0419794507134
 11
-77.0419794507134
 20
-17.770134092913
 21
-17.697603972431
 62
7
  0
LINE
  6
BYLAYER
  8
0
 10
-77.0419794507134
 11
-78.7531842699905
 20
-17.697603972431
 21
-11.3006160206237
 62
7
  0
LINE
  6
BYLAYER
  8
0
 10
-78.7531842699905
 11
-78.2865457157736
 20
-11.3006160206237
 21
-12.1423027676117
 62
7
  0
LINE
  6
BYLAYER
  8
0
 10
-78.2865457157736
 11
-76.9366421013158
 20
-12.1423027676117
 21
-12.9848328880936
 62
7
  0
LINE
  6
BYLAYER
  8
0
 10
-76.9366421013158
 11
-75.6920758362555
 20
-12.9848328880936
 21
-12.1794112013466
 62
7
  0
LINE
  6
BYLAYER
  8
0
 10
-75.6920758362555
 11
-75.32605173987
 20
-12.1794112013466
 21
-11.3739895145996
 62
7
  0
LINE
  6
BYLAYER
  8
0
 10
-75.32605173987
 11
-75.32605173987
 20
-11.3739895145996
 21
-11.3739895145996
 62
7
  0
LINE
  6
BYLAYER
  8
0
 10
-75.32605173987
 11
-77.0419794507134
 20
-11.3739895145996
 21
-17.770134092913
 62
7
  0
LINE
  6
BYLAYER
  8
0
 10
-77.0419794507134
 11
-77.0419794507134
 20
-17.770134092913
 21
-17.697603972431
 62
7
  0
LINE
  6
BYLAYER
  8
0
 10
-77.0419794507134
 11
-78.7531842699905
 20
-17.697603972431
 21
-11.3006160206237
 62
7
  0
LINE
  6
BYLAYER
  8
0
 10
-78.7531842699905
 11
-78.2865457157736
 20
-11.3006160206237
 21
-12.1423027676117
 62
7
  0
LINE
  6
BYLAYER
  8
0
 10
-78.2865457157736
 11
-76.9366421013158
 20
-12.1423027676117
 21
-12.9848328880936
 62
7
  0
LINE
  6
BYLAYER
  8
0
 10
-76.9366421013158
 11
-75.6920758362555
 20
-12.9848328880936
 21
-12.1794112013466
 62
7
  0
LINE
  6
BYLAYER
  8
0
 10
-75.6920758362555
 11
-75.32605173987
 20
-12.1794112013466
 21
-11.3739895145996
 62
7
  0
LINE
  6
BYLAYER
  8
0
 10
-75.32605173987
 11
-75.32605173987
 20
-11.3739895145996
 21
-11.3739895145996
 62
7
  0
LINE
  6
BYLAYER
  8
0
 10
-78.7440758362555
 11
-77.0327023422796
 20
83.2120345817858
 21
89.6048056661232
 62
7
  0
LINE
  6
BYLAYER
  8
0
 10
-77.0327023422796
 11
-77.0327023422796
 20
89.6048056661232
 21
89.5314321721473
 62
7
  0
LINE
  6
BYLAYER
  8
0
 10
-77.0327023422796
 11
-75.316943306135
 20
89.5314321721473
 21
83.139504461304
 62
7
  0
LINE
  6
BYLAYER
  8
0
 10
-75.316943306135
 11
-75.7881360772194
 20
83.139504461304
 21
83.982034581786
 62
7
  0
LINE
  6
BYLAYER
  8
0
 10
-75.7881360772194
 11
-77.1334854748097
 20
83.982034581786
 21
84.8228779552797
 62
7
  0
LINE
  6
BYLAYER
  8
0
 10
-77.1334854748097
 11
-78.3779674025206
 20
84.8228779552797
 21
84.0182996420269
 62
7
  0
LINE
  6
BYLAYER
  8
0
 10
-78.3779674025206
 11
-78.7440758362555
 20
84.0182996420269
 21
83.2120345817858
 62
7
  0
LINE
  6
BYLAYER
  8
0
 10
-78.7440758362555
 11
-78.7440758362555
 20
83.2120345817858
 21
83.2120345817858
 62
7
  0
LINE
  6
BYLAYER
  8
0
 10
-78.7440758362555
 11
-77.0327023422796
 20
83.2120345817858
 21
89.6048056661232
 62
7
  0
LINE
  6
BYLAYER
  8
0
 10
-77.0327023422796
 11
-77.0327023422796
 20
89.6048056661232
 21
89.5314321721473
 62
7
  0
LINE
  6
BYLAYER
  8
0
 10
-77.0327023422796
 11
-75.316943306135
 20
89.5314321721473
 21
83.139504461304
 62
7
  0
LINE
  6
BYLAYER
  8
0
 10
-75.316943306135
 11
-75.7881360772194
 20
83.139504461304
 21
83.982034581786
 62
7
  0
LINE
  6
BYLAYER
  8
0
 10
-75.7881360772194
 11
-77.1334854748097
 20
83.982034581786
 21
84.8228779552797
 62
7
  0
LINE
  6
BYLAYER
  8
0
 10
-77.1334854748097
 11
-78.3779674025206
 20
84.8228779552797
 21
84.0182996420269
 62
7
  0
LINE
  6
BYLAYER
  8
0
 10
-78.3779674025206
 11
-78.7440758362555
 20
84.0182996420269
 21
83.2120345817858
 62
7
  0
LINE
  6
BYLAYER
  8
0
 10
-78.7440758362555
 11
-78.7440758362555
 20
83.2120345817858
 21
83.2120345817858
 62
7
  0
LINE
  6
BYLAYER
  8
0
 10
-20.6660878844483
 11
-27.0581842699905
 20
-69.8223027676117
 21
-68.1060377073707
 62
7
  0
LINE
  6
BYLAYER
  8
0
 10
-27.0581842699905
 11
-26.984895113364
 20
-68.1060377073707
 21
-68.1060377073707
 62
7
  0
LINE
  6
BYLAYER
  8
0
 10
-26.984895113364
 11
-20.5928830651712
 20
-68.1060377073707
 21
-66.3948328880936
 62
7
  0
LINE
  6
BYLAYER
  8
0
 10
-20.5928830651712
 11
-21.4347384868579
 20
-66.3948328880936
 21
-66.8620618037563
 62
7
  0
LINE
  6
BYLAYER
  8
0
 10
-21.4347384868579
 11
-22.2766782458941
 20
-66.8620618037563
 21
-68.2114593941178
 62
7
  0
LINE
  6
BYLAYER
  8
0
 10
-22.2766782458941
 11
-21.4714252338459
 20
-68.2114593941178
 21
-69.4554352977322
 62
7
  0
LINE
  6
BYLAYER
  8
0
 10
-21.4714252338459
 11
-20.6660878844483
 20
-69.4554352977322
 21
-69.8223027676117
 62
7
  0
LINE
  6
BYLAYER
  8
0
 10
-20.6660878844483
 11
-20.6660878844483
 20
-69.8223027676117
 21
-69.8223027676117
 62
7
  0
LINE
  6
BYLAYER
  8
0
 10
-20.6660878844483
 11
-27.0581842699905
 20
-69.8223027676117
 21
-68.1060377073707
 62
7
  0
LINE
  6
BYLAYER
  8
0
 10
-27.0581842699905
 11
-26.984895113364
 20
-68.1060377073707
 21
-68.1060377073707
 62
7
  0
LINE
  6
BYLAYER
  8
0
 10
-26.984895113364
 11
-20.5928830651712
 20
-68.1060377073707
 21
-66.3948328880936
 62
7
  0
LINE
  6
BYLAYER
  8
0
 10
-20.5928830651712
 11
-21.4347384868579
 20
-66.3948328880936
 21
-66.8620618037563
 62
7
  0
LINE
  6
BYLAYER
  8
0
 10
-21.4347384868579
 11
-22.2766782458941
 20
-66.8620618037563
 21
-68.2114593941178
 62
7
  0
LINE
  6
BYLAYER
  8
0
 10
-22.2766782458941
 11
-21.4714252338459
 20
-68.2114593941178
 21
-69.4554352977322
 62
7
  0
LINE
  6
BYLAYER
  8
0
 10
-21.4714252338459
 11
-20.6660878844483
 20
-69.4554352977322
 21
-69.8223027676117
 62
7
  0
LINE
  6
BYLAYER
  8
0
 10
-20.6660878844483
 11
-20.6660878844483
 20
-69.8223027676117
 21
-69.8223027676117
 62
7
  0
LINE
  6
BYLAYER
  8
0
 10
106.133345850491
 11
112.529490428805
 20
-66.4310979483346
 21
-68.1431461411057
 62
7
  0
LINE
  6
BYLAYER
  8
0
 10
112.529490428805
 11
112.456116934829
 20
-68.1431461411057
 21
-68.1431461411057
 62
7
  0
LINE
  6
BYLAYER
  8
0
 10
112.456116934829
 11
106.059128983022
 20
-68.1431461411057
 21
-69.8543509603828
 62
7
  0
LINE
  6
BYLAYER
  8
0
 10
106.059128983022
 11
106.901659103504
 20
-69.8543509603828
 21
-69.3879654182142
 62
7
  0
LINE
  6
BYLAYER
  8
0
 10
106.901659103504
 11
107.743345850491
 20
-69.3879654182142
 21
-68.0419413218286
 62
7
  0
LINE
  6
BYLAYER
  8
0
 10
107.743345850491
 11
106.937924163744
 20
-68.0419413218286
 21
-66.7979654182142
 62
7
  0
LINE
  6
BYLAYER
  8
0
 10
106.937924163744
 11
106.133345850491
 20
-66.7979654182142
 21
-66.4310979483346
 62
7
  0
LINE
  6
BYLAYER
  8
0
 10
106.133345850491
 11
106.133345850491
 20
-66.4310979483346
 21
-66.4310979483346
 62
7
  0
LINE
  6
BYLAYER
  8
0
 10
106.133345850491
 11
112.529490428805
 20
-66.4310979483346
 21
-68.1431461411057
 62
7
  0
LINE
  6
BYLAYER
  8
0
 10
112.529490428805
 11
112.456116934829
 20
-68.1431461411057
 21
-68.1431461411057
 62
7
  0
LINE
  6
BYLAYER
  8
0
 10
112.456116934829
 11
106.059128983022
 20
-68.1431461411057
 21
-69.8543509603828
 62
7
  0
LINE
  6
BYLAYER
  8
0
 10
106.059128983022
 11
106.901659103504
 20
-69.8543509603828
 21
-69.3879654182142
 62
7
  0
LINE
  6
BYLAYER
  8
0
 10
106.901659103504
 11
107.743345850491
 20
-69.3879654182142
 21
-68.0419413218286
 62
7
  0
LINE
  6
BYLAYER
  8
0
 10
107.743345850491
 11
106.937924163744
 20
-68.0419413218286
 21
-66.7979654182142
 62
7
  0
LINE
  6
BYLAYER
  8
0
 10
106.937924163744
 11
106.133345850491
 20
-66.7979654182142
 21
-66.4310979483346
 62
7
  0
LINE
  6
BYLAYER
  8
0
 10
106.133345850491
 11
106.133345850491
 20
-66.4310979483346
 21
-66.4310979483346
 62
7
  0
LINE
  6
BYLAYER
  8
0
 10
-81.9607023422796
 11
-82.8025577639664
 20
45.1758900034726
 21
43.1442032564846
 62
7
  0
LINE
  6
BYLAYER
  8
0
 10
-82.8025577639664
 11
-84.907364992882
 20
43.1442032564846
 21
42.4121550637136
 62
7
  0
LINE
  6
BYLAYER
  8
0
 10
-84.907364992882
 11
-87.030473426617
 20
42.4121550637136
 21
43.2175767504606
 62
7
  0
LINE
  6
BYLAYER
  8
0
 10
-87.030473426617
 11
-87.7442204145688
 20
43.2175767504606
 21
45.0848056661233
 62
7
  0
LINE
  6
BYLAYER
  8
0
 10
-87.7442204145688
 11
-86.8290758362555
 20
45.0848056661233
 21
47.1898659070872
 62
7
  0
LINE
  6
BYLAYER
  8
0
 10
-86.8290758362555
 11
-84.907364992882
 20
47.1898659070872
 21
47.7566128950388
 62
7
  0
LINE
  6
BYLAYER
  8
0
 10
-84.907364992882
 11
-82.8392445109543
 20
47.7566128950388
 21
47.1350466299786
 62
7
  0
LINE
  6
BYLAYER
  8
0
 10
-82.8392445109543
 11
-81.9607023422796
 20
47.1350466299786
 21
45.1758900034726
 62
7
  0
LINE
  6
BYLAYER
  8
0
 10
-81.9607023422796
 11
-81.9607023422796
 20
45.1758900034726
 21
45.1758900034726
 62
7
  0
LINE
  6
BYLAYER
  8
0
 10
-94.0402481254121
 11
-93.2212228242073
 20
45.2863719311835
 21
42.7191430155209
 62
7
  0
LINE
  6
BYLAYER
  8
0
 10
-93.2212228242073
 11
-90.764130053123
 20
42.7191430155209
 21
41.0939622926292
 62
7
  0
LINE
  6
BYLAYER
  8
0
 10
-90.764130053123
 11
-86.6094613784242
 20
41.0939622926292
 21
40.4909502444364
 62
7
  0
LINE
  6
BYLAYER
  8
0
 10
-86.6094613784242
 11
-83.7726902940869
 20
40.4909502444364
 21
40.8291430155208
 62
7
  0
LINE
  6
BYLAYER
  8
0
 10
-83.7726902940869
 11
-81.9057987278218
 20
40.8291430155208
 21
41.8260104854002
 62
7
  0
LINE
  6
BYLAYER
  8
0
 10
-81.9057987278218
 11
-80.4782204145688
 20
41.8260104854002
 21
45.0299863890149
 62
7
  0
LINE
  6
BYLAYER
  8
0
 10
-80.4782204145688
 11
-80.8304975230025
 20
45.0299863890149
 21
46.9427574733522
 62
7
  0
LINE
  6
BYLAYER
  8
0
 10
-80.8304975230025
 11
-81.8691963181832
 20
46.9427574733522
 21
48.3427574733521
 62
7
  0
LINE
  6
BYLAYER
  8
0
 10
-81.8691963181832
 11
-85.035473426617
 20
48.3427574733521
 21
49.5133598829907
 62
7
  0
LINE
  6
BYLAYER
  8
0
 10
-85.035473426617
 11
-86.8794252338459
 20
49.5133598829907
 21
49.2021550637137
 62
7
  0
LINE
  6
BYLAYER
  8
0
 10
-86.8794252338459
 11
-88.2018348724001
 20
49.2021550637137
 21
48.2685406058822
 62
7
  0
LINE
  6
BYLAYER
  8
0
 10
-88.2018348724001
 11
-89.2450288483037
 20
48.2685406058822
 21
45.3951671119064
 62
7
  0
LINE
  6
BYLAYER
  8
0
 10
-89.2450288483037
 11
-88.8789794507134
 20
45.3951671119064
 21
43.6384201239545
 62
7
  0
LINE
  6
BYLAYER
  8
0
 10
-88.8789794507134
 11
-87.6344131856531
 20
43.6384201239545
 21
42.1928779552798
 62
7
  0
LINE
  6
BYLAYER
  8
0
 10
-87.6344131856531
 11
-91.3131999326411
 20
42.1928779552798
 21
43.1079381962438
 62
7
  0
LINE
  6
BYLAYER
  8
0
 10
-91.3131999326411
 11
-92.5943686073399
 20
43.1079381962438
 21
45.304082774557
 62
7
  0
LINE
  6
BYLAYER
  8
0
 10
-92.5943686073399
 11
-91.7707553543278
 20
45.304082774557
 21
47.1156490396172
 62
7
  0
LINE
  6
BYLAYER
  8
0
 10
-91.7707553543278
 11
-90.5445071615567
 20
47.1156490396172
 21
47.5736008468461
 62
7
  0
LINE
  6
BYLAYER
  8
0
 10
-90.5445071615567
 11
-90.5445071615567
 20
47.5736008468461
 21
49.2392634974486
 62
7
  0
LINE
  6
BYLAYER
  8
0
 10
-90.5445071615567
 11
-92.8872047519182
 20
49.2392634974486
 21
48.3613116902197
 62
7
  0
LINE
  6
BYLAYER
  8
0
 10
-92.8872047519182
 11
-93.7519914989061
 20
48.3613116902197
 21
47.1519140998582
 62
7
  0
LINE
  6
BYLAYER
  8
0
 10
-93.7519914989061
 11
-94.0402481254121
 20
47.1519140998582
 21
45.2863719311835
 62
7
  0
LINE
  6
BYLAYER
  8
0
 10
-94.0402481254121
 11
-94.0402481254121
 20
45.2863719311835
 21
45.2863719311835
 62
7
  0
LINE
  6
BYLAYER
  8
0
 10
-81.9972204145688
 11
-82.4640276434844
 20
34.3866128950388
 21
33.0456490396172
 62
7
  0
LINE
  6
BYLAYER
  8
0
 10
-82.4640276434844
 11
-83.845895113364
 20
33.0456490396172
 21
32.1542032564847
 62
7
  0
LINE
  6
BYLAYER
  8
0
 10
-83.845895113364
 11
-87.0853770410748
 20
32.1542032564847
 21
31.7148056661233
 62
7
  0
LINE
  6
BYLAYER
  8
0
 10
-87.0853770410748
 11
-91.1301794507134
 20
31.7148056661233
 21
32.3920345817859
 62
7
  0
LINE
  6
BYLAYER
  8
0
 10
-91.1301794507134
 11
-92.5028541495085
 20
32.3920345817859
 21
34.5148056661232
 62
7
  0
LINE
  6
BYLAYER
  8
0
 10
-92.5028541495085
 11
-92.1368047519182
 20
34.5148056661232
 21
35.8372153046774
 62
7
  0
LINE
  6
BYLAYER
  8
0
 10
-92.1368047519182
 11
-91.0569746314362
 20
35.8372153046774
 21
36.6384201239545
 62
7
  0
LINE
  6
BYLAYER
  8
0
 10
-91.0569746314362
 11
-87.359895113364
 20
36.6384201239545
 21
37.1866128950389
 62
7
  0
LINE
  6
BYLAYER
  8
0
 10
-87.359895113364
 11
-84.7518469205929
 20
37.1866128950389
 21
37.0036008468462
 62
7
  0
LINE
  6
BYLAYER
  8
0
 10
-84.7518469205929
 11
-83.1320637880628
 20
37.0036008468462
 21
36.4368538588943
 62
7
  0
LINE
  6
BYLAYER
  8
0
 10
-83.1320637880628
 11
-81.9972204145688
 20
36.4368538588943
 21
34.3866128950388
 62
7
  0
LINE
  6
BYLAYER
  8
0
 10
-81.9972204145688
 11
-81.9972204145688
 20
34.3866128950388
 21
34.3866128950388
 62
7
  0
LINE
  6
BYLAYER
  8
0
 10
-94.0036457157736
 11
-93.2532541495085
 20
34.4228779552797
 21
32.0344442203401
 62
7
  0
LINE
  6
BYLAYER
  8
0
 10
-93.2532541495085
 11
-91.0203637880628
 20
32.0344442203401
 21
30.5248056661232
 62
7
  0
LINE
  6
BYLAYER
  8
0
 10
-91.0203637880628
 11
-87.1585818603519
 20
30.5248056661232
 21
29.939504461304
 62
7
  0
LINE
  6
BYLAYER
  8
0
 10
-87.1585818603519
 11
-82.5281240290266
 20
29.939504461304
 21
30.8908297625088
 62
7
  0
LINE
  6
BYLAYER
  8
0
 10
-82.5281240290266
 11
-80.9907384868579
 20
30.8908297625088
 21
32.3464924131111
 62
7
  0
LINE
  6
BYLAYER
  8
0
 10
-80.9907384868579
 11
-80.4782204145688
 20
32.3464924131111
 21
34.4043237384123
 62
7
  0
LINE
  6
BYLAYER
  8
0
 10
-80.4782204145688
 11
-81.1187625832435
 20
34.4043237384123
 21
36.6696249432317
 62
7
  0
LINE
  6
BYLAYER
  8
0
 10
-81.1187625832435
 11
-83.0038710169784
 20
36.6696249432317
 21
38.193600846846
 62
7
  0
LINE
  6
BYLAYER
  8
0
 10
-83.0038710169784
 11
-87.4330999326411
 20
38.193600846846
 21
38.9813116902196
 62
7
  0
LINE
  6
BYLAYER
  8
0
 10
-87.4330999326411
 11
-91.8988806555326
 20
38.9813116902196
 21
38.1025165094967
 62
7
  0
LINE
  6
BYLAYER
  8
0
 10
-91.8988806555326
 11
-93.4820360772194
 20
38.1025165094967
 21
36.6148056661231
 62
7
  0
LINE
  6
BYLAYER
  8
0
 10
-93.4820360772194
 11
-94.0036457157736
 20
36.6148056661231
 21
34.4228779552797
 62
7
  0
LINE
  6
BYLAYER
  8
0
 10
-94.0036457157736
 11
-94.0036457157736
 20
34.4228779552797
 21
34.4228779552797
 62
7
  0
LINE
  6
BYLAYER
  8
0
 10
-90.1418553543278
 11
-80.8443288483037
 20
23.8216731360028
 21
23.8216731360028
 62
7
  0
LINE
  6
BYLAYER
  8
0
 10
-80.8443288483037
 11
-80.8443288483037
 20
23.8216731360028
 21
25.596974340822
 62
7
  0
LINE
  6
BYLAYER
  8
0
 10
-80.8443288483037
 11
-93.9304408964965
 20
25.596974340822
 21
25.596974340822
 62
7
  0
LINE
  6
BYLAYER
  8
0
 10
-93.9304408964965
 11
-93.9304408964965
 20
25.596974340822
 21
24.2796249432316
 62
7
  0
LINE
  6
BYLAYER
  8
0
 10
-93.9304408964965
 11
-91.990386679629
 20
24.2796249432316
 21
23.2178177143159
 62
7
  0
LINE
  6
BYLAYER
  8
0
 10
-91.990386679629
 11
-91.4047059567375
 20
23.2178177143159
 21
20.7467333769667
 62
7
  0
LINE
  6
BYLAYER
  8
0
 10
-91.4047059567375
 11
-90.1418553543278
 20
20.7467333769667
 21
20.7467333769667
 62
7
  0
LINE
  6
BYLAYER
  8
0
 10
-90.1418553543278
 11
-90.1418553543278
 20
20.7467333769667
 21
23.8216731360028
 62
7
  0
LINE
  6
BYLAYER
  8
0
 10
-90.1418553543278
 11
-90.1418553543278
 20
23.8216731360028
 21
23.8216731360028
 62
7
  0
LINE
  6
BYLAYER
  8
0
 10
53.3761169348288
 11
52.0309362119372
 20
-63.0829051772503
 21
-62.6165196350815
 62
7
  0
LINE
  6
BYLAYER
  8
0
 10
52.0309362119372
 11
51.1437072962746
 20
-62.6165196350815
 21
-61.2342304784551
 62
7
  0
LINE
  6
BYLAYER
  8
0
 10
51.1437072962746
 11
50.704309705913
 20
-61.2342304784551
 21
-57.9939895145997
 62
7
  0
LINE
  6
BYLAYER
  8
0
 10
50.704309705913
 11
51.3815386215758
 20
-57.9939895145997
 21
-53.9491702374913
 62
7
  0
LINE
  6
BYLAYER
  8
0
 10
51.3815386215758
 11
53.5043097059131
 20
-53.9491702374913
 21
-52.5770015627924
 62
7
  0
LINE
  6
BYLAYER
  8
0
 10
53.5043097059131
 11
54.8267193444674
 20
-52.5770015627924
 21
-52.9430256591779
 62
7
  0
LINE
  6
BYLAYER
  8
0
 10
54.8267193444674
 11
55.6279241637445
 20
-52.9430256591779
 21
-54.023387104961
 62
7
  0
LINE
  6
BYLAYER
  8
0
 10
55.6279241637445
 11
56.1761169348288
 20
-54.023387104961
 21
-57.7198931290575
 62
7
  0
LINE
  6
BYLAYER
  8
0
 10
56.1761169348288
 11
55.993104886636
 20
-57.7198931290575
 21
-60.3284473459249
 62
7
  0
LINE
  6
BYLAYER
  8
0
 10
55.993104886636
 11
55.4263578986842
 20
-60.3284473459249
 21
-61.9477244543586
 62
7
  0
LINE
  6
BYLAYER
  8
0
 10
55.4263578986842
 11
53.3761169348288
 20
-61.9477244543586
 21
-63.0829051772503
 62
7
  0
LINE
  6
BYLAYER
  8
0
 10
53.3761169348288
 11
53.3761169348288
 20
-63.0829051772503
 21
-63.0829051772503
 62
7
  0
LINE
  6
BYLAYER
  8
0
 10
53.4132253685637
 11
51.0247916336239
 20
-51.0757967435152
 21
-51.8272425266478
 62
7
  0
LINE
  6
BYLAYER
  8
0
 10
51.0247916336239
 11
49.514309705913
 20
-51.8272425266478
 21
-54.0596521652021
 62
7
  0
LINE
  6
BYLAYER
  8
0
 10
49.514309705913
 11
48.9290085010938
 20
-54.0596521652021
 21
-57.9214593941178
 62
7
  0
LINE
  6
BYLAYER
  8
0
 10
48.9290085010938
 11
49.8803338022987
 20
-57.9214593941178
 21
-62.5515798760455
 62
7
  0
LINE
  6
BYLAYER
  8
0
 10
49.8803338022987
 11
51.3359964529011
 20
-62.5515798760455
 21
-64.0890497555635
 62
7
  0
LINE
  6
BYLAYER
  8
0
 10
51.3359964529011
 11
53.3938277782023
 20
-64.0890497555635
 21
-64.6018208399009
 62
7
  0
LINE
  6
BYLAYER
  8
0
 10
53.3938277782023
 11
55.6591289830215
 20
-64.6018208399009
 21
-63.9608569844792
 62
7
  0
LINE
  6
BYLAYER
  8
0
 10
55.6591289830215
 11
57.183104886636
 20
-63.9608569844792
 21
-62.0759172254431
 62
7
  0
LINE
  6
BYLAYER
  8
0
 10
57.183104886636
 11
57.9708157300095
 20
-62.0759172254431
 21
-57.6465196350816
 62
7
  0
LINE
  6
BYLAYER
  8
0
 10
57.9708157300095
 11
57.0920205492866
 20
-57.6465196350816
 21
-53.1808569844791
 62
7
  0
LINE
  6
BYLAYER
  8
0
 10
57.0920205492866
 11
55.6000928384432
 20
-53.1808569844791
 21
-51.5970015627925
 62
7
  0
LINE
  6
BYLAYER
  8
0
 10
55.6000928384432
 11
53.4132253685637
 20
-51.5970015627925
 21
-51.0757967435152
 62
7
  0
LINE
  6
BYLAYER
  8
0
 10
53.4132253685637
 11
53.4132253685637
 20
-51.0757967435152
 21
-51.0757967435152
 62
7
  0
LINE
  6
BYLAYER
  8
0
 10
45.8127434408528
 11
45.8127434408528
 20
-64.2349533700214
 21
-61.0141099965275
 62
7
  0
LINE
  6
BYLAYER
  8
0
 10
45.8127434408528
 11
47.7525024769974
 20
-61.0141099965275
 21
-61.0141099965275
 62
7
  0
LINE
  6
BYLAYER
  8
0
 10
47.7525024769974
 11
47.7525024769974
 20
-61.0141099965275
 21
-59.5500136109853
 62
7
  0
LINE
  6
BYLAYER
  8
0
 10
47.7525024769974
 11
45.8127434408528
 20
-59.5500136109853
 21
-59.5500136109853
 62
7
  0
LINE
  6
BYLAYER
  8
0
 10
45.8127434408528
 11
45.8127434408528
 20
-59.5500136109853
 21
-51.0572425266478
 62
7
  0
LINE
  6
BYLAYER
  8
0
 10
45.8127434408528
 11
44.4211771757926
 20
-51.0572425266478
 21
-51.0572425266478
 62
7
  0
LINE
  6
BYLAYER
  8
0
 10
44.4211771757926
 11
38.4003338022986
 20
-51.0572425266478
 21
-59.38555577966
 62
7
  0
LINE
  6
BYLAYER
  8
0
 10
38.4003338022986
 11
38.4003338022986
 20
-59.38555577966
 21
-61.0141099965275
 62
7
  0
LINE
  6
BYLAYER
  8
0
 10
38.4003338022986
 11
44.1664783806119
 20
-61.0141099965275
 21
-61.0141099965275
 62
7
  0
LINE
  6
BYLAYER
  8
0
 10
44.1664783806119
 11
44.1664783806119
 20
-61.0141099965275
 21
-64.2349533700214
 62
7
  0
LINE
  6
BYLAYER
  8
0
 10
44.1664783806119
 11
45.8127434408528
 20
-64.2349533700214
 21
-64.2349533700214
 62
7
  0
LINE
  6
BYLAYER
  8
0
 10
45.8127434408528
 11
45.8127434408528
 20
-64.2349533700214
 21
-64.2349533700214
 62
7
  0
LINE
  6
BYLAYER
  8
0
 10
39.9200928384432
 11
44.1470807902504
 20
-59.5500136109853
 21
-53.6388087917081
 62
7
  0
LINE
  6
BYLAYER
  8
0
 10
44.1470807902504
 11
44.1470807902504
 20
-53.6388087917081
 21
-59.5500136109853
 62
7
  0
LINE
  6
BYLAYER
  8
0
 10
44.1470807902504
 11
39.9200928384432
 20
-59.5500136109853
 21
-59.5500136109853
 62
7
  0
LINE
  6
BYLAYER
  8
0
 10
39.9200928384432
 11
39.9200928384432
 20
-59.5500136109853
 21
-59.5500136109853
 62
7
  0
LINE
  6
BYLAYER
  8
0
 10
32.3929844047082
 11
32.3929844047082
 20
-54.9384473459249
 21
-64.2349533700214
 62
7
  0
LINE
  6
BYLAYER
  8
0
 10
32.3929844047082
 11
34.1674422360336
 20
-64.2349533700214
 21
-64.2349533700214
 62
7
  0
LINE
  6
BYLAYER
  8
0
 10
34.1674422360336
 11
34.1674422360336
 20
-64.2349533700214
 21
-51.1500136109852
 62
7
  0
LINE
  6
BYLAYER
  8
0
 10
34.1674422360336
 11
32.8500928384433
 20
-51.1500136109852
 21
-51.1500136109852
 62
7
  0
LINE
  6
BYLAYER
  8
0
 10
32.8500928384433
 11
31.7882856095275
 20
-51.1500136109852
 21
-53.0897726471298
 62
7
  0
LINE
  6
BYLAYER
  8
0
 10
31.7882856095275
 11
29.3180446456721
 20
-53.0897726471298
 21
-53.6750738519492
 62
7
  0
LINE
  6
BYLAYER
  8
0
 10
29.3180446456721
 11
29.3180446456721
 20
-53.6750738519492
 21
-54.9384473459249
 62
7
  0
LINE
  6
BYLAYER
  8
0
 10
29.3180446456721
 11
32.3929844047082
 20
-54.9384473459249
 21
-54.9384473459249
 62
7
  0
LINE
  6
BYLAYER
  8
0
 10
32.3929844047082
 11
32.3929844047082
 20
-54.9384473459249
 21
-54.9384473459249
 62
7
  0
LINE
  6
BYLAYER
  8
0
 10
274.555875970973
 11
274.555875970973
 20
-83.7008569844791
 21
-85.3665196350817
 62
7
  0
LINE
  6
BYLAYER
  8
0
 10
274.555875970973
 11
281.821538621576
 20
-85.3665196350817
 21
-85.3665196350817
 62
7
  0
LINE
  6
BYLAYER
  8
0
 10
281.821538621576
 11
279.185996452901
 20
-85.3665196350817
 21
-89.13555577966
 62
7
  0
LINE
  6
BYLAYER
  8
0
 10
279.185996452901
 11
276.44081573001
 20
-89.13555577966
 21
-96.6407365025515
 62
7
  0
LINE
  6
BYLAYER
  8
0
 10
276.44081573001
 11
278.25238199507
 20
-96.6407365025515
 21
-96.6407365025515
 62
7
  0
LINE
  6
BYLAYER
  8
0
 10
278.25238199507
 11
278.9481651276
 20
-96.6407365025515
 21
-93.7125437314671
 62
7
  0
LINE
  6
BYLAYER
  8
0
 10
278.9481651276
 11
280.155875970973
 20
-93.7125437314671
 21
-90.5633871049611
 62
7
  0
LINE
  6
BYLAYER
  8
0
 10
280.155875970973
 11
282.023104886636
 20
-90.5633871049611
 21
-87.3062786712262
 62
7
  0
LINE
  6
BYLAYER
  8
0
 10
282.023104886636
 11
283.688767537238
 20
-87.3062786712262
 21
-85.1270015627924
 62
7
  0
LINE
  6
BYLAYER
  8
0
 10
283.688767537238
 11
283.688767537238
 20
-85.1270015627924
 21
-83.7008569844791
 62
7
  0
LINE
  6
BYLAYER
  8
0
 10
283.688767537238
 11
274.555875970973
 20
-83.7008569844791
 21
-83.7008569844791
 62
7
  0
LINE
  6
BYLAYER
  8
0
 10
274.555875970973
 11
274.555875970973
 20
-83.7008569844791
 21
-83.7008569844791
 62
7
  0
LINE
  6
BYLAYER
  8
0
 10
264.040695248082
 11
265.413707296275
 20
-93.2908569844791
 21
-96.0723027676118
 62
7
  0
LINE
  6
BYLAYER
  8
0
 10
265.413707296275
 11
268.250815730009
 20
-96.0723027676118
 21
-96.9696521652021
 62
7
  0
LINE
  6
BYLAYER
  8
0
 10
268.250815730009
 11
270.432622958925
 20
-96.9696521652021
 21
-96.6171220447201
 62
7
  0
LINE
  6
BYLAYER
  8
0
 10
270.432622958925
 11
271.929610910732
 20
-96.6171220447201
 21
-95.5418208399008
 62
7
  0
LINE
  6
BYLAYER
  8
0
 10
271.929610910732
 11
273.082502476997
 20
-95.5418208399008
 21
-92.2653148158045
 62
7
  0
LINE
  6
BYLAYER
  8
0
 10
273.082502476997
 11
271.819972356515
 20
-92.2653148158045
 21
-89.2823027676117
 62
7
  0
LINE
  6
BYLAYER
  8
0
 10
271.819972356515
 11
268.763586814347
 20
-89.2823027676117
 21
-88.1294112013466
 62
7
  0
LINE
  6
BYLAYER
  8
0
 10
268.763586814347
 11
267.061659103503
 20
-88.1294112013466
 21
-88.4220618037563
 62
7
  0
LINE
  6
BYLAYER
  8
0
 10
267.061659103503
 11
266.18286392278
 20
-88.4220618037563
 21
-88.9525437314671
 62
7
  0
LINE
  6
BYLAYER
  8
0
 10
266.18286392278
 11
266.749610910732
 20
-88.9525437314671
 21
-85.3285678278527
 62
7
  0
LINE
  6
BYLAYER
  8
0
 10
266.749610910732
 11
272.332743440853
 20
-85.3285678278527
 21
-85.3285678278527
 62
7
  0
LINE
  6
BYLAYER
  8
0
 10
272.332743440853
 11
272.332743440853
 20
-85.3285678278527
 21
-83.7008569844791
 62
7
  0
LINE
  6
BYLAYER
  8
0
 10
272.332743440853
 11
265.523345850491
 20
-83.7008569844791
 21
-83.7008569844791
 62
7
  0
LINE
  6
BYLAYER
  8
0
 10
265.523345850491
 11
264.517201272178
 20
-83.7008569844791
 21
-90.8012184302624
 62
7
  0
LINE
  6
BYLAYER
  8
0
 10
264.517201272178
 11
265.944189223985
 20
-90.8012184302624
 21
-90.8754352977322
 62
7
  0
LINE
  6
BYLAYER
  8
0
 10
265.944189223985
 11
266.987442236034
 20
-90.8754352977322
 21
-89.9595316832743
 62
7
  0
LINE
  6
BYLAYER
  8
0
 10
266.987442236034
 11
268.432984404708
 20
-89.9595316832743
 21
-89.6297726471298
 62
7
  0
LINE
  6
BYLAYER
  8
0
 10
268.432984404708
 11
270.446960308323
 20
-89.6297726471298
 21
-90.3812184302623
 62
7
  0
LINE
  6
BYLAYER
  8
0
 10
270.446960308323
 11
271.288647055311
 20
-90.3812184302623
 21
-92.5217003579732
 62
7
  0
LINE
  6
BYLAYER
  8
0
 10
271.288647055311
 11
270.575996452901
 20
-92.5217003579732
 21
-94.590495538696
 62
7
  0
LINE
  6
BYLAYER
  8
0
 10
270.575996452901
 11
268.415273561335
 20
-94.590495538696
 21
-95.5232666230335
 62
7
  0
LINE
  6
BYLAYER
  8
0
 10
268.415273561335
 11
267.061659103503
 20
-95.5232666230335
 21
-95.2491702374913
 62
7
  0
LINE
  6
BYLAYER
  8
0
 10
267.061659103503
 11
265.743466332419
 20
-95.2491702374913
 21
-93.2908569844791
 62
7
  0
LINE
  6
BYLAYER
  8
0
 10
265.743466332419
 11
264.040695248082
 20
-93.2908569844791
 21
-93.2908569844791
 62
7
  0
LINE
  6
BYLAYER
  8
0
 10
264.040695248082
 11
264.040695248082
 20
-93.2908569844791
 21
-93.2908569844791
 62
7
  0
LINE
  6
BYLAYER
  8
0
 10
222.270092838443
 11
223.643104886636
 20
-92.9012184302624
 21
-95.6835075868889
 62
7
  0
LINE
  6
BYLAYER
  8
0
 10
223.643104886636
 11
226.480213320371
 20
-95.6835075868889
 21
-96.5808569844791
 62
7
  0
LINE
  6
BYLAYER
  8
0
 10
226.480213320371
 11
228.662020549287
 20
-96.5808569844791
 21
-96.2283268639972
 62
7
  0
LINE
  6
BYLAYER
  8
0
 10
228.662020549287
 11
230.159008501094
 20
-96.2283268639972
 21
-95.153025659178
 62
7
  0
LINE
  6
BYLAYER
  8
0
 10
230.159008501094
 11
231.311900067359
 20
-95.153025659178
 21
-91.8765196350816
 62
7
  0
LINE
  6
BYLAYER
  8
0
 10
231.311900067359
 11
230.049369946877
 20
-91.8765196350816
 21
-88.8935075868888
 62
7
  0
LINE
  6
BYLAYER
  8
0
 10
230.049369946877
 11
226.992984404708
 20
-88.8935075868888
 21
-87.7406160206238
 62
7
  0
LINE
  6
BYLAYER
  8
0
 10
226.992984404708
 11
225.290213320371
 20
-87.7406160206238
 21
-88.0332666230333
 62
7
  0
LINE
  6
BYLAYER
  8
0
 10
225.290213320371
 11
224.411418139648
 20
-88.0332666230333
 21
-88.5637485507442
 62
7
  0
LINE
  6
BYLAYER
  8
0
 10
224.411418139648
 11
224.979851874588
 20
-88.5637485507442
 21
-84.9397726471298
 62
7
  0
LINE
  6
BYLAYER
  8
0
 10
224.979851874588
 11
230.56129765772
 20
-84.9397726471298
 21
-84.9397726471298
 62
7
  0
LINE
  6
BYLAYER
  8
0
 10
230.56129765772
 11
230.56129765772
 20
-84.9397726471298
 21
-83.3120618037564
 62
7
  0
LINE
  6
BYLAYER
  8
0
 10
230.56129765772
 11
223.752743440853
 20
-83.3120618037564
 21
-83.3120618037564
 62
7
  0
LINE
  6
BYLAYER
  8
0
 10
223.752743440853
 11
222.74659886254
 20
-83.3120618037564
 21
-90.4124232495395
 62
7
  0
LINE
  6
BYLAYER
  8
0
 10
222.74659886254
 11
224.173586814347
 20
-90.4124232495395
 21
-90.4866401170092
 62
7
  0
LINE
  6
BYLAYER
  8
0
 10
224.173586814347
 11
225.217683199889
 20
-90.4866401170092
 21
-89.5698931290576
 62
7
  0
LINE
  6
BYLAYER
  8
0
 10
225.217683199889
 11
226.663225368564
 20
-89.5698931290576
 21
-89.2409774664069
 62
7
  0
LINE
  6
BYLAYER
  8
0
 10
226.663225368564
 11
228.676357898684
 20
-89.2409774664069
 21
-89.9915798760455
 62
7
  0
LINE
  6
BYLAYER
  8
0
 10
228.676357898684
 11
229.518888019166
 20
-89.9915798760455
 21
-92.1329051772503
 62
7
  0
LINE
  6
BYLAYER
  8
0
 10
229.518888019166
 11
228.803707296275
 20
-92.1329051772503
 21
-94.2008569844792
 62
7
  0
LINE
  6
BYLAYER
  8
0
 10
228.803707296275
 11
226.64551452519
 20
-94.2008569844792
 21
-95.1344714423104
 62
7
  0
LINE
  6
BYLAYER
  8
0
 10
226.64551452519
 11
225.290213320371
 20
-95.1344714423104
 21
-94.8603750567683
 62
7
  0
LINE
  6
BYLAYER
  8
0
 10
225.290213320371
 11
223.972020549287
 20
-94.8603750567683
 21
-92.9012184302624
 62
7
  0
LINE
  6
BYLAYER
  8
0
 10
223.972020549287
 11
222.270092838443
 20
-92.9012184302624
 21
-92.9012184302624
 62
7
  0
LINE
  6
BYLAYER
  8
0
 10
222.270092838443
 11
222.270092838443
 20
-92.9012184302624
 21
-92.9012184302624
 62
7
  0
LINE
  6
BYLAYER
  8
0
 10
218.014430187841
 11
219.534189223985
 20
-99.0325437314672
 21
-98.0263991531538
 62
7
  0
LINE
  6
BYLAYER
  8
0
 10
219.534189223985
 11
219.973586814347
 20
-98.0263991531538
 21
-96.1043509603828
 62
7
  0
LINE
  6
BYLAYER
  8
0
 10
219.973586814347
 11
219.973586814347
 20
-96.1043509603828
 21
-94.2556762615876
 62
7
  0
LINE
  6
BYLAYER
  8
0
 10
219.973586814347
 11
218.014430187841
 20
-94.2556762615876
 21
-94.2556762615876
 62
7
  0
LINE
  6
BYLAYER
  8
0
 10
218.014430187841
 11
218.014430187841
 20
-94.2556762615876
 21
-96.2502545748406
 62
7
  0
LINE
  6
BYLAYER
  8
0
 10
218.014430187841
 11
219.022261513142
 20
-96.2502545748406
 21
-96.2502545748406
 62
7
  0
LINE
  6
BYLAYER
  8
0
 10
219.022261513142
 11
219.039972356516
 20
-96.2502545748406
 21
-96.3607365025515
 62
7
  0
LINE
  6
BYLAYER
  8
0
 10
219.039972356516
 11
219.039972356516
 20
-96.3607365025515
 21
-96.4703750567683
 62
7
  0
LINE
  6
BYLAYER
  8
0
 10
219.039972356516
 11
218.911779585431
 20
-96.4703750567683
 21
-97.2757967435153
 62
7
  0
LINE
  6
BYLAYER
  8
0
 10
218.911779585431
 11
218.014430187841
 20
-97.2757967435153
 21
-98.1723027676118
 62
7
  0
LINE
  6
BYLAYER
  8
0
 10
218.014430187841
 11
218.014430187841
 20
-98.1723027676118
 21
-99.0325437314672
 62
7
  0
LINE
  6
BYLAYER
  8
0
 10
218.014430187841
 11
218.014430187841
 20
-99.0325437314672
 21
-99.0325437314672
 62
7
  0
LINE
  6
BYLAYER
  8
0
 10
206.736839826395
 11
206.736839826395
 20
-83.3120618037564
 21
-84.9760377073707
 62
7
  0
LINE
  6
BYLAYER
  8
0
 10
206.736839826395
 11
214.002502476997
 20
-84.9760377073707
 21
-84.9760377073707
 62
7
  0
LINE
  6
BYLAYER
  8
0
 10
214.002502476997
 11
211.366960308323
 20
-84.9760377073707
 21
-88.746760598937
 62
7
  0
LINE
  6
BYLAYER
  8
0
 10
211.366960308323
 11
208.621779585431
 20
-88.746760598937
 21
-96.2502545748406
 62
7
  0
LINE
  6
BYLAYER
  8
0
 10
208.621779585431
 11
210.433345850491
 20
-96.2502545748406
 21
-96.2502545748406
 62
7
  0
LINE
  6
BYLAYER
  8
0
 10
210.433345850491
 11
211.129128983022
 20
-96.2502545748406
 21
-93.3220618037564
 62
7
  0
LINE
  6
BYLAYER
  8
0
 10
211.129128983022
 11
212.336839826395
 20
-93.3220618037564
 21
-90.1745919242383
 62
7
  0
LINE
  6
BYLAYER
  8
0
 10
212.336839826395
 11
214.204068742058
 20
-90.1745919242383
 21
-86.9174834905033
 62
7
  0
LINE
  6
BYLAYER
  8
0
 10
214.204068742058
 11
215.868888019166
 20
-86.9174834905033
 21
-84.7382063820696
 62
7
  0
LINE
  6
BYLAYER
  8
0
 10
215.868888019166
 11
215.868888019166
 20
-84.7382063820696
 21
-83.3120618037564
 62
7
  0
LINE
  6
BYLAYER
  8
0
 10
215.868888019166
 11
206.736839826395
 20
-83.3120618037564
 21
-83.3120618037564
 62
7
  0
LINE
  6
BYLAYER
  8
0
 10
206.736839826395
 11
206.736839826395
 20
-83.3120618037564
 21
-83.3120618037564
 62
7
  0
LINE
  6
BYLAYER
  8
0
 10
342.667562717961
 11
345.449851874588
 20
36.7936008468461
 21
38.1657695215449
 62
7
  0
LINE
  6
BYLAYER
  8
0
 10
345.449851874588
 11
346.347201272178
 20
38.1657695215449
 21
41.0028779552799
 62
7
  0
LINE
  6
BYLAYER
  8
0
 10
346.347201272178
 11
345.994671151696
 20
41.0028779552799
 21
43.1863719311834
 62
7
  0
LINE
  6
BYLAYER
  8
0
 10
345.994671151696
 11
344.919369946877
 20
43.1863719311834
 21
44.6816731360027
 62
7
  0
LINE
  6
BYLAYER
  8
0
 10
344.919369946877
 11
341.642863922781
 20
44.6816731360027
 21
45.8345647022679
 62
7
  0
LINE
  6
BYLAYER
  8
0
 10
341.642863922781
 11
338.660695248082
 20
45.8345647022679
 21
44.5720345817859
 62
7
  0
LINE
  6
BYLAYER
  8
0
 10
338.660695248082
 11
337.506960308323
 20
44.5720345817859
 21
41.5156490396172
 62
7
  0
LINE
  6
BYLAYER
  8
0
 10
337.506960308323
 11
337.799610910732
 20
41.5156490396172
 21
39.8137213287739
 62
7
  0
LINE
  6
BYLAYER
  8
0
 10
337.799610910732
 11
338.330092838443
 20
39.8137213287739
 21
38.9349261480509
 62
7
  0
LINE
  6
BYLAYER
  8
0
 10
338.330092838443
 11
334.706960308323
 20
38.9349261480509
 21
39.5025165094968
 62
7
  0
LINE
  6
BYLAYER
  8
0
 10
334.706960308323
 11
334.706960308323
 20
39.5025165094968
 21
45.0848056661233
 62
7
  0
LINE
  6
BYLAYER
  8
0
 10
334.706960308323
 11
333.077562717961
 20
45.0848056661233
 21
45.0848056661233
 62
7
  0
LINE
  6
BYLAYER
  8
0
 10
333.077562717961
 11
333.077562717961
 20
45.0848056661233
 21
38.2754080757619
 62
7
  0
LINE
  6
BYLAYER
  8
0
 10
333.077562717961
 11
340.178767537238
 20
38.2754080757619
 21
37.2692634974485
 62
7
  0
LINE
  6
BYLAYER
  8
0
 10
340.178767537238
 11
340.252141031214
 20
37.2692634974485
 21
38.6970948227498
 62
7
  0
LINE
  6
BYLAYER
  8
0
 10
340.252141031214
 11
339.33708079025
 20
38.6970948227498
 21
39.7403478347979
 62
7
  0
LINE
  6
BYLAYER
  8
0
 10
339.33708079025
 11
339.007321754106
 20
39.7403478347979
 21
41.1867333769667
 62
7
  0
LINE
  6
BYLAYER
  8
0
 10
339.007321754106
 11
339.757924163744
 20
41.1867333769667
 21
43.1990225335931
 62
7
  0
LINE
  6
BYLAYER
  8
0
 10
339.757924163744
 11
341.899249464949
 20
43.1990225335931
 21
44.041552654075
 62
7
  0
LINE
  6
BYLAYER
  8
0
 10
341.899249464949
 11
343.968044645672
 20
44.041552654075
 21
43.3280586781713
 62
7
  0
LINE
  6
BYLAYER
  8
0
 10
343.968044645672
 11
344.901659103504
 20
43.3280586781713
 21
41.1681791600992
 62
7
  0
LINE
  6
BYLAYER
  8
0
 10
344.901659103504
 11
344.625875970973
 20
41.1681791600992
 21
39.8137213287739
 62
7
  0
LINE
  6
BYLAYER
  8
0
 10
344.625875970973
 11
342.667562717961
 20
39.8137213287739
 21
38.4963719311835
 62
7
  0
LINE
  6
BYLAYER
  8
0
 10
342.667562717961
 11
342.667562717961
 20
38.4963719311835
 21
36.7936008468461
 62
7
  0
LINE
  6
BYLAYER
  8
0
 10
342.667562717961
 11
342.667562717961
 20
36.7936008468461
 21
36.7936008468461
 62
7
  0
LINE
  6
BYLAYER
  8
0
 10
346.017442236034
 11
342.79659886254
 20
33.6545647022677
 21
33.6545647022677
 62
7
  0
LINE
  6
BYLAYER
  8
0
 10
342.79659886254
 11
342.79659886254
 20
33.6545647022677
 21
35.5943237384125
 62
7
  0
LINE
  6
BYLAYER
  8
0
 10
342.79659886254
 11
341.332502476997
 20
35.5943237384125
 21
35.5943237384125
 62
7
  0
LINE
  6
BYLAYER
  8
0
 10
341.332502476997
 11
341.332502476997
 20
35.5943237384125
 21
33.6545647022677
 62
7
  0
LINE
  6
BYLAYER
  8
0
 10
341.332502476997
 11
332.83973139266
 20
33.6545647022677
 21
33.6545647022677
 62
7
  0
LINE
  6
BYLAYER
  8
0
 10
332.83973139266
 11
332.83973139266
 20
33.6545647022677
 21
32.2629984372076
 62
7
  0
LINE
  6
BYLAYER
  8
0
 10
332.83973139266
 11
341.167201272178
 20
32.2629984372076
 21
26.2421550637136
 62
7
  0
LINE
  6
BYLAYER
  8
0
 10
341.167201272178
 11
342.79659886254
 20
26.2421550637136
 21
26.2421550637136
 62
7
  0
LINE
  6
BYLAYER
  8
0
 10
342.79659886254
 11
342.79659886254
 20
26.2421550637136
 21
32.0074562685329
 62
7
  0
LINE
  6
BYLAYER
  8
0
 10
342.79659886254
 11
346.017442236034
 20
32.0074562685329
 21
32.0074562685329
 62
7
  0
LINE
  6
BYLAYER
  8
0
 10
346.017442236034
 11
346.017442236034
 20
32.0074562685329
 21
33.6545647022677
 62
7
  0
LINE
  6
BYLAYER
  8
0
 10
346.017442236034
 11
346.017442236034
 20
33.6545647022677
 21
33.6545647022677
 62
7
  0
LINE
  6
BYLAYER
  8
0
 10
341.332502476997
 11
335.420454284226
 20
27.7619140998581
 21
31.9889020516653
 62
7
  0
LINE
  6
BYLAYER
  8
0
 10
335.420454284226
 11
341.332502476997
 20
31.9889020516653
 21
31.9889020516653
 62
7
  0
LINE
  6
BYLAYER
  8
0
 10
341.332502476997
 11
341.332502476997
 20
31.9889020516653
 21
27.7619140998581
 62
7
  0
LINE
  6
BYLAYER
  8
0
 10
341.332502476997
 11
341.332502476997
 20
27.7619140998581
 21
27.7619140998581
 62
7
  0
LINE
  6
BYLAYER
  8
0
 10
274.857803681817
 11
276.230815730009
 20
-59.3214593941178
 21
-62.1029051772503
 62
7
  0
LINE
  6
BYLAYER
  8
0
 10
276.230815730009
 11
279.067924163744
 20
-62.1029051772503
 21
-63.0002545748406
 62
7
  0
LINE
  6
BYLAYER
  8
0
 10
279.067924163744
 11
281.24973139266
 20
-63.0002545748406
 21
-62.6477244543587
 62
7
  0
LINE
  6
BYLAYER
  8
0
 10
281.24973139266
 11
282.745875970973
 20
-62.6477244543587
 21
-61.5724232495394
 62
7
  0
LINE
  6
BYLAYER
  8
0
 10
282.745875970973
 11
283.899610910732
 20
-61.5724232495394
 21
-58.2967605989371
 62
7
  0
LINE
  6
BYLAYER
  8
0
 10
283.899610910732
 11
282.636237416757
 20
-58.2967605989371
 21
-55.3129051772503
 62
7
  0
LINE
  6
BYLAYER
  8
0
 10
282.636237416757
 11
279.579851874588
 20
-55.3129051772503
 21
-54.1600136109853
 62
7
  0
LINE
  6
BYLAYER
  8
0
 10
279.579851874588
 11
277.877924163744
 20
-54.1600136109853
 21
-54.4535075868888
 62
7
  0
LINE
  6
BYLAYER
  8
0
 10
277.877924163744
 11
276.999128983021
 20
-54.4535075868888
 21
-54.9839895145996
 62
7
  0
LINE
  6
BYLAYER
  8
0
 10
276.999128983021
 11
277.565875970973
 20
-54.9839895145996
 21
-51.3600136109852
 62
7
  0
LINE
  6
BYLAYER
  8
0
 10
277.565875970973
 11
283.149008501094
 20
-51.3600136109852
 21
-51.3600136109852
 62
7
  0
LINE
  6
BYLAYER
  8
0
 10
283.149008501094
 11
283.149008501094
 20
-51.3600136109852
 21
-49.7314593941177
 62
7
  0
LINE
  6
BYLAYER
  8
0
 10
283.149008501094
 11
276.339610910732
 20
-49.7314593941177
 21
-49.7314593941177
 62
7
  0
LINE
  6
BYLAYER
  8
0
 10
276.339610910732
 11
275.333466332419
 20
-49.7314593941177
 21
-56.8318208399008
 62
7
  0
LINE
  6
BYLAYER
  8
0
 10
275.333466332419
 11
276.76129765772
 20
-56.8318208399008
 21
-56.9060377073707
 62
7
  0
LINE
  6
BYLAYER
  8
0
 10
276.76129765772
 11
277.803707296274
 20
-56.9060377073707
 21
-55.990134092913
 62
7
  0
LINE
  6
BYLAYER
  8
0
 10
277.803707296274
 11
279.250936211937
 20
-55.990134092913
 21
-55.6612184302624
 62
7
  0
LINE
  6
BYLAYER
  8
0
 10
279.250936211937
 11
281.264068742058
 20
-55.6612184302624
 21
-56.4118208399009
 62
7
  0
LINE
  6
BYLAYER
  8
0
 10
281.264068742058
 11
282.104912115552
 20
-56.4118208399009
 21
-58.5531461411056
 62
7
  0
LINE
  6
BYLAYER
  8
0
 10
282.104912115552
 11
281.392261513142
 20
-58.5531461411056
 21
-60.6210979483347
 62
7
  0
LINE
  6
BYLAYER
  8
0
 10
281.392261513142
 11
279.231538621576
 20
-60.6210979483347
 21
-61.5538690326719
 62
7
  0
LINE
  6
BYLAYER
  8
0
 10
279.231538621576
 11
277.877924163744
 20
-61.5538690326719
 21
-61.2797726471297
 62
7
  0
LINE
  6
BYLAYER
  8
0
 10
277.877924163744
 11
276.55973139266
 20
-61.2797726471297
 21
-59.3214593941178
 62
7
  0
LINE
  6
BYLAYER
  8
0
 10
276.55973139266
 11
274.857803681817
 20
-59.3214593941178
 21
-59.3214593941178
 62
7
  0
LINE
  6
BYLAYER
  8
0
 10
274.857803681817
 11
274.857803681817
 20
-59.3214593941178
 21
-59.3214593941178
 62
7
  0
LINE
  6
BYLAYER
  8
0
 10
270.602984404708
 11
272.121900067359
 20
-65.4536280688165
 21
-64.4457967435154
 62
7
  0
LINE
  6
BYLAYER
  8
0
 10
272.121900067359
 11
272.56129765772
 20
-64.4457967435154
 21
-62.5245919242382
 62
7
  0
LINE
  6
BYLAYER
  8
0
 10
272.56129765772
 11
272.56129765772
 20
-62.5245919242382
 21
-60.6750738519491
 62
7
  0
LINE
  6
BYLAYER
  8
0
 10
272.56129765772
 11
270.602984404708
 20
-60.6750738519491
 21
-60.6750738519491
 62
7
  0
LINE
  6
BYLAYER
  8
0
 10
270.602984404708
 11
270.602984404708
 20
-60.6750738519491
 21
-62.6713389121901
 62
7
  0
LINE
  6
BYLAYER
  8
0
 10
270.602984404708
 11
271.609128983022
 20
-62.6713389121901
 21
-62.6713389121901
 62
7
  0
LINE
  6
BYLAYER
  8
0
 10
271.609128983022
 11
271.627683199889
 20
-62.6713389121901
 21
-62.780134092913
 62
7
  0
LINE
  6
BYLAYER
  8
0
 10
271.627683199889
 11
271.627683199889
 20
-62.780134092913
 21
-62.8906160206237
 62
7
  0
LINE
  6
BYLAYER
  8
0
 10
271.627683199889
 11
271.499490428805
 20
-62.8906160206237
 21
-63.6960377073707
 62
7
  0
LINE
  6
BYLAYER
  8
0
 10
271.499490428805
 11
270.602984404708
 20
-63.6960377073707
 21
-64.5925437314672
 62
7
  0
LINE
  6
BYLAYER
  8
0
 10
270.602984404708
 11
270.602984404708
 20
-64.5925437314672
 21
-65.4536280688165
 62
7
  0
LINE
  6
BYLAYER
  8
0
 10
270.602984404708
 11
270.602984404708
 20
-65.4536280688165
 21
-65.4536280688165
 62
7
  0
LINE
  6
BYLAYER
  8
0
 10
263.514430187841
 11
267.028767537238
 20
-63.0365196350816
 21
-61.8465196350816
 62
7
  0
LINE
  6
BYLAYER
  8
0
 10
267.028767537238
 11
268.273586814347
 20
-61.8465196350816
 21
-58.7715798760454
 62
7
  0
LINE
  6
BYLAYER
  8
0
 10
268.273586814347
 11
267.688285609528
 20
-58.7715798760454
 21
-56.7955557796599
 62
7
  0
LINE
  6
BYLAYER
  8
0
 10
267.688285609528
 11
266.077442236034
 20
-56.7955557796599
 21
-55.6974834905033
 62
7
  0
LINE
  6
BYLAYER
  8
0
 10
266.077442236034
 11
267.102141031214
 20
-55.6974834905033
 21
-54.9654352977323
 62
7
  0
LINE
  6
BYLAYER
  8
0
 10
267.102141031214
 11
267.76081573001
 20
-54.9654352977323
 21
-52.9885678278528
 62
7
  0
LINE
  6
BYLAYER
  8
0
 10
267.76081573001
 11
266.663586814347
 20
-52.9885678278528
 21
-50.4086883097803
 62
7
  0
LINE
  6
BYLAYER
  8
0
 10
266.663586814347
 11
263.550695248082
 20
-50.4086883097803
 21
-49.5113389121901
 62
7
  0
LINE
  6
BYLAYER
  8
0
 10
263.550695248082
 11
261.396719344467
 20
-49.5113389121901
 21
-49.9642304784551
 62
7
  0
LINE
  6
BYLAYER
  8
0
 10
261.396719344467
 11
260.000936211937
 20
-49.9642304784551
 21
-51.3423027676117
 62
7
  0
LINE
  6
BYLAYER
  8
0
 10
260.000936211937
 11
259.414791633624
 20
-51.3423027676117
 21
-53.8310979483346
 62
7
  0
LINE
  6
BYLAYER
  8
0
 10
259.414791633624
 11
261.080454284226
 20
-53.8310979483346
 21
-53.8310979483346
 62
7
  0
LINE
  6
BYLAYER
  8
0
 10
261.080454284226
 11
261.465032597479
 20
-53.8310979483346
 21
-52.1106160206238
 62
7
  0
LINE
  6
BYLAYER
  8
0
 10
261.465032597479
 11
263.734550669769
 20
-52.1106160206238
 21
-51.0117003579731
 62
7
  0
LINE
  6
BYLAYER
  8
0
 10
263.734550669769
 11
265.363104886636
 20
-51.0117003579731
 21
-51.5438690326719
 62
7
  0
LINE
  6
BYLAYER
  8
0
 10
265.363104886636
 11
266.058888019166
 20
-51.5438690326719
 21
-53.0619413218286
 62
7
  0
LINE
  6
BYLAYER
  8
0
 10
266.058888019166
 11
264.997924163744
 20
-53.0619413218286
 21
-54.8920618037562
 62
7
  0
LINE
  6
BYLAYER
  8
0
 10
264.997924163744
 11
263.4781651276
 20
-54.8920618037562
 21
-55.1855557796599
 62
7
  0
LINE
  6
BYLAYER
  8
0
 10
263.4781651276
 11
263.094430187841
 20
-55.1855557796599
 21
-55.1661581892984
 62
7
  0
LINE
  6
BYLAYER
  8
0
 10
263.094430187841
 11
262.672743440853
 20
-55.1661581892984
 21
-55.1298931290575
 62
7
  0
LINE
  6
BYLAYER
  8
0
 10
262.672743440853
 11
262.672743440853
 20
-55.1298931290575
 21
-56.5939895145997
 62
7
  0
LINE
  6
BYLAYER
  8
0
 10
262.672743440853
 11
263.002502476997
 20
-56.5939895145997
 21
-56.5754352977322
 62
7
  0
LINE
  6
BYLAYER
  8
0
 10
263.002502476997
 11
263.35081573001
 20
-56.5754352977322
 21
-56.5754352977322
 62
7
  0
LINE
  6
BYLAYER
  8
0
 10
263.35081573001
 11
265.655755489046
 20
-56.5754352977322
 21
-57.1253148158045
 62
7
  0
LINE
  6
BYLAYER
  8
0
 10
265.655755489046
 11
266.47973139266
 20
-57.1253148158045
 21
-59.0288087917081
 62
7
  0
LINE
  6
BYLAYER
  8
0
 10
266.47973139266
 11
265.693707296275
 20
-59.0288087917081
 21
-60.8218208399009
 62
7
  0
LINE
  6
BYLAYER
  8
0
 10
265.693707296275
 11
263.606357898684
 20
-60.8218208399009
 21
-61.5176039724309
 62
7
  0
LINE
  6
BYLAYER
  8
0
 10
263.606357898684
 11
261.282020549287
 20
-61.5176039724309
 21
-60.4929051772502
 62
7
  0
LINE
  6
BYLAYER
  8
0
 10
261.282020549287
 11
260.806357898684
 20
-60.4929051772502
 21
-58.6256762615877
 62
7
  0
LINE
  6
BYLAYER
  8
0
 10
260.806357898684
 11
259.085875970973
 20
-58.6256762615877
 21
-58.6256762615877
 62
7
  0
LINE
  6
BYLAYER
  8
0
 10
259.085875970973
 11
260.129128983022
 20
-58.6256762615877
 21
-61.7554352977322
 62
7
  0
LINE
  6
BYLAYER
  8
0
 10
260.129128983022
 11
261.497924163744
 20
-61.7554352977322
 21
-62.7126642133949
 62
7
  0
LINE
  6
BYLAYER
  8
0
 10
261.497924163744
 11
263.514430187841
 20
-62.7126642133949
 21
-63.0365196350816
 62
7
  0
LINE
  6
BYLAYER
  8
0
 10
263.514430187841
 11
263.514430187841
 20
-63.0365196350816
 21
-63.0365196350816
 62
7
  0
LINE
  6
BYLAYER
  8
0
 10
256.097803681817
 11
256.097803681817
 20
-62.6713389121901
 21
-59.450495538696
 62
7
  0
LINE
  6
BYLAYER
  8
0
 10
256.097803681817
 11
258.037562717961
 20
-59.450495538696
 21
-59.450495538696
 62
7
  0
LINE
  6
BYLAYER
  8
0
 10
258.037562717961
 11
258.037562717961
 20
-59.450495538696
 21
-57.98555577966
 62
7
  0
LINE
  6
BYLAYER
  8
0
 10
258.037562717961
 11
256.097803681817
 20
-57.98555577966
 21
-57.98555577966
 62
7
  0
LINE
  6
BYLAYER
  8
0
 10
256.097803681817
 11
256.097803681817
 20
-57.98555577966
 21
-49.4936280688166
 62
7
  0
LINE
  6
BYLAYER
  8
0
 10
256.097803681817
 11
254.70708079025
 20
-49.4936280688166
 21
-49.4936280688166
 62
7
  0
LINE
  6
BYLAYER
  8
0
 10
254.70708079025
 11
248.685394043262
 20
-49.4936280688166
 21
-57.8210979483346
 62
7
  0
LINE
  6
BYLAYER
  8
0
 10
248.685394043262
 11
248.685394043262
 20
-57.8210979483346
 21
-59.450495538696
 62
7
  0
LINE
  6
BYLAYER
  8
0
 10
248.685394043262
 11
254.450695248082
 20
-59.450495538696
 21
-59.450495538696
 62
7
  0
LINE
  6
BYLAYER
  8
0
 10
254.450695248082
 11
254.450695248082
 20
-59.450495538696
 21
-62.6713389121901
 62
7
  0
LINE
  6
BYLAYER
  8
0
 10
254.450695248082
 11
256.097803681817
 20
-62.6713389121901
 21
-62.6713389121901
 62
7
  0
LINE
  6
BYLAYER
  8
0
 10
256.097803681817
 11
256.097803681817
 20
-62.6713389121901
 21
-62.6713389121901
 62
7
  0
LINE
  6
BYLAYER
  8
0
 10
250.204309705913
 11
254.432141031214
 20
-57.98555577966
 21
-52.0743509603827
 62
7
  0
LINE
  6
BYLAYER
  8
0
 10
254.432141031214
 11
254.432141031214
 20
-52.0743509603827
 21
-57.98555577966
 62
7
  0
LINE
  6
BYLAYER
  8
0
 10
254.432141031214
 11
250.204309705913
 20
-57.98555577966
 21
-57.98555577966
 62
7
  0
LINE
  6
BYLAYER
  8
0
 10
250.204309705913
 11
250.204309705913
 20
-57.98555577966
 21
-57.98555577966
 62
7
  0
LINE
  6
BYLAYER
  8
0
 10
-35.5000999326411
 11
-27.433316800111
 20
24.4980586781714
 21
24.4980586781714
 62
7
  0
LINE
  6
BYLAYER
  8
0
 10
-38.6756541495085
 11
-27.2365577639664
 20
47.6326369914245
 21
47.6326369914245
 62
7
  0
LINE
  6
BYLAYER
  8
0
 10
-35.2347746314362
 11
-27.6025818603519
 20
19.0304683167256
 21
19.0304683167256
 62
7
  0
LINE
  6
BYLAYER
  8
0
 10
-40.4326541495085
 11
-38.6756541495085
 20
53.4164924131112
 21
47.6326369914245
 62
7
  0
LINE
  6
BYLAYER
  8
0
 10
-38.6756541495085
 11
-38.0899312579423
 20
47.6326369914245
 21
43.972396027569
 62
7
  0
LINE
  6
BYLAYER
  8
0
 10
-38.0899312579423
 11
-37.3578830651712
 20
43.972396027569
 21
39.1398659070871
 62
7
  0
LINE
  6
BYLAYER
  8
0
 10
-37.3578830651712
 11
-36.1910758362555
 20
39.1398659070871
 21
28.9046851841956
 62
7
  0
LINE
  6
BYLAYER
  8
0
 10
-36.1910758362555
 11
-35.2347746314362
 20
28.9046851841956
 21
18.6416731360028
 62
7
  0
LINE
  6
BYLAYER
  8
0
 10
-40.4326541495085
 11
-27.2365577639664
 20
53.1963719311834
 21
53.1963719311834
 62
7
  0
LINE
  6
BYLAYER
  8
0
 10
112.836478380612
 11
118.651538621576
 20
19.1544442203401
 21
19.1544442203401
 62
7
  0
LINE
  6
BYLAYER
  8
0
 10
112.836478380612
 11
120.115635007118
 20
24.5722755456413
 21
24.5722755456413
 62
7
  0
LINE
  6
BYLAYER
  8
0
 10
112.836478380612
 11
122.458526573383
 20
47.7060104854004
 21
47.7060104854004
 62
7
  0
LINE
  6
BYLAYER
  8
0
 10
112.836478380612
 11
123.55659886254
 20
53.2705887986533
 21
53.2705887986533
 62
7
  0
LINE
  6
BYLAYER
  8
0
 10
123.441900067359
 11
123.222622958925
 20
53.5539622926292
 21
50.552396027569
 62
7
  0
LINE
  6
BYLAYER
  8
0
 10
123.222622958925
 11
122.637321754106
 20
50.552396027569
 21
48.5029984372075
 62
7
  0
LINE
  6
BYLAYER
  8
0
 10
122.637321754106
 11
122.197924163744
 20
48.5029984372075
 21
43.6713116902195
 62
7
  0
LINE
  6
BYLAYER
  8
0
 10
122.197924163744
 11
121.465875970973
 20
43.6713116902195
 21
40.7422755456413
 62
7
  0
LINE
  6
BYLAYER
  8
0
 10
121.465875970973
 11
121.282020549287
 20
40.7422755456413
 21
36.4410707263642
 62
7
  0
LINE
  6
BYLAYER
  8
0
 10
121.282020549287
 11
120.880574766154
 20
36.4410707263642
 21
32.2503478347979
 62
7
  0
LINE
  6
BYLAYER
  8
0
 10
120.880574766154
 11
120.441177175793
 20
32.2503478347979
 21
28.7360104854003
 62
7
  0
LINE
  6
BYLAYER
  8
0
 10
120.441177175793
 11
120.001779585431
 20
28.7360104854003
 21
24.1969743408219
 62
7
  0
LINE
  6
BYLAYER
  8
0
 10
120.001779585431
 11
119.122984404708
 20
24.1969743408219
 21
21.4155285576896
 62
7
  0
LINE
  6
BYLAYER
  8
0
 10
119.122984404708
 11
118.504791633624
 20
21.4155285576896
 21
18.7150466299787
 62
7
  0
LINE
  6
BYLAYER
  8
0
 10
112.529490428805
 11
-27.1085336675809
 20
-68.0419413218286
 21
-68.0419413218286
 62
7
  0
LINE
  6
BYLAYER
  8
0
 10
112.592743440853
 11
112.592743440853
 20
-20.5245919242383
 21
-71.5562786712262
 62
7
  0
LINE
  6
BYLAYER
  8
0
 10
-27.0672927037254
 11
-27.0672927037254
 20
-22.8455557796599
 21
-72.334712406166
 62
7
  0
LINE
  6
BYLAYER
  8
0
 10
-77.0374252338459
 11
-77.0374252338459
 20
-17.9851943338768
 21
89.7017936179304
 62
7
  0
LINE
  6
BYLAYER
  8
0
 10
-32.5260276434844
 11
-79.965786679629
 20
-17.9851943338768
 21
-17.9851943338768
 62
7
  0
LINE
  6
BYLAYER
  8
0
 10
-33.1116661977013
 11
-80.624630053123
 20
89.7017936179304
 21
89.7017936179304
 62
7
  0
LINE
  6
BYLAYER
  8
0
 10
351.353466332419
 11
351.353466332419
 20
72.8638418107015
 21
-1.51748349050331
 62
7
  0
LINE
  6
BYLAYER
  8
0
 10
303.693586814347
 11
356.097442236034
 20
58.0786610878099
 21
58.0786610878099
 62
7
  0
LINE
  6
BYLAYER
  8
0
 10
305.258044645672
 11
356.110936211937
 20
13.7593839793762
 21
13.7593839793762
 62
7
  0
LINE
  6
BYLAYER
  8
0
 10
244.832863922781
 11
246.004309705913
 20
-102.889290719419
 21
-102.400134092913
 62
7
  0
LINE
  6
BYLAYER
  8
0
 10
246.004309705913
 11
246.493466332419
 20
-102.400134092913
 21
-101.22868830978
 62
7
  0
LINE
  6
BYLAYER
  8
0
 10
246.493466332419
 11
246.004309705913
 20
-101.22868830978
 21
-100.053869032672
 62
7
  0
LINE
  6
BYLAYER
  8
0
 10
246.004309705913
 11
244.832863922781
 20
-100.053869032672
 21
-99.5689292736358
 62
7
  0
LINE
  6
BYLAYER
  8
0
 10
244.832863922781
 11
243.657201272178
 20
-99.5689292736358
 21
-100.053869032672
 62
7
  0
LINE
  6
BYLAYER
  8
0
 10
243.657201272178
 11
243.172261513142
 20
-100.053869032672
 21
-101.22868830978
 62
7
  0
LINE
  6
BYLAYER
  8
0
 10
243.172261513142
 11
243.657201272178
 20
-101.22868830978
 21
-102.400134092913
 62
7
  0
LINE
  6
BYLAYER
  8
0
 10
243.657201272178
 11
244.832863922781
 20
-102.400134092913
 21
-102.889290719419
 62
7
  0
LINE
  6
BYLAYER
  8
0
 10
244.832863922781
 11
244.832863922781
 20
-102.889290719419
 21
-102.889290719419
 62
7
  0
LINE
  6
BYLAYER
  8
0
 10
204.836719344467
 11
320.408406091455
 20
-101.297844936286
 21
-101.297844936286
 62
7
  0
LINE
  6
BYLAYER
  8
0
 10
221.602984404708
 11
314.139610910732
 20
-68.1617003579731
 21
-68.1617003579731
 62
7
  0
LINE
  6
BYLAYER
  8
0
 10
301.570815730009
 11
301.570815730009
 20
-72.7235075868889
 21
-105.251579876045
 62
7
  0
LINE
  6
BYLAYER
  8
0
 10
301.570815730009
 11
301.570815730009
 20
9.68757675046047
 21
-63.6462786712261
 62
7
  0
LINE
  6
BYLAYER
  8
0
 10
287.610454284226
 11
287.610454284226
 20
-6.32218228568394
 21
-73.3096521652021
 62
7
  0
LINE
  6
BYLAYER
  8
0
 10
244.832863922781
 11
244.832863922781
 20
13.7593839793762
 21
-105.544230478455
 62
7
  0
LINE
  6
BYLAYER
  8
0
 10
237.293104886636
 11
237.365635007118
 20
-71.945073851949
 21
-105.475073851949
 62
7
  0
LINE
  6
BYLAYER
  8
0
 10
237.218888019166
 11
237.293104886636
 20
19.4470948227498
 21
-64.4280859001419
 62
7
  0
LINE
  6
BYLAYER
  8
0
 10
239.854430187841
 11
239.12238199507
 20
-16.9883268639973
 21
-16.6914593941177
 62
7
  0
LINE
  6
BYLAYER
  8
0
 10
239.12238199507
 11
238.82973139266
 20
-16.6914593941177
 21
-16.0091702374913
 62
7
  0
LINE
  6
BYLAYER
  8
0
 10
238.82973139266
 11
238.82973139266
 20
-16.0091702374913
 21
15.8374562685329
 62
7
  0
LINE
  6
BYLAYER
  8
0
 10
238.82973139266
 11
240.783827778202
 20
15.8374562685329
 21
17.9602273528702
 62
7
  0
LINE
  6
BYLAYER
  8
0
 10
240.783827778202
 11
244.832863922781
 20
17.9602273528702
 21
17.9602273528702
 62
7
  0
LINE
  6
BYLAYER
  8
0
 10
244.832863922781
 11
244.832863922781
 20
17.9602273528702
 21
54.1713116902195
 62
7
  0
LINE
  6
BYLAYER
  8
0
 10
244.832863922781
 11
240.783827778202
 20
54.1713116902195
 21
54.1713116902195
 62
7
  0
LINE
  6
BYLAYER
  8
0
 10
240.783827778202
 11
238.82973139266
 20
54.1713116902195
 21
56.2713116902196
 62
7
  0
LINE
  6
BYLAYER
  8
0
 10
238.82973139266
 11
238.82973139266
 20
56.2713116902196
 21
74.5514321721473
 62
7
  0
LINE
  6
BYLAYER
  8
0
 10
238.82973139266
 11
240.655635007118
 20
74.5514321721473
 21
87.7148056661232
 62
7
  0
LINE
  6
BYLAYER
  8
0
 10
240.655635007118
 11
241.616237416756
 20
87.7148056661232
 21
88.699022533593
 62
7
  0
LINE
  6
BYLAYER
  8
0
 10
241.616237416756
 11
253.740574766154
 20
88.699022533593
 21
89.7017936179304
 62
7
  0
LINE
  6
BYLAYER
  8
0
 10
253.740574766154
 11
269.27973139266
 20
89.7017936179304
 21
88.699022533593
 62
7
  0
LINE
  6
BYLAYER
  8
0
 10
269.27973139266
 11
270.071659103504
 20
88.699022533593
 21
88.4013116902196
 62
7
  0
LINE
  6
BYLAYER
  8
0
 10
270.071659103504
 11
270.333104886636
 20
88.4013116902196
 21
87.654926148051
 62
7
  0
LINE
  6
BYLAYER
  8
0
 10
270.333104886636
 11
270.333104886636
 20
87.654926148051
 21
74.5733598829907
 62
7
  0
LINE
  6
BYLAYER
  8
0
 10
270.333104886636
 11
286.489610910732
 20
74.5733598829907
 21
74.5733598829907
 62
7
  0
LINE
  6
BYLAYER
  8
0
 10
286.489610910732
 11
287.239369946877
 20
74.5733598829907
 21
74.3085406058824
 62
7
  0
LINE
  6
BYLAYER
  8
0
 10
287.239369946877
 11
287.610454284226
 20
74.3085406058824
 21
73.5992634974485
 62
7
  0
LINE
  6
BYLAYER
  8
0
 10
287.610454284226
 11
287.610454284226
 20
73.5992634974485
 21
58.0786610878099
 62
7
  0
LINE
  6
BYLAYER
  8
0
 10
287.610454284226
 11
300.692020549287
 20
58.0786610878099
 21
58.0786610878099
 62
7
  0
LINE
  6
BYLAYER
  8
0
 10
300.692020549287
 11
301.570815730009
 20
58.0786610878099
 21
57.1998659070872
 62
7
  0
LINE
  6
BYLAYER
  8
0
 10
301.570815730009
 11
301.570815730009
 20
57.1998659070872
 21
14.7385406058822
 62
7
  0
LINE
  6
BYLAYER
  8
0
 10
301.570815730009
 11
300.399369946877
 20
14.7385406058822
 21
13.7593839793762
 62
7
  0
LINE
  6
BYLAYER
  8
0
 10
300.399369946877
 11
287.610454284226
 20
13.7593839793762
 21
13.7593839793762
 62
7
  0
LINE
  6
BYLAYER
  8
0
 10
287.610454284226
 11
287.610454284226
 20
13.7593839793762
 21
-1.66001361098529
 62
7
  0
LINE
  6
BYLAYER
  8
0
 10
287.610454284226
 11
287.321177175793
 20
-1.66001361098529
 21
-2.36929071941887
 62
7
  0
LINE
  6
BYLAYER
  8
0
 10
287.321177175793
 11
286.489610910732
 20
-2.36929071941887
 21
-2.63917023749127
 62
7
  0
LINE
  6
BYLAYER
  8
0
 10
286.489610910732
 11
270.333104886636
 20
-2.63917023749127
 21
-2.63917023749127
 62
7
  0
LINE
  6
BYLAYER
  8
0
 10
270.333104886636
 11
270.333104886636
 20
-2.63917023749127
 21
-15.9357967435154
 62
7
  0
LINE
  6
BYLAYER
  8
0
 10
270.333104886636
 11
270.053104886636
 20
-15.9357967435154
 21
-16.6813389121901
 62
7
  0
LINE
  6
BYLAYER
  8
0
 10
270.053104886636
 11
269.06551452519
 20
-16.6813389121901
 21
-16.9883268639973
 62
7
  0
LINE
  6
BYLAYER
  8
0
 10
243.39238199507
 11
243.39238199507
 20
18.9579381962438
 21
23.2313116902196
 62
7
  0
LINE
  6
BYLAYER
  8
0
 10
243.39238199507
 11
242.613104886636
 20
23.2313116902196
 21
24.301552654075
 62
7
  0
LINE
  6
BYLAYER
  8
0
 10
242.613104886636
 11
238.41394826013
 20
24.301552654075
 21
24.301552654075
 62
7
  0
LINE
  6
BYLAYER
  8
0
 10
238.41394826013
 11
238.070695248082
 20
24.301552654075
 21
24.4019140998582
 62
7
  0
LINE
  6
BYLAYER
  8
0
 10
238.070695248082
 11
237.731659103503
 20
24.4019140998582
 21
25.0842032564848
 62
7
  0
LINE
  6
BYLAYER
  8
0
 10
237.731659103503
 11
237.731659103503
 20
25.0842032564848
 21
46.6576972323884
 62
7
  0
LINE
  6
BYLAYER
  8
0
 10
237.731659103503
 11
237.965273561335
 20
46.6576972323884
 21
47.2623960275691
 62
7
  0
LINE
  6
BYLAYER
  8
0
 10
237.965273561335
 11
238.513466332419
 20
47.2623960275691
 21
47.5364924131112
 62
7
  0
LINE
  6
BYLAYER
  8
0
 10
238.513466332419
 11
242.417442236034
 20
47.5364924131112
 21
47.5364924131112
 62
7
  0
LINE
  6
BYLAYER
  8
0
 10
242.417442236034
 11
243.267562717961
 20
47.5364924131112
 21
48.0264924131112
 62
7
  0
LINE
  6
BYLAYER
  8
0
 10
243.267562717961
 11
243.39238199507
 20
48.0264924131112
 21
48.5114321721473
 62
7
  0
LINE
  6
BYLAYER
  8
0
 10
243.39238199507
 11
243.39238199507
 20
48.5114321721473
 21
53.1238418107016
 62
7
  0
LINE
  6
BYLAYER
  8
0
 10
286.708888019166
 11
270.333104886636
 20
13.7593839793762
 21
13.7593839793762
 62
7
  0
LINE
  6
BYLAYER
  8
0
 10
270.333104886636
 11
270.333104886636
 20
13.7593839793762
 21
-1.63724252664781
 62
7
  0
LINE
  6
BYLAYER
  8
0
 10
270.333104886636
 11
270.333104886636
 20
73.8193839793763
 21
58.0786610878099
 62
7
  0
LINE
  6
BYLAYER
  8
0
 10
270.333104886636
 11
286.708888019166
 20
58.0786610878099
 21
58.0786610878099
 62
7
  0
LINE
  6
BYLAYER
  8
0
 10
253.740574766154
 11
253.740574766154
 20
-17.9851943338768
 21
89.7017936179304
 62
7
  0
LINE
  6
BYLAYER
  8
0
 10
269.504912115552
 11
253.740574766154
 20
-16.9883268639973
 21
-17.9851943338768
 62
7
  0
LINE
  6
BYLAYER
  8
0
 10
253.740574766154
 11
239.708526573383
 20
-17.9851943338768
 21
-17.0473630085756
 62
7
  0
ENDSEC
  0
EOF
