  0
SECTION
  2
HEADER
  9
$CECOLOR
 62
256
  9
$CELTYPE
  6
CONTINUOUS
  9
$CLAYER
  8
0
  9
$TEXTSTYLE
  7
STANDARD
  9
$DWGCODEPAGE
  3
ANSI_1252
  9
$LTSCALE
 40
1
  0
ENDSEC
  0
SECTION
  2
TABLES
  0
TABLE
  2
LTYPE
 70
5
  0
LTYPE
  2
CONTINUOUS
  3
CONTINUOUS
 70
0
 72
65
 73
0
 40
0
  0
LTYPE
  2
DASHED
  3
DASHED
 70
0
 72
65
 73
2
 40
0.75
 49
0.5
 49
-0.25
  0
LTYPE
  2
DOT
  3
DOT
 70
0
 72
65
 73
2
 40
0.25
 49
0
 49
-0.25
  0
LTYPE
  2
DASHDOT
  3
DASHDOT
 70
0
 72
65
 73
4
 40
1
 49
0.5
 49
-0.25
 49
0
 49
-0.25
  0
LTYPE
  2
DIVIDE
  3
DIVIDE
 70
0
 72
65
 73
6
 40
1.25
 49
0.5
 49
-0.25
 49
0
 49
-0.25
 49
0
 49
-0.25
  0
ENDTAB
  0
TABLE
  2
LAYER
 70
3
  0
LAYER
  2
0
  6
CONTINUOUS
 70
0
 62
7
  0
LAYER
  2
_FLOOR1_W
  6
CONTINUOUS
 70
4
 62
7
  0
LAYER
  2
_FLOOR1_WH
  6
CONTINUOUS
 70
5
 62
1
  0
ENDTAB
  0
TABLE
  2
STYLE
 70
3
  0
STYLE
  2
STANDARD
 70
0
 40
0
 41
1
 50
0
 71
0
 42
1
  3
TXT.SHX
  0
STYLE
  2
ANNOTATIVE
 70
0
 40
0
 41
1
 50
0
 71
0
 42
1
  3
ROMANS.SHX
  0
STYLE
  2
ATTRIBUTI_SCATOLA
 70
0
 40
0
 41
1
 50
0
 71
0
 42
1
  3
ROMANS.SHX
  0
ENDTAB
  0
ENDSEC
  0
SECTION
  2
BLOCKS
  0
BLOCK
  2
*MODEL_SPACE
 10
0
 20
0
 70
1
  0
ENDBLK
  0
BLOCK
  2
*PAPER_SPACE
 10
0
 20
0
 70
1
  0
ENDBLK
  0
ENDSEC
  0
SECTION
  2
ENTITIES
  0
LINE
  6
BYLAYER
  8
0
 10
240.369606978231
 11
233.972619026423
 20
-121.50112016915
 21
-119.789915349873
 62
7
  0
LINE
  6
BYLAYER
  8
0
 10
233.972619026423
 11
234.046835893893
 20
-119.789915349873
 21
-119.789915349873
 62
7
  0
LINE
  6
BYLAYER
  8
0
 10
234.046835893893
 11
240.442980472207
 20
-119.789915349873
 21
-118.078710530596
 62
7
  0
LINE
  6
BYLAYER
  8
0
 10
240.442980472207
 11
239.601293725219
 20
-118.078710530596
 21
-118.544252699271
 62
7
  0
LINE
  6
BYLAYER
  8
0
 10
239.601293725219
 11
238.758763604737
 20
-118.544252699271
 21
-119.890276795656
 62
7
  0
LINE
  6
BYLAYER
  8
0
 10
238.758763604737
 11
239.565028664978
 20
-119.890276795656
 21
-121.134252699271
 62
7
  0
LINE
  6
BYLAYER
  8
0
 10
239.565028664978
 11
240.369606978231
 20
-121.134252699271
 21
-121.50112016915
 62
7
  0
LINE
  6
BYLAYER
  8
0
 10
240.369606978231
 11
240.369606978231
 20
-121.50112016915
 21
-121.50112016915
 62
7
  0
LINE
  6
BYLAYER
  8
0
 10
240.369606978231
 11
233.972619026423
 20
-121.50112016915
 21
-119.789915349873
 62
7
  0
LINE
  6
BYLAYER
  8
0
 10
233.972619026423
 11
234.046835893893
 20
-119.789915349873
 21
-119.789915349873
 62
7
  0
LINE
  6
BYLAYER
  8
0
 10
234.046835893893
 11
240.442980472207
 20
-119.789915349873
 21
-118.078710530596
 62
7
  0
LINE
  6
BYLAYER
  8
0
 10
240.442980472207
 11
239.601293725219
 20
-118.078710530596
 21
-118.544252699271
 62
7
  0
LINE
  6
BYLAYER
  8
0
 10
239.601293725219
 11
238.758763604737
 20
-118.544252699271
 21
-119.890276795656
 62
7
  0
LINE
  6
BYLAYER
  8
0
 10
238.758763604737
 11
239.565028664978
 20
-119.890276795656
 21
-121.134252699271
 62
7
  0
LINE
  6
BYLAYER
  8
0
 10
239.565028664978
 11
240.369606978231
 20
-121.134252699271
 21
-121.50112016915
 62
7
  0
LINE
  6
BYLAYER
  8
0
 10
240.369606978231
 11
240.369606978231
 20
-121.50112016915
 21
-121.50112016915
 62
7
  0
LINE
  6
BYLAYER
  8
0
 10
163.060088905941
 11
169.457076857749
 20
-117.986782819753
 21
-119.7022045065
 62
7
  0
LINE
  6
BYLAYER
  8
0
 10
169.457076857749
 11
169.384546737267
 20
-119.7022045065
 21
-119.7022045065
 62
7
  0
LINE
  6
BYLAYER
  8
0
 10
169.384546737267
 11
162.98755878546
 20
-119.7022045065
 21
-121.413409325777
 62
7
  0
LINE
  6
BYLAYER
  8
0
 10
162.98755878546
 11
163.828402158954
 20
-121.413409325777
 21
-120.941963542644
 62
7
  0
LINE
  6
BYLAYER
  8
0
 10
163.828402158954
 11
164.670932279435
 20
-120.941963542644
 21
-119.597626193247
 62
7
  0
LINE
  6
BYLAYER
  8
0
 10
164.670932279435
 11
163.866353966182
 20
-119.597626193247
 21
-118.352806916138
 62
7
  0
LINE
  6
BYLAYER
  8
0
 10
163.866353966182
 11
163.060088905941
 20
-118.352806916138
 21
-117.986782819753
 62
7
  0
LINE
  6
BYLAYER
  8
0
 10
163.060088905941
 11
163.060088905941
 20
-117.986782819753
 21
-117.986782819753
 62
7
  0
LINE
  6
BYLAYER
  8
0
 10
163.060088905941
 11
169.457076857749
 20
-117.986782819753
 21
-119.7022045065
 62
7
  0
LINE
  6
BYLAYER
  8
0
 10
169.457076857749
 11
169.384546737267
 20
-119.7022045065
 21
-119.7022045065
 62
7
  0
LINE
  6
BYLAYER
  8
0
 10
169.384546737267
 11
162.98755878546
 20
-119.7022045065
 21
-121.413409325777
 62
7
  0
LINE
  6
BYLAYER
  8
0
 10
162.98755878546
 11
163.828402158954
 20
-121.413409325777
 21
-120.941963542644
 62
7
  0
LINE
  6
BYLAYER
  8
0
 10
163.828402158954
 11
164.670932279435
 20
-120.941963542644
 21
-119.597626193247
 62
7
  0
LINE
  6
BYLAYER
  8
0
 10
164.670932279435
 11
163.866353966182
 20
-119.597626193247
 21
-118.352806916138
 62
7
  0
LINE
  6
BYLAYER
  8
0
 10
163.866353966182
 11
163.060088905941
 20
-118.352806916138
 21
-117.986782819753
 62
7
  0
LINE
  6
BYLAYER
  8
0
 10
163.060088905941
 11
163.060088905941
 20
-117.986782819753
 21
-117.986782819753
 62
7
  0
LINE
  6
BYLAYER
  8
0
 10
170.577920231243
 11
176.969847942086
 20
-84.8961804101141
 21
-86.6116020968611
 62
7
  0
LINE
  6
BYLAYER
  8
0
 10
176.969847942086
 11
176.897317821604
 20
-86.6116020968611
 21
-86.6116020968611
 62
7
  0
LINE
  6
BYLAYER
  8
0
 10
176.897317821604
 11
170.505390110761
 20
-86.6116020968611
 21
-88.3228069161382
 62
7
  0
LINE
  6
BYLAYER
  8
0
 10
170.505390110761
 11
171.346233484255
 20
-88.3228069161382
 21
-87.8513611330058
 62
7
  0
LINE
  6
BYLAYER
  8
0
 10
171.346233484255
 11
172.188763604737
 20
-87.8513611330058
 21
-86.5070237836081
 62
7
  0
LINE
  6
BYLAYER
  8
0
 10
172.188763604737
 11
171.384185291484
 20
-86.5070237836081
 21
-85.2613611330057
 62
7
  0
LINE
  6
BYLAYER
  8
0
 10
171.384185291484
 11
170.577920231243
 20
-85.2613611330057
 21
-84.8961804101141
 62
7
  0
LINE
  6
BYLAYER
  8
0
 10
170.577920231243
 11
170.577920231243
 20
-84.8961804101141
 21
-84.8961804101141
 62
7
  0
LINE
  6
BYLAYER
  8
0
 10
170.577920231243
 11
176.969847942086
 20
-84.8961804101141
 21
-86.6116020968611
 62
7
  0
LINE
  6
BYLAYER
  8
0
 10
176.969847942086
 11
176.897317821604
 20
-86.6116020968611
 21
-86.6116020968611
 62
7
  0
LINE
  6
BYLAYER
  8
0
 10
176.897317821604
 11
170.505390110761
 20
-86.6116020968611
 21
-88.3228069161382
 62
7
  0
LINE
  6
BYLAYER
  8
0
 10
170.505390110761
 11
171.346233484255
 20
-88.3228069161382
 21
-87.8513611330058
 62
7
  0
LINE
  6
BYLAYER
  8
0
 10
171.346233484255
 11
172.188763604737
 20
-87.8513611330058
 21
-86.5070237836081
 62
7
  0
LINE
  6
BYLAYER
  8
0
 10
172.188763604737
 11
171.384185291484
 20
-86.5070237836081
 21
-85.2613611330057
 62
7
  0
LINE
  6
BYLAYER
  8
0
 10
171.384185291484
 11
170.577920231243
 20
-85.2613611330057
 21
-84.8961804101141
 62
7
  0
LINE
  6
BYLAYER
  8
0
 10
170.577920231243
 11
170.577920231243
 20
-84.8961804101141
 21
-84.8961804101141
 62
7
  0
LINE
  6
BYLAYER
  8
0
 10
226.409245532447
 11
220.017317821604
 20
-88.3143731811984
 21
-86.6031683619214
 62
7
  0
LINE
  6
BYLAYER
  8
0
 10
220.017317821604
 11
220.09069131558
 20
-86.6031683619214
 21
-86.6031683619214
 62
7
  0
LINE
  6
BYLAYER
  8
0
 10
220.09069131558
 11
226.483462399917
 20
-86.6031683619214
 21
-84.8869033016804
 62
7
  0
LINE
  6
BYLAYER
  8
0
 10
226.483462399917
 11
225.640932279436
 20
-84.8869033016804
 21
-85.353288843849
 62
7
  0
LINE
  6
BYLAYER
  8
0
 10
225.640932279436
 11
224.798402158953
 20
-85.353288843849
 21
-86.7035298077044
 62
7
  0
LINE
  6
BYLAYER
  8
0
 10
224.798402158953
 11
225.604667219195
 20
-86.7035298077044
 21
-87.9475057113189
 62
7
  0
LINE
  6
BYLAYER
  8
0
 10
225.604667219195
 11
226.409245532447
 20
-87.9475057113189
 21
-88.3143731811984
 62
7
  0
LINE
  6
BYLAYER
  8
0
 10
226.409245532447
 11
226.409245532447
 20
-88.3143731811984
 21
-88.3143731811984
 62
7
  0
LINE
  6
BYLAYER
  8
0
 10
226.409245532447
 11
220.017317821604
 20
-88.3143731811984
 21
-86.6031683619214
 62
7
  0
LINE
  6
BYLAYER
  8
0
 10
220.017317821604
 11
220.09069131558
 20
-86.6031683619214
 21
-86.6031683619214
 62
7
  0
LINE
  6
BYLAYER
  8
0
 10
220.09069131558
 11
226.483462399917
 20
-86.6031683619214
 21
-84.8869033016804
 62
7
  0
LINE
  6
BYLAYER
  8
0
 10
226.483462399917
 11
225.640932279436
 20
-84.8869033016804
 21
-85.353288843849
 62
7
  0
LINE
  6
BYLAYER
  8
0
 10
225.640932279436
 11
224.798402158953
 20
-85.353288843849
 21
-86.7035298077044
 62
7
  0
LINE
  6
BYLAYER
  8
0
 10
224.798402158953
 11
225.604667219195
 20
-86.7035298077044
 21
-87.9475057113189
 62
7
  0
LINE
  6
BYLAYER
  8
0
 10
225.604667219195
 11
226.409245532447
 20
-87.9475057113189
 21
-88.3143731811984
 62
7
  0
LINE
  6
BYLAYER
  8
0
 10
226.409245532447
 11
226.409245532447
 20
-88.3143731811984
 21
-88.3143731811984
 62
7
  0
LINE
  6
BYLAYER
  8
0
 10
281.952980472207
 11
283.664185291484
 20
-11.2975057113189
 21
-4.90136113300565
 62
7
  0
LINE
  6
BYLAYER
  8
0
 10
283.664185291484
 11
283.664185291484
 20
-4.90136113300565
 21
-4.97389125348769
 62
7
  0
LINE
  6
BYLAYER
  8
0
 10
283.664185291484
 11
285.379606978231
 20
-4.97389125348769
 21
-11.3708792052949
 62
7
  0
LINE
  6
BYLAYER
  8
0
 10
285.379606978231
 11
284.909004568592
 20
-11.3708792052949
 21
-10.528349084813
 62
7
  0
LINE
  6
BYLAYER
  8
0
 10
284.909004568592
 11
283.562980472206
 20
-10.528349084813
 21
-9.68750571131898
 62
7
  0
LINE
  6
BYLAYER
  8
0
 10
283.562980472206
 11
282.319004568592
 20
-9.68750571131898
 21
-10.492084024572
 62
7
  0
LINE
  6
BYLAYER
  8
0
 10
282.319004568592
 11
281.952980472207
 20
-10.492084024572
 21
-11.2975057113189
 62
7
  0
LINE
  6
BYLAYER
  8
0
 10
281.952980472207
 11
281.952980472207
 20
-11.2975057113189
 21
-11.2975057113189
 62
7
  0
LINE
  6
BYLAYER
  8
0
 10
281.952980472207
 11
283.664185291484
 20
-11.2975057113189
 21
-4.90136113300565
 62
7
  0
LINE
  6
BYLAYER
  8
0
 10
283.664185291484
 11
283.664185291484
 20
-4.90136113300565
 21
-4.97389125348769
 62
7
  0
LINE
  6
BYLAYER
  8
0
 10
283.664185291484
 11
285.379606978231
 20
-4.97389125348769
 21
-11.3708792052949
 62
7
  0
LINE
  6
BYLAYER
  8
0
 10
285.379606978231
 11
284.909004568592
 20
-11.3708792052949
 21
-10.528349084813
 62
7
  0
LINE
  6
BYLAYER
  8
0
 10
284.909004568592
 11
283.562980472206
 20
-10.528349084813
 21
-9.68750571131898
 62
7
  0
LINE
  6
BYLAYER
  8
0
 10
283.562980472206
 11
282.319004568592
 20
-9.68750571131898
 21
-10.492084024572
 62
7
  0
LINE
  6
BYLAYER
  8
0
 10
282.319004568592
 11
281.952980472207
 20
-10.492084024572
 21
-11.2975057113189
 62
7
  0
LINE
  6
BYLAYER
  8
0
 10
281.952980472207
 11
281.952980472207
 20
-11.2975057113189
 21
-11.2975057113189
 62
7
  0
LINE
  6
BYLAYER
  8
0
 10
285.370329869797
 11
283.65490818305
 20
46.1952653730183
 21
39.8024942886811
 62
7
  0
LINE
  6
BYLAYER
  8
0
 10
283.65490818305
 11
283.65490818305
 20
39.8024942886811
 21
39.8758677826569
 62
7
  0
LINE
  6
BYLAYER
  8
0
 10
283.65490818305
 11
281.942859990279
 20
39.8758677826569
 21
46.2677954935004
 62
7
  0
LINE
  6
BYLAYER
  8
0
 10
281.942859990279
 11
282.410932279435
 20
46.2677954935004
 21
45.4261087465123
 62
7
  0
LINE
  6
BYLAYER
  8
0
 10
282.410932279435
 11
283.760329869797
 20
45.4261087465123
 21
44.5852653730184
 62
7
  0
LINE
  6
BYLAYER
  8
0
 10
283.760329869797
 11
285.005149146905
 20
44.5852653730184
 21
45.3898436862714
 62
7
  0
LINE
  6
BYLAYER
  8
0
 10
285.005149146905
 11
285.370329869797
 20
45.3898436862714
 21
46.1952653730183
 62
7
  0
LINE
  6
BYLAYER
  8
0
 10
285.370329869797
 11
285.370329869797
 20
46.1952653730183
 21
46.1952653730183
 62
7
  0
LINE
  6
BYLAYER
  8
0
 10
285.370329869797
 11
283.65490818305
 20
46.1952653730183
 21
39.8024942886811
 62
7
  0
LINE
  6
BYLAYER
  8
0
 10
283.65490818305
 11
283.65490818305
 20
39.8024942886811
 21
39.8758677826569
 62
7
  0
LINE
  6
BYLAYER
  8
0
 10
283.65490818305
 11
281.942859990279
 20
39.8758677826569
 21
46.2677954935004
 62
7
  0
LINE
  6
BYLAYER
  8
0
 10
281.942859990279
 11
282.410932279435
 20
46.2677954935004
 21
45.4261087465123
 62
7
  0
LINE
  6
BYLAYER
  8
0
 10
282.410932279435
 11
283.760329869797
 20
45.4261087465123
 21
44.5852653730184
 62
7
  0
LINE
  6
BYLAYER
  8
0
 10
283.760329869797
 11
285.005149146905
 20
44.5852653730184
 21
45.3898436862714
 62
7
  0
LINE
  6
BYLAYER
  8
0
 10
285.005149146905
 11
285.370329869797
 20
45.3898436862714
 21
46.1952653730183
 62
7
  0
LINE
  6
BYLAYER
  8
0
 10
285.370329869797
 11
285.370329869797
 20
46.1952653730183
 21
46.1952653730183
 62
7
  0
LINE
  6
BYLAYER
  8
0
 10
-143.051344828998
 11
-144.767103865143
 20
-29.842445470355
 21
-36.2385900486684
 62
7
  0
LINE
  6
BYLAYER
  8
0
 10
-144.767103865143
 11
-144.767103865143
 20
-36.2385900486684
 21
-36.1660599281864
 62
7
  0
LINE
  6
BYLAYER
  8
0
 10
-144.767103865143
 11
-146.478477359119
 20
-36.1660599281864
 21
-29.7690719763791
 62
7
  0
LINE
  6
BYLAYER
  8
0
 10
-146.478477359119
 11
-146.011670130203
 20
-29.7690719763791
 21
-30.6107587233672
 62
7
  0
LINE
  6
BYLAYER
  8
0
 10
-146.011670130203
 11
-144.661935190444
 20
-30.6107587233672
 21
-31.453288843849
 62
7
  0
LINE
  6
BYLAYER
  8
0
 10
-144.661935190444
 11
-143.417368925384
 20
-31.453288843849
 21
-30.647867157102
 62
7
  0
LINE
  6
BYLAYER
  8
0
 10
-143.417368925384
 11
-143.051344828998
 20
-30.647867157102
 21
-29.842445470355
 62
7
  0
LINE
  6
BYLAYER
  8
0
 10
-143.051344828998
 11
-143.051344828998
 20
-29.842445470355
 21
-29.842445470355
 62
7
  0
LINE
  6
BYLAYER
  8
0
 10
-143.051344828998
 11
-144.767103865143
 20
-29.842445470355
 21
-36.2385900486684
 62
7
  0
LINE
  6
BYLAYER
  8
0
 10
-144.767103865143
 11
-144.767103865143
 20
-36.2385900486684
 21
-36.1660599281864
 62
7
  0
LINE
  6
BYLAYER
  8
0
 10
-144.767103865143
 11
-146.478477359119
 20
-36.1660599281864
 21
-29.7690719763791
 62
7
  0
LINE
  6
BYLAYER
  8
0
 10
-146.478477359119
 11
-146.011670130203
 20
-29.7690719763791
 21
-30.6107587233672
 62
7
  0
LINE
  6
BYLAYER
  8
0
 10
-146.011670130203
 11
-144.661935190444
 20
-30.6107587233672
 21
-31.453288843849
 62
7
  0
LINE
  6
BYLAYER
  8
0
 10
-144.661935190444
 11
-143.417368925384
 20
-31.453288843849
 21
-30.647867157102
 62
7
  0
LINE
  6
BYLAYER
  8
0
 10
-143.417368925384
 11
-143.051344828998
 20
-30.647867157102
 21
-29.842445470355
 62
7
  0
LINE
  6
BYLAYER
  8
0
 10
-143.051344828998
 11
-143.051344828998
 20
-29.842445470355
 21
-29.842445470355
 62
7
  0
LINE
  6
BYLAYER
  8
0
 10
-146.469200250685
 11
-144.757995431408
 20
64.7435786260304
 21
71.1363497103678
 62
7
  0
LINE
  6
BYLAYER
  8
0
 10
-144.757995431408
 11
-144.757995431408
 20
71.1363497103678
 21
71.0629762163919
 62
7
  0
LINE
  6
BYLAYER
  8
0
 10
-144.757995431408
 11
-143.042236395263
 20
71.0629762163919
 21
64.6710485055486
 62
7
  0
LINE
  6
BYLAYER
  8
0
 10
-143.042236395263
 11
-143.513429166348
 20
64.6710485055486
 21
65.5135786260306
 62
7
  0
LINE
  6
BYLAYER
  8
0
 10
-143.513429166348
 11
-144.858609889239
 20
65.5135786260306
 21
66.3544219995243
 62
7
  0
LINE
  6
BYLAYER
  8
0
 10
-144.858609889239
 11
-146.103176154299
 20
66.3544219995243
 21
65.5498436862715
 62
7
  0
LINE
  6
BYLAYER
  8
0
 10
-146.103176154299
 11
-146.469200250685
 20
65.5498436862715
 21
64.7435786260304
 62
7
  0
LINE
  6
BYLAYER
  8
0
 10
-146.469200250685
 11
-146.469200250685
 20
64.7435786260304
 21
64.7435786260304
 62
7
  0
LINE
  6
BYLAYER
  8
0
 10
-146.469200250685
 11
-144.757995431408
 20
64.7435786260304
 21
71.1363497103678
 62
7
  0
LINE
  6
BYLAYER
  8
0
 10
-144.757995431408
 11
-144.757995431408
 20
71.1363497103678
 21
71.0629762163919
 62
7
  0
LINE
  6
BYLAYER
  8
0
 10
-144.757995431408
 11
-143.042236395263
 20
71.0629762163919
 21
64.6710485055486
 62
7
  0
LINE
  6
BYLAYER
  8
0
 10
-143.042236395263
 11
-143.513429166348
 20
64.6710485055486
 21
65.5135786260306
 62
7
  0
LINE
  6
BYLAYER
  8
0
 10
-143.513429166348
 11
-144.858609889239
 20
65.5135786260306
 21
66.3544219995243
 62
7
  0
LINE
  6
BYLAYER
  8
0
 10
-144.858609889239
 11
-146.103176154299
 20
66.3544219995243
 21
65.5498436862715
 62
7
  0
LINE
  6
BYLAYER
  8
0
 10
-146.103176154299
 11
-146.469200250685
 20
65.5498436862715
 21
64.7435786260304
 62
7
  0
LINE
  6
BYLAYER
  8
0
 10
-146.469200250685
 11
-146.469200250685
 20
64.7435786260304
 21
64.7435786260304
 62
7
  0
LINE
  6
BYLAYER
  8
0
 10
-88.6841159133356
 11
-95.0761279615284
 20
-88.2173852293912
 21
-86.5019635426443
 62
7
  0
LINE
  6
BYLAYER
  8
0
 10
-95.0761279615284
 11
-95.0029231422513
 20
-86.5019635426443
 21
-86.5019635426443
 62
7
  0
LINE
  6
BYLAYER
  8
0
 10
-95.0029231422513
 11
-88.6109110940585
 20
-86.5019635426443
 21
-84.7907587233671
 62
7
  0
LINE
  6
BYLAYER
  8
0
 10
-88.6109110940585
 11
-89.4528508530947
 20
-84.7907587233671
 21
-85.2571442655358
 62
7
  0
LINE
  6
BYLAYER
  8
0
 10
-89.4528508530947
 11
-90.2947062747814
 20
-85.2571442655358
 21
-86.6065418558972
 62
7
  0
LINE
  6
BYLAYER
  8
0
 10
-90.2947062747814
 11
-89.4893689253838
 20
-86.6065418558972
 21
-87.8513611330058
 62
7
  0
LINE
  6
BYLAYER
  8
0
 10
-89.4893689253838
 11
-88.6841159133356
 20
-87.8513611330058
 21
-88.2173852293912
 62
7
  0
LINE
  6
BYLAYER
  8
0
 10
-88.6841159133356
 11
-88.6841159133356
 20
-88.2173852293912
 21
-88.2173852293912
 62
7
  0
LINE
  6
BYLAYER
  8
0
 10
-88.6841159133356
 11
-95.0761279615284
 20
-88.2173852293912
 21
-86.5019635426443
 62
7
  0
LINE
  6
BYLAYER
  8
0
 10
-95.0761279615284
 11
-95.0029231422513
 20
-86.5019635426443
 21
-86.5019635426443
 62
7
  0
LINE
  6
BYLAYER
  8
0
 10
-95.0029231422513
 11
-88.6109110940585
 20
-86.5019635426443
 21
-84.7907587233671
 62
7
  0
LINE
  6
BYLAYER
  8
0
 10
-88.6109110940585
 11
-89.4528508530947
 20
-84.7907587233671
 21
-85.2571442655358
 62
7
  0
LINE
  6
BYLAYER
  8
0
 10
-89.4528508530947
 11
-90.2947062747814
 20
-85.2571442655358
 21
-86.6065418558972
 62
7
  0
LINE
  6
BYLAYER
  8
0
 10
-90.2947062747814
 11
-89.4893689253838
 20
-86.6065418558972
 21
-87.8513611330058
 62
7
  0
LINE
  6
BYLAYER
  8
0
 10
-89.4893689253838
 11
-88.6841159133356
 20
-87.8513611330058
 21
-88.2173852293912
 62
7
  0
LINE
  6
BYLAYER
  8
0
 10
-88.6841159133356
 11
-88.6841159133356
 20
-88.2173852293912
 21
-88.2173852293912
 62
7
  0
LINE
  6
BYLAYER
  8
0
 10
108.203703363773
 11
114.595631074616
 20
-84.8000358318008
 21
-86.5154575185479
 62
7
  0
LINE
  6
BYLAYER
  8
0
 10
114.595631074616
 11
114.523100954134
 20
-86.5154575185479
 21
-86.5154575185479
 62
7
  0
LINE
  6
BYLAYER
  8
0
 10
114.523100954134
 11
108.131173243291
 20
-86.5154575185479
 21
-88.226662337825
 62
7
  0
LINE
  6
BYLAYER
  8
0
 10
108.131173243291
 11
108.972016616785
 20
-88.226662337825
 21
-87.7552165546925
 62
7
  0
LINE
  6
BYLAYER
  8
0
 10
108.972016616785
 11
109.814546737267
 20
-87.7552165546925
 21
-86.4108792052949
 62
7
  0
LINE
  6
BYLAYER
  8
0
 10
109.814546737267
 11
109.00912505052
 20
-86.4108792052949
 21
-85.1660599281865
 62
7
  0
LINE
  6
BYLAYER
  8
0
 10
109.00912505052
 11
108.203703363773
 20
-85.1660599281865
 21
-84.8000358318008
 62
7
  0
LINE
  6
BYLAYER
  8
0
 10
108.203703363773
 11
108.203703363773
 20
-84.8000358318008
 21
-84.8000358318008
 62
7
  0
LINE
  6
BYLAYER
  8
0
 10
108.203703363773
 11
114.595631074616
 20
-84.8000358318008
 21
-86.5154575185479
 62
7
  0
LINE
  6
BYLAYER
  8
0
 10
114.595631074616
 11
114.523100954134
 20
-86.5154575185479
 21
-86.5154575185479
 62
7
  0
LINE
  6
BYLAYER
  8
0
 10
114.523100954134
 11
108.131173243291
 20
-86.5154575185479
 21
-88.226662337825
 62
7
  0
LINE
  6
BYLAYER
  8
0
 10
108.131173243291
 11
108.972016616785
 20
-88.226662337825
 21
-87.7552165546925
 62
7
  0
LINE
  6
BYLAYER
  8
0
 10
108.972016616785
 11
109.814546737267
 20
-87.7552165546925
 21
-86.4108792052949
 62
7
  0
LINE
  6
BYLAYER
  8
0
 10
109.814546737267
 11
109.00912505052
 20
-86.4108792052949
 21
-85.1660599281865
 62
7
  0
LINE
  6
BYLAYER
  8
0
 10
109.00912505052
 11
108.203703363773
 20
-85.1660599281865
 21
-84.8000358318008
 62
7
  0
LINE
  6
BYLAYER
  8
0
 10
108.203703363773
 11
108.203703363773
 20
-84.8000358318008
 21
-84.8000358318008
 62
7
  0
LINE
  6
BYLAYER
  8
0
 10
-149.685911094059
 11
-150.527850853095
 20
26.712494288681
 21
24.6799641681991
 62
7
  0
LINE
  6
BYLAYER
  8
0
 10
-150.527850853095
 11
-152.63265808201
 20
24.6799641681991
 21
23.947915975428
 62
7
  0
LINE
  6
BYLAYER
  8
0
 10
-152.63265808201
 11
-154.755682178396
 20
23.947915975428
 21
24.754181035669
 62
7
  0
LINE
  6
BYLAYER
  8
0
 10
-154.755682178396
 11
-155.469513503697
 20
24.754181035669
 21
26.6214099513317
 62
7
  0
LINE
  6
BYLAYER
  8
0
 10
-155.469513503697
 11
-154.554368925384
 20
26.6214099513317
 21
28.7247834453077
 62
7
  0
LINE
  6
BYLAYER
  8
0
 10
-154.554368925384
 11
-152.63265808201
 20
28.7247834453077
 21
29.2932171802474
 62
7
  0
LINE
  6
BYLAYER
  8
0
 10
-152.63265808201
 11
-150.564368925384
 20
29.2932171802474
 21
28.670807541693
 62
7
  0
LINE
  6
BYLAYER
  8
0
 10
-150.564368925384
 11
-149.685911094059
 20
28.670807541693
 21
26.712494288681
 62
7
  0
LINE
  6
BYLAYER
  8
0
 10
-149.685911094059
 11
-149.685911094059
 20
26.712494288681
 21
26.712494288681
 62
7
  0
LINE
  6
BYLAYER
  8
0
 10
-161.765490612131
 11
-160.946456877191
 20
26.8212894694039
 21
24.2549039272354
 62
7
  0
LINE
  6
BYLAYER
  8
0
 10
-160.946456877191
 11
-158.489364106107
 20
24.2549039272354
 21
22.6305665778376
 62
7
  0
LINE
  6
BYLAYER
  8
0
 10
-158.489364106107
 11
-154.334754467552
 20
22.6305665778376
 21
22.0267111561509
 62
7
  0
LINE
  6
BYLAYER
  8
0
 10
-154.334754467552
 11
-151.497814708516
 20
22.0267111561509
 21
22.3657473007293
 62
7
  0
LINE
  6
BYLAYER
  8
0
 10
-151.497814708516
 11
-149.63109181695
 20
22.3657473007293
 21
23.3626147706088
 62
7
  0
LINE
  6
BYLAYER
  8
0
 10
-149.63109181695
 11
-148.203429166348
 20
23.3626147706088
 21
26.5657473007292
 62
7
  0
LINE
  6
BYLAYER
  8
0
 10
-148.203429166348
 11
-148.555790612131
 20
26.5657473007292
 21
28.4785183850665
 62
7
  0
LINE
  6
BYLAYER
  8
0
 10
-148.555790612131
 11
-149.594405069962
 20
28.4785183850665
 21
29.8785183850667
 62
7
  0
LINE
  6
BYLAYER
  8
0
 10
-149.594405069962
 11
-152.760682178396
 20
29.8785183850667
 21
31.0499641681992
 62
7
  0
LINE
  6
BYLAYER
  8
0
 10
-152.760682178396
 11
-154.604718322974
 20
31.0499641681992
 21
30.738759348922
 62
7
  0
LINE
  6
BYLAYER
  8
0
 10
-154.604718322974
 11
-155.927043624179
 20
30.738759348922
 21
29.8051448910908
 62
7
  0
LINE
  6
BYLAYER
  8
0
 10
-155.927043624179
 11
-156.970271335022
 20
29.8051448910908
 21
26.9317713971147
 62
7
  0
LINE
  6
BYLAYER
  8
0
 10
-156.970271335022
 11
-156.604221937432
 20
26.9317713971147
 21
25.1741810356689
 62
7
  0
LINE
  6
BYLAYER
  8
0
 10
-156.604221937432
 11
-155.359621937432
 20
25.1741810356689
 21
23.7286388669944
 62
7
  0
LINE
  6
BYLAYER
  8
0
 10
-155.359621937432
 11
-159.038433985625
 20
23.7286388669944
 21
24.6436991079581
 62
7
  0
LINE
  6
BYLAYER
  8
0
 10
-159.038433985625
 11
-160.319602660324
 20
24.6436991079581
 21
26.8398436862715
 62
7
  0
LINE
  6
BYLAYER
  8
0
 10
-160.319602660324
 11
-159.495997841046
 20
26.8398436862715
 21
28.6522533248257
 62
7
  0
LINE
  6
BYLAYER
  8
0
 10
-159.495997841046
 11
-158.269732780806
 20
28.6522533248257
 21
29.1102051320545
 62
7
  0
LINE
  6
BYLAYER
  8
0
 10
-158.269732780806
 11
-158.269732780806
 20
29.1102051320545
 21
30.7750244091631
 62
7
  0
LINE
  6
BYLAYER
  8
0
 10
-158.269732780806
 11
-160.612438804902
 20
30.7750244091631
 21
29.8962292284401
 62
7
  0
LINE
  6
BYLAYER
  8
0
 10
-160.612438804902
 11
-161.47722555189
 20
29.8962292284401
 21
28.6885183850666
 62
7
  0
LINE
  6
BYLAYER
  8
0
 10
-161.47722555189
 11
-161.765490612131
 20
28.6885183850666
 21
26.8212894694039
 62
7
  0
LINE
  6
BYLAYER
  8
0
 10
-161.765490612131
 11
-161.765490612131
 20
26.8212894694039
 21
26.8212894694039
 62
7
  0
LINE
  6
BYLAYER
  8
0
 10
-149.722513503697
 11
-150.189236395263
 20
15.9232171802474
 21
14.5822533248257
 62
7
  0
LINE
  6
BYLAYER
  8
0
 10
-150.189236395263
 11
-151.571019527793
 20
14.5822533248257
 21
13.6908075416931
 62
7
  0
LINE
  6
BYLAYER
  8
0
 10
-151.571019527793
 11
-154.810585792854
 20
13.6908075416931
 21
13.2514099513316
 62
7
  0
LINE
  6
BYLAYER
  8
0
 10
-154.810585792854
 11
-158.855413503697
 20
13.2514099513316
 21
13.9286388669944
 62
7
  0
LINE
  6
BYLAYER
  8
0
 10
-158.855413503697
 11
-160.228096636227
 20
13.9286388669944
 21
16.0505665778376
 62
7
  0
LINE
  6
BYLAYER
  8
0
 10
-160.228096636227
 11
-159.862047238637
 20
16.0505665778376
 21
17.3729762163919
 62
7
  0
LINE
  6
BYLAYER
  8
0
 10
-159.862047238637
 11
-158.782200250685
 20
17.3729762163919
 21
18.1741810356691
 62
7
  0
LINE
  6
BYLAYER
  8
0
 10
-158.782200250685
 11
-155.085103865143
 20
18.1741810356691
 21
18.7223738067534
 62
7
  0
LINE
  6
BYLAYER
  8
0
 10
-155.085103865143
 11
-152.476971335022
 20
18.7223738067534
 21
18.5402051320545
 62
7
  0
LINE
  6
BYLAYER
  8
0
 10
-152.476971335022
 11
-150.857272539842
 20
18.5402051320545
 21
17.9726147706088
 62
7
  0
LINE
  6
BYLAYER
  8
0
 10
-150.857272539842
 11
-149.722513503697
 20
17.9726147706088
 21
15.9232171802474
 62
7
  0
LINE
  6
BYLAYER
  8
0
 10
-149.722513503697
 11
-149.722513503697
 20
15.9232171802474
 21
15.9232171802474
 62
7
  0
LINE
  6
BYLAYER
  8
0
 10
-161.728888202492
 11
-160.978488202492
 20
15.9594822404882
 21
13.5710485055486
 62
7
  0
LINE
  6
BYLAYER
  8
0
 10
-160.978488202492
 11
-158.745597841046
 20
13.5710485055486
 21
12.0614099513317
 62
7
  0
LINE
  6
BYLAYER
  8
0
 10
-158.745597841046
 11
-154.883790612131
 20
12.0614099513317
 21
11.4752653730185
 62
7
  0
LINE
  6
BYLAYER
  8
0
 10
-154.883790612131
 11
-150.253248443456
 20
11.4752653730185
 21
12.4265906742233
 62
7
  0
LINE
  6
BYLAYER
  8
0
 10
-150.253248443456
 11
-148.715862901287
 20
12.4265906742233
 21
13.8822533248256
 62
7
  0
LINE
  6
BYLAYER
  8
0
 10
-148.715862901287
 11
-148.203429166348
 20
13.8822533248256
 21
15.9409280236209
 62
7
  0
LINE
  6
BYLAYER
  8
0
 10
-148.203429166348
 11
-148.844055672372
 20
15.9409280236209
 21
18.20622922844
 62
7
  0
LINE
  6
BYLAYER
  8
0
 10
-148.844055672372
 11
-150.729164106107
 20
18.20622922844
 21
19.7302051320546
 62
7
  0
LINE
  6
BYLAYER
  8
0
 10
-150.729164106107
 11
-155.15830868442
 20
19.7302051320546
 21
20.517072601934
 62
7
  0
LINE
  6
BYLAYER
  8
0
 10
-155.15830868442
 11
-159.624106274781
 20
20.517072601934
 21
19.6382774212111
 62
7
  0
LINE
  6
BYLAYER
  8
0
 10
-159.624106274781
 11
-161.207261696468
 20
19.6382774212111
 21
18.1514099513317
 62
7
  0
LINE
  6
BYLAYER
  8
0
 10
-161.207261696468
 11
-161.728888202492
 20
18.1514099513317
 21
15.9594822404882
 62
7
  0
LINE
  6
BYLAYER
  8
0
 10
-161.728888202492
 11
-161.728888202492
 20
15.9594822404882
 21
15.9594822404882
 62
7
  0
LINE
  6
BYLAYER
  8
0
 10
-157.867080973577
 11
-148.569453262733
 20
5.35321718024733
 21
5.35321718024733
 62
7
  0
LINE
  6
BYLAYER
  8
0
 10
-148.569453262733
 11
-148.569453262733
 20
5.35321718024733
 21
7.12851838506663
 62
7
  0
LINE
  6
BYLAYER
  8
0
 10
-148.569453262733
 11
-161.65567494948
 20
7.12851838506663
 21
7.12851838506663
 62
7
  0
LINE
  6
BYLAYER
  8
0
 10
-161.65567494948
 11
-161.65567494948
 20
7.12851838506663
 21
5.81116898747621
 62
7
  0
LINE
  6
BYLAYER
  8
0
 10
-161.65567494948
 11
-159.715629166348
 20
5.81116898747621
 21
4.7493617585605
 62
7
  0
LINE
  6
BYLAYER
  8
0
 10
-159.715629166348
 11
-159.129948443456
 20
4.7493617585605
 21
2.27827742121127
 62
7
  0
LINE
  6
BYLAYER
  8
0
 10
-159.129948443456
 11
-157.867080973577
 20
2.27827742121127
 21
2.27827742121127
 62
7
  0
LINE
  6
BYLAYER
  8
0
 10
-157.867080973577
 11
-157.867080973577
 20
2.27827742121127
 21
5.35321718024733
 62
7
  0
LINE
  6
BYLAYER
  8
0
 10
-157.867080973577
 11
-157.867080973577
 20
5.35321718024733
 21
5.35321718024733
 62
7
  0
LINE
  6
BYLAYER
  8
0
 10
20.4987636047366
 11
19.1535828818451
 20
-80.9609996872226
 21
-80.494614145054
 62
7
  0
LINE
  6
BYLAYER
  8
0
 10
19.1535828818451
 11
18.2663539661824
 20
-80.494614145054
 21
-79.1123249884273
 62
7
  0
LINE
  6
BYLAYER
  8
0
 10
18.2663539661824
 11
17.826956375821
 20
-79.1123249884273
 21
-75.872084024572
 62
7
  0
LINE
  6
BYLAYER
  8
0
 10
17.826956375821
 11
18.5041852914836
 20
-75.872084024572
 21
-71.8272647474636
 62
7
  0
LINE
  6
BYLAYER
  8
0
 10
18.5041852914836
 11
20.627799749315
 20
-71.8272647474636
 21
-70.4550960727647
 62
7
  0
LINE
  6
BYLAYER
  8
0
 10
20.627799749315
 11
21.9485226408813
 20
-70.4550960727647
 21
-70.8211201691503
 62
7
  0
LINE
  6
BYLAYER
  8
0
 10
21.9485226408813
 11
22.7497274601584
 20
-70.8211201691503
 21
-71.9014816149333
 62
7
  0
LINE
  6
BYLAYER
  8
0
 10
22.7497274601584
 11
23.2996069782307
 20
-71.9014816149333
 21
-75.5979876390297
 62
7
  0
LINE
  6
BYLAYER
  8
0
 10
23.2996069782307
 11
23.1165949300379
 20
-75.5979876390297
 21
-78.2065418558972
 62
7
  0
LINE
  6
BYLAYER
  8
0
 10
23.1165949300379
 11
22.548161195098
 20
-78.2065418558972
 21
-79.8258189643309
 62
7
  0
LINE
  6
BYLAYER
  8
0
 10
22.548161195098
 11
20.4987636047366
 20
-79.8258189643309
 21
-80.9609996872226
 62
7
  0
LINE
  6
BYLAYER
  8
0
 10
20.4987636047366
 11
20.4987636047366
 20
-80.9609996872226
 21
-80.9609996872226
 62
7
  0
LINE
  6
BYLAYER
  8
0
 10
20.5350286649776
 11
18.1465949300379
 20
-68.9538912534875
 21
-69.7053370366202
 62
7
  0
LINE
  6
BYLAYER
  8
0
 10
18.1465949300379
 11
16.6369563758209
 20
-69.7053370366202
 21
-71.9377466751744
 62
7
  0
LINE
  6
BYLAYER
  8
0
 10
16.6369563758209
 11
16.0508117975078
 20
-71.9377466751744
 21
-75.7995539040901
 62
7
  0
LINE
  6
BYLAYER
  8
0
 10
16.0508117975078
 11
17.0029804722065
 20
-75.7995539040901
 21
-80.4296743860178
 62
7
  0
LINE
  6
BYLAYER
  8
0
 10
17.0029804722065
 11
18.4577997493149
 20
-80.4296743860178
 21
-81.9679876390297
 62
7
  0
LINE
  6
BYLAYER
  8
0
 10
18.4577997493149
 11
20.5173178216041
 20
-81.9679876390297
 21
-82.4799153498732
 62
7
  0
LINE
  6
BYLAYER
  8
0
 10
20.5173178216041
 11
22.7817756529294
 20
-82.4799153498732
 21
-81.8389514944515
 62
7
  0
LINE
  6
BYLAYER
  8
0
 10
22.7817756529294
 11
24.3057515565439
 20
-81.8389514944515
 21
-79.9540117354153
 62
7
  0
LINE
  6
BYLAYER
  8
0
 10
24.3057515565439
 11
25.0926190264234
 20
-79.9540117354153
 21
-75.5254575185479
 62
7
  0
LINE
  6
BYLAYER
  8
0
 10
25.0926190264234
 11
24.2138238457005
 20
-75.5254575185479
 21
-71.0589514944514
 62
7
  0
LINE
  6
BYLAYER
  8
0
 10
24.2138238457005
 11
22.7227395083512
 20
-71.0589514944514
 21
-69.4750960727648
 62
7
  0
LINE
  6
BYLAYER
  8
0
 10
22.7227395083512
 11
20.5350286649776
 20
-69.4750960727648
 21
-68.9538912534875
 62
7
  0
LINE
  6
BYLAYER
  8
0
 10
20.5350286649776
 11
20.5350286649776
 20
-68.9538912534875
 21
-68.9538912534875
 62
7
  0
LINE
  6
BYLAYER
  8
0
 10
9.93382384570045
 11
9.93382384570045
 20
-72.8165418558972
 21
-82.1147346269815
 62
7
  0
LINE
  6
BYLAYER
  8
0
 10
9.93382384570045
 11
11.7091250505198
 20
-82.1147346269815
 21
-82.1147346269815
 62
7
  0
LINE
  6
BYLAYER
  8
0
 10
11.7091250505198
 11
11.7091250505198
 20
-82.1147346269815
 21
-69.0281081209575
 62
7
  0
LINE
  6
BYLAYER
  8
0
 10
11.7091250505198
 11
10.3909322794354
 20
-69.0281081209575
 21
-69.0281081209575
 62
7
  0
LINE
  6
BYLAYER
  8
0
 10
10.3909322794354
 11
9.3299684240137
 20
-69.0281081209575
 21
-70.9678671571021
 62
7
  0
LINE
  6
BYLAYER
  8
0
 10
9.3299684240137
 11
6.85972746015828
 20
-70.9678671571021
 21
-71.5531683619214
 62
7
  0
LINE
  6
BYLAYER
  8
0
 10
6.85972746015828
 11
6.85972746015828
 20
-71.5531683619214
 21
-72.8165418558972
 62
7
  0
LINE
  6
BYLAYER
  8
0
 10
6.85972746015828
 11
9.93382384570045
 20
-72.8165418558972
 21
-72.8165418558972
 62
7
  0
LINE
  6
BYLAYER
  8
0
 10
9.93382384570045
 11
9.93382384570045
 20
-72.8165418558972
 21
-72.8165418558972
 62
7
  0
LINE
  6
BYLAYER
  8
0
 10
-4.78641711815489
 11
4.23683589389323
 20
-82.1147346269815
 21
-82.1147346269815
 62
7
  0
LINE
  6
BYLAYER
  8
0
 10
4.23683589389323
 11
4.23683589389323
 20
-82.1147346269815
 21
-80.557867157102
 62
7
  0
LINE
  6
BYLAYER
  8
0
 10
4.23683589389323
 11
-2.95545326273329
 20
-80.557867157102
 21
-80.557867157102
 62
7
  0
LINE
  6
BYLAYER
  8
0
 10
-2.95545326273329
 11
-1.78400747960067
 20
-80.557867157102
 21
-78.7834093257768
 62
7
  0
LINE
  6
BYLAYER
  8
0
 10
-1.78400747960067
 11
-0.374730371167018
 20
-78.7834093257768
 21
-77.8497948679454
 62
7
  0
LINE
  6
BYLAYER
  8
0
 10
-0.374730371167018
 11
0.887799749314993
 20
-77.8497948679454
 21
-77.1363008920418
 62
7
  0
LINE
  6
BYLAYER
  8
0
 10
0.887799749314993
 11
3.17587203847155
 20
-77.1363008920418
 21
-75.5617225787888
 62
7
  0
LINE
  6
BYLAYER
  8
0
 10
3.17587203847155
 11
4.29165517100164
 20
-75.5617225787888
 21
-72.8713611330057
 62
7
  0
LINE
  6
BYLAYER
  8
0
 10
4.29165517100164
 11
3.24924553244743
 20
-72.8713611330057
 21
-70.1438912534876
 62
7
  0
LINE
  6
BYLAYER
  8
0
 10
3.24924553244743
 11
1.90322143606197
 20
-70.1438912534876
 21
-69.2296743860178
 62
7
  0
LINE
  6
BYLAYER
  8
0
 10
1.90322143606197
 11
-0.0458147085164029
 20
-69.2296743860178
 21
-68.9176261932467
 62
7
  0
LINE
  6
BYLAYER
  8
0
 10
-0.0458147085164029
 11
-2.35244121454052
 20
-68.9176261932467
 21
-69.398349084813
 62
7
  0
LINE
  6
BYLAYER
  8
0
 10
-2.35244121454052
 11
-3.83424844345619
 20
-69.398349084813
 21
-70.8396743860177
 62
7
  0
LINE
  6
BYLAYER
  8
0
 10
-3.83424844345619
 11
-4.47436892538379
 20
-70.8396743860177
 21
-73.6396743860177
 62
7
  0
LINE
  6
BYLAYER
  8
0
 10
-4.47436892538379
 11
-2.77244121454051
 20
-73.6396743860177
 21
-73.6396743860177
 62
7
  0
LINE
  6
BYLAYER
  8
0
 10
-2.77244121454051
 11
-2.40726049164887
 20
-73.6396743860177
 21
-71.7184695667407
 62
7
  0
LINE
  6
BYLAYER
  8
0
 10
-2.40726049164887
 11
-1.48629663622727
 20
-71.7184695667407
 21
-70.7443731811984
 62
7
  0
LINE
  6
BYLAYER
  8
0
 10
-1.48629663622727
 11
-0.0458147085164029
 20
-70.7443731811984
 21
-70.4188310125238
 62
7
  0
LINE
  6
BYLAYER
  8
0
 10
-0.0458147085164029
 11
1.76659493003787
 20
-70.4188310125238
 21
-71.0952165546925
 62
7
  0
LINE
  6
BYLAYER
  8
0
 10
1.76659493003787
 11
2.46237806256802
 20
-71.0952165546925
 21
-72.9261804101141
 62
7
  0
LINE
  6
BYLAYER
  8
0
 10
2.46237806256802
 11
1.7109322794354
 20
-72.9261804101141
 21
-74.6829273980659
 62
7
  0
LINE
  6
BYLAYER
  8
0
 10
1.7109322794354
 11
0.0646672191945044
 20
-74.6829273980659
 21
-75.8543731811985
 62
7
  0
LINE
  6
BYLAYER
  8
0
 10
0.0646672191945044
 11
-1.71147735911883
 20
-75.8543731811985
 21
-76.8605177595117
 62
7
  0
LINE
  6
BYLAYER
  8
0
 10
-1.71147735911883
 11
-4.09063398562476
 20
-76.8605177595117
 21
-79.1671442655358
 62
7
  0
LINE
  6
BYLAYER
  8
0
 10
-4.09063398562476
 11
-4.78641711815489
 20
-79.1671442655358
 21
-82.1147346269815
 62
7
  0
LINE
  6
BYLAYER
  8
0
 10
-4.78641711815489
 11
-4.78641711815489
 20
-82.1147346269815
 21
-82.1147346269815
 62
7
  0
LINE
  6
BYLAYER
  8
0
 10
206.830329869797
 11
206.830329869797
 20
-102.169312940235
 21
-103.834975590837
 62
7
  0
LINE
  6
BYLAYER
  8
0
 10
206.830329869797
 11
214.095992520399
 20
-103.834975590837
 21
-103.834975590837
 62
7
  0
LINE
  6
BYLAYER
  8
0
 10
214.095992520399
 11
211.460450351725
 20
-103.834975590837
 21
-107.604011735415
 62
7
  0
LINE
  6
BYLAYER
  8
0
 10
211.460450351725
 11
208.716113002327
 20
-107.604011735415
 21
-115.109192458307
 62
7
  0
LINE
  6
BYLAYER
  8
0
 10
208.716113002327
 11
210.528522640881
 20
-115.109192458307
 21
-115.109192458307
 62
7
  0
LINE
  6
BYLAYER
  8
0
 10
210.528522640881
 11
211.222619026423
 20
-115.109192458307
 21
-112.180999687222
 62
7
  0
LINE
  6
BYLAYER
  8
0
 10
211.222619026423
 11
212.432016616785
 20
-112.180999687222
 21
-109.031843060716
 62
7
  0
LINE
  6
BYLAYER
  8
0
 10
212.432016616785
 11
214.29755878546
 20
-109.031843060716
 21
-105.774734626982
 62
7
  0
LINE
  6
BYLAYER
  8
0
 10
214.29755878546
 11
215.963221436062
 20
-105.774734626982
 21
-103.595457518548
 62
7
  0
LINE
  6
BYLAYER
  8
0
 10
215.963221436062
 11
215.963221436062
 20
-103.595457518548
 21
-102.169312940235
 62
7
  0
LINE
  6
BYLAYER
  8
0
 10
215.963221436062
 11
206.830329869797
 20
-102.169312940235
 21
-102.169312940235
 62
7
  0
LINE
  6
BYLAYER
  8
0
 10
206.830329869797
 11
206.830329869797
 20
-102.169312940235
 21
-102.169312940235
 62
7
  0
LINE
  6
BYLAYER
  8
0
 10
196.315992520399
 11
197.689004568592
 20
-111.759312940235
 21
-114.540758723367
 62
7
  0
LINE
  6
BYLAYER
  8
0
 10
197.689004568592
 11
200.526113002327
 20
-114.540758723367
 21
-115.438108120958
 62
7
  0
LINE
  6
BYLAYER
  8
0
 10
200.526113002327
 11
202.707920231243
 20
-115.438108120958
 21
-115.085578000476
 62
7
  0
LINE
  6
BYLAYER
  8
0
 10
202.707920231243
 11
204.204064809556
 20
-115.085578000476
 21
-114.010276795656
 62
7
  0
LINE
  6
BYLAYER
  8
0
 10
204.204064809556
 11
205.357799749315
 20
-114.010276795656
 21
-110.73377077156
 62
7
  0
LINE
  6
BYLAYER
  8
0
 10
205.357799749315
 11
204.093582881845
 20
-110.73377077156
 21
-107.750758723367
 62
7
  0
LINE
  6
BYLAYER
  8
0
 10
204.093582881845
 11
201.03804071317
 20
-107.750758723367
 21
-106.597867157102
 62
7
  0
LINE
  6
BYLAYER
  8
0
 10
201.03804071317
 11
199.336113002327
 20
-106.597867157102
 21
-106.890517759512
 62
7
  0
LINE
  6
BYLAYER
  8
0
 10
199.336113002327
 11
198.457317821604
 20
-106.890517759512
 21
-107.420999687223
 62
7
  0
LINE
  6
BYLAYER
  8
0
 10
198.457317821604
 11
199.024064809556
 20
-107.420999687223
 21
-103.797023783608
 62
7
  0
LINE
  6
BYLAYER
  8
0
 10
199.024064809556
 11
204.607197339676
 20
-103.797023783608
 21
-103.797023783608
 62
7
  0
LINE
  6
BYLAYER
  8
0
 10
204.607197339676
 11
204.607197339676
 20
-103.797023783608
 21
-102.169312940235
 62
7
  0
LINE
  6
BYLAYER
  8
0
 10
204.607197339676
 11
197.797799749315
 20
-102.169312940235
 21
-102.169312940235
 62
7
  0
LINE
  6
BYLAYER
  8
0
 10
197.797799749315
 11
196.791655171002
 20
-102.169312940235
 21
-109.269674386018
 62
7
  0
LINE
  6
BYLAYER
  8
0
 10
196.791655171002
 11
198.219486496303
 20
-109.269674386018
 21
-109.343891253488
 62
7
  0
LINE
  6
BYLAYER
  8
0
 10
198.219486496303
 11
199.261896134857
 20
-109.343891253488
 21
-108.42798763903
 62
7
  0
LINE
  6
BYLAYER
  8
0
 10
199.261896134857
 11
200.70912505052
 20
-108.42798763903
 21
-108.098228602885
 62
7
  0
LINE
  6
BYLAYER
  8
0
 10
200.70912505052
 11
202.72225758064
 20
-108.098228602885
 21
-108.849674386018
 62
7
  0
LINE
  6
BYLAYER
  8
0
 10
202.72225758064
 11
203.563100954134
 20
-108.849674386018
 21
-110.990156313729
 62
7
  0
LINE
  6
BYLAYER
  8
0
 10
203.563100954134
 11
202.849606978231
 20
-110.990156313729
 21
-113.058951494451
 62
7
  0
LINE
  6
BYLAYER
  8
0
 10
202.849606978231
 11
200.689727460158
 20
-113.058951494451
 21
-113.991722578789
 62
7
  0
LINE
  6
BYLAYER
  8
0
 10
200.689727460158
 11
199.336113002327
 20
-113.991722578789
 21
-113.717626193247
 62
7
  0
LINE
  6
BYLAYER
  8
0
 10
199.336113002327
 11
198.017920231243
 20
-113.717626193247
 21
-111.759312940235
 62
7
  0
LINE
  6
BYLAYER
  8
0
 10
198.017920231243
 11
196.315992520399
 20
-111.759312940235
 21
-111.759312940235
 62
7
  0
LINE
  6
BYLAYER
  8
0
 10
196.315992520399
 11
196.315992520399
 20
-111.759312940235
 21
-111.759312940235
 62
7
  0
LINE
  6
BYLAYER
  8
0
 10
154.545390110761
 11
155.918402158953
 20
-111.369674386018
 21
-114.151963542644
 62
7
  0
LINE
  6
BYLAYER
  8
0
 10
155.918402158953
 11
158.754667219194
 20
-114.151963542644
 21
-115.049312940235
 62
7
  0
LINE
  6
BYLAYER
  8
0
 10
158.754667219194
 11
160.938161195098
 20
-115.049312940235
 21
-114.696782819753
 62
7
  0
LINE
  6
BYLAYER
  8
0
 10
160.938161195098
 11
162.433462399917
 20
-114.696782819753
 21
-113.621481614933
 62
7
  0
LINE
  6
BYLAYER
  8
0
 10
162.433462399917
 11
163.586353966182
 20
-113.621481614933
 21
-110.344975590837
 62
7
  0
LINE
  6
BYLAYER
  8
0
 10
163.586353966182
 11
162.3238238457
 20
-110.344975590837
 21
-107.361963542644
 62
7
  0
LINE
  6
BYLAYER
  8
0
 10
162.3238238457
 11
159.267438303532
 20
-107.361963542644
 21
-106.209071976379
 62
7
  0
LINE
  6
BYLAYER
  8
0
 10
159.267438303532
 11
157.565510592688
 20
-106.209071976379
 21
-106.501722578789
 62
7
  0
LINE
  6
BYLAYER
  8
0
 10
157.565510592688
 11
156.686715411966
 20
-106.501722578789
 21
-107.0322045065
 62
7
  0
LINE
  6
BYLAYER
  8
0
 10
156.686715411966
 11
157.254305773411
 20
-107.0322045065
 21
-103.408228602885
 62
7
  0
LINE
  6
BYLAYER
  8
0
 10
157.254305773411
 11
162.836594930038
 20
-103.408228602885
 21
-103.408228602885
 62
7
  0
LINE
  6
BYLAYER
  8
0
 10
162.836594930038
 11
162.836594930038
 20
-103.408228602885
 21
-101.780517759512
 62
7
  0
LINE
  6
BYLAYER
  8
0
 10
162.836594930038
 11
156.027197339676
 20
-101.780517759512
 21
-101.780517759512
 62
7
  0
LINE
  6
BYLAYER
  8
0
 10
156.027197339676
 11
155.021052761363
 20
-101.780517759512
 21
-108.880879205295
 62
7
  0
LINE
  6
BYLAYER
  8
0
 10
155.021052761363
 11
156.448884086664
 20
-108.880879205295
 21
-108.955096072765
 62
7
  0
LINE
  6
BYLAYER
  8
0
 10
156.448884086664
 11
157.492137098713
 20
-108.955096072765
 21
-108.038349084813
 62
7
  0
LINE
  6
BYLAYER
  8
0
 10
157.492137098713
 11
158.938522640881
 20
-108.038349084813
 21
-107.709433422162
 62
7
  0
LINE
  6
BYLAYER
  8
0
 10
158.938522640881
 11
160.950811797508
 20
-107.709433422162
 21
-108.460035831801
 62
7
  0
LINE
  6
BYLAYER
  8
0
 10
160.950811797508
 11
161.79334191799
 20
-108.460035831801
 21
-110.601361133006
 62
7
  0
LINE
  6
BYLAYER
  8
0
 10
161.79334191799
 11
161.079847942086
 20
-110.601361133006
 21
-112.669312940235
 62
7
  0
LINE
  6
BYLAYER
  8
0
 10
161.079847942086
 11
158.919968424014
 20
-112.669312940235
 21
-113.602927398066
 62
7
  0
LINE
  6
BYLAYER
  8
0
 10
158.919968424014
 11
157.565510592688
 20
-113.602927398066
 21
-113.328831012524
 62
7
  0
LINE
  6
BYLAYER
  8
0
 10
157.565510592688
 11
156.247317821604
 20
-113.328831012524
 21
-111.369674386018
 62
7
  0
LINE
  6
BYLAYER
  8
0
 10
156.247317821604
 11
154.545390110761
 20
-111.369674386018
 21
-111.369674386018
 62
7
  0
LINE
  6
BYLAYER
  8
0
 10
154.545390110761
 11
154.545390110761
 20
-111.369674386018
 21
-111.369674386018
 62
7
  0
LINE
  6
BYLAYER
  8
0
 10
150.290570833652
 11
151.809486496303
 20
-117.500999687223
 21
-116.494855108909
 62
7
  0
LINE
  6
BYLAYER
  8
0
 10
151.809486496303
 11
152.248884086664
 20
-116.494855108909
 21
-114.572806916138
 62
7
  0
LINE
  6
BYLAYER
  8
0
 10
152.248884086664
 11
152.248884086664
 20
-114.572806916138
 21
-112.724132217343
 62
7
  0
LINE
  6
BYLAYER
  8
0
 10
152.248884086664
 11
150.290570833652
 20
-112.724132217343
 21
-112.724132217343
 62
7
  0
LINE
  6
BYLAYER
  8
0
 10
150.290570833652
 11
150.290570833652
 20
-112.724132217343
 21
-114.718710530596
 62
7
  0
LINE
  6
BYLAYER
  8
0
 10
150.290570833652
 11
151.296715411966
 20
-114.718710530596
 21
-114.718710530596
 62
7
  0
LINE
  6
BYLAYER
  8
0
 10
151.296715411966
 11
151.315269628833
 20
-114.718710530596
 21
-114.829192458307
 62
7
  0
LINE
  6
BYLAYER
  8
0
 10
151.315269628833
 11
151.315269628833
 20
-114.829192458307
 21
-114.938831012524
 62
7
  0
LINE
  6
BYLAYER
  8
0
 10
151.315269628833
 11
151.186233484255
 20
-114.938831012524
 21
-115.744252699271
 62
7
  0
LINE
  6
BYLAYER
  8
0
 10
151.186233484255
 11
150.290570833652
 20
-115.744252699271
 21
-116.640758723367
 62
7
  0
LINE
  6
BYLAYER
  8
0
 10
150.290570833652
 11
150.290570833652
 20
-116.640758723367
 21
-117.500999687223
 62
7
  0
LINE
  6
BYLAYER
  8
0
 10
150.290570833652
 11
150.290570833652
 20
-117.500999687223
 21
-117.500999687223
 62
7
  0
LINE
  6
BYLAYER
  8
0
 10
139.011293725219
 11
139.011293725219
 20
-101.780517759512
 21
-103.444493663126
 62
7
  0
LINE
  6
BYLAYER
  8
0
 10
139.011293725219
 11
146.276956375821
 20
-103.444493663126
 21
-103.444493663126
 62
7
  0
LINE
  6
BYLAYER
  8
0
 10
146.276956375821
 11
143.641414207146
 20
-103.444493663126
 21
-107.215216554692
 62
7
  0
LINE
  6
BYLAYER
  8
0
 10
143.641414207146
 11
140.896233484255
 20
-107.215216554692
 21
-114.718710530596
 62
7
  0
LINE
  6
BYLAYER
  8
0
 10
140.896233484255
 11
142.707799749315
 20
-114.718710530596
 21
-114.718710530596
 62
7
  0
LINE
  6
BYLAYER
  8
0
 10
142.707799749315
 11
143.403582881845
 20
-114.718710530596
 21
-111.790517759512
 62
7
  0
LINE
  6
BYLAYER
  8
0
 10
143.403582881845
 11
144.611293725219
 20
-111.790517759512
 21
-108.643047879994
 62
7
  0
LINE
  6
BYLAYER
  8
0
 10
144.611293725219
 11
146.478522640881
 20
-108.643047879994
 21
-105.385939446259
 62
7
  0
LINE
  6
BYLAYER
  8
0
 10
146.478522640881
 11
148.144185291484
 20
-105.385939446259
 21
-103.206662337825
 62
7
  0
LINE
  6
BYLAYER
  8
0
 10
148.144185291484
 11
148.144185291484
 20
-103.206662337825
 21
-101.780517759512
 62
7
  0
LINE
  6
BYLAYER
  8
0
 10
148.144185291484
 11
139.011293725219
 20
-101.780517759512
 21
-101.780517759512
 62
7
  0
LINE
  6
BYLAYER
  8
0
 10
139.011293725219
 11
139.011293725219
 20
-101.780517759512
 21
-101.780517759512
 62
7
  0
LINE
  6
BYLAYER
  8
0
 10
274.942859990279
 11
277.725149146905
 20
18.3251448910907
 21
19.6973135657894
 62
7
  0
LINE
  6
BYLAYER
  8
0
 10
277.725149146905
 11
278.621655171002
 20
19.6973135657894
 21
22.5344219995245
 62
7
  0
LINE
  6
BYLAYER
  8
0
 10
278.621655171002
 11
278.269968424014
 20
22.5344219995245
 21
24.717915975428
 62
7
  0
LINE
  6
BYLAYER
  8
0
 10
278.269968424014
 11
277.194667219194
 20
24.717915975428
 21
26.2132171802473
 62
7
  0
LINE
  6
BYLAYER
  8
0
 10
277.194667219194
 11
273.918161195098
 20
26.2132171802473
 21
27.3661087465125
 62
7
  0
LINE
  6
BYLAYER
  8
0
 10
273.918161195098
 11
270.935149146905
 20
27.3661087465125
 21
26.1035786260305
 62
7
  0
LINE
  6
BYLAYER
  8
0
 10
270.935149146905
 11
269.78225758064
 20
26.1035786260305
 21
23.0471930838617
 62
7
  0
LINE
  6
BYLAYER
  8
0
 10
269.78225758064
 11
270.07490818305
 20
23.0471930838617
 21
21.3452653730184
 62
7
  0
LINE
  6
BYLAYER
  8
0
 10
270.07490818305
 11
270.605390110761
 20
21.3452653730184
 21
20.4664701922956
 62
7
  0
LINE
  6
BYLAYER
  8
0
 10
270.605390110761
 11
266.981414207146
 20
20.4664701922956
 21
21.0340605537414
 62
7
  0
LINE
  6
BYLAYER
  8
0
 10
266.981414207146
 11
266.981414207146
 20
21.0340605537414
 21
26.6163497103678
 62
7
  0
LINE
  6
BYLAYER
  8
0
 10
266.981414207146
 11
265.352016616785
 20
26.6163497103678
 21
26.6163497103678
 62
7
  0
LINE
  6
BYLAYER
  8
0
 10
265.352016616785
 11
265.352016616785
 20
26.6163497103678
 21
19.8069521200064
 62
7
  0
LINE
  6
BYLAYER
  8
0
 10
265.352016616785
 11
272.454064809556
 20
19.8069521200064
 21
18.8008075416931
 62
7
  0
LINE
  6
BYLAYER
  8
0
 10
272.454064809556
 11
272.526594930038
 20
18.8008075416931
 21
20.2286388669944
 62
7
  0
LINE
  6
BYLAYER
  8
0
 10
272.526594930038
 11
271.611534689074
 20
20.2286388669944
 21
21.2718918790425
 62
7
  0
LINE
  6
BYLAYER
  8
0
 10
271.611534689074
 11
271.282619026423
 20
21.2718918790425
 21
22.7182774212112
 62
7
  0
LINE
  6
BYLAYER
  8
0
 10
271.282619026423
 11
272.032378062568
 20
22.7182774212112
 21
24.7305665778377
 62
7
  0
LINE
  6
BYLAYER
  8
0
 10
272.032378062568
 11
274.174546737267
 20
24.7305665778377
 21
25.5730966983197
 62
7
  0
LINE
  6
BYLAYER
  8
0
 10
274.174546737267
 11
276.242498544496
 20
25.5730966983197
 21
24.859602722416
 62
7
  0
LINE
  6
BYLAYER
  8
0
 10
276.242498544496
 11
277.176113002327
 20
24.859602722416
 21
22.6997232043438
 62
7
  0
LINE
  6
BYLAYER
  8
0
 10
277.176113002327
 11
276.902016616785
 20
22.6997232043438
 21
21.3452653730184
 62
7
  0
LINE
  6
BYLAYER
  8
0
 10
276.902016616785
 11
274.942859990279
 20
21.3452653730184
 21
20.027915975428
 62
7
  0
LINE
  6
BYLAYER
  8
0
 10
274.942859990279
 11
274.942859990279
 20
20.027915975428
 21
18.3251448910907
 62
7
  0
LINE
  6
BYLAYER
  8
0
 10
274.942859990279
 11
274.942859990279
 20
18.3251448910907
 21
18.3251448910907
 62
7
  0
LINE
  6
BYLAYER
  8
0
 10
278.291896134857
 11
275.071052761363
 20
15.1861087465123
 21
15.1861087465123
 62
7
  0
LINE
  6
BYLAYER
  8
0
 10
275.071052761363
 11
275.071052761363
 20
15.1861087465123
 21
17.1258677826571
 62
7
  0
LINE
  6
BYLAYER
  8
0
 10
275.071052761363
 11
273.606956375821
 20
17.1258677826571
 21
17.1258677826571
 62
7
  0
LINE
  6
BYLAYER
  8
0
 10
273.606956375821
 11
273.606956375821
 20
17.1258677826571
 21
15.1861087465123
 62
7
  0
LINE
  6
BYLAYER
  8
0
 10
273.606956375821
 11
265.114185291484
 20
15.1861087465123
 21
15.1861087465123
 62
7
  0
LINE
  6
BYLAYER
  8
0
 10
265.114185291484
 11
265.114185291484
 20
15.1861087465123
 21
13.7945424814522
 62
7
  0
LINE
  6
BYLAYER
  8
0
 10
265.114185291484
 11
273.442498544496
 20
13.7945424814522
 21
7.77369910795824
 62
7
  0
LINE
  6
BYLAYER
  8
0
 10
273.442498544496
 11
275.071052761363
 20
7.77369910795824
 21
7.77369910795824
 62
7
  0
LINE
  6
BYLAYER
  8
0
 10
275.071052761363
 11
275.071052761363
 20
7.77369910795824
 21
13.5390003127774
 62
7
  0
LINE
  6
BYLAYER
  8
0
 10
275.071052761363
 11
278.291896134857
 20
13.5390003127774
 21
13.5390003127774
 62
7
  0
LINE
  6
BYLAYER
  8
0
 10
278.291896134857
 11
278.291896134857
 20
13.5390003127774
 21
15.1861087465123
 62
7
  0
LINE
  6
BYLAYER
  8
0
 10
278.291896134857
 11
278.291896134857
 20
15.1861087465123
 21
15.1861087465123
 62
7
  0
LINE
  6
BYLAYER
  8
0
 10
273.606956375821
 11
267.69490818305
 20
9.29345814410271
 21
13.5204460959099
 62
7
  0
LINE
  6
BYLAYER
  8
0
 10
267.69490818305
 11
273.606956375821
 20
13.5204460959099
 21
13.5204460959099
 62
7
  0
LINE
  6
BYLAYER
  8
0
 10
273.606956375821
 11
273.606956375821
 20
13.5204460959099
 21
9.29345814410271
 62
7
  0
LINE
  6
BYLAYER
  8
0
 10
273.606956375821
 11
273.606956375821
 20
9.29345814410271
 21
9.29345814410271
 62
7
  0
LINE
  6
BYLAYER
  8
0
 10
207.13225758064
 11
208.505269628833
 20
-77.7899153498732
 21
-80.5713611330057
 62
7
  0
LINE
  6
BYLAYER
  8
0
 10
208.505269628833
 11
211.342378062568
 20
-80.5713611330057
 21
-81.468710530596
 62
7
  0
LINE
  6
BYLAYER
  8
0
 10
211.342378062568
 11
213.524185291484
 20
-81.468710530596
 21
-81.1161804101141
 62
7
  0
LINE
  6
BYLAYER
  8
0
 10
213.524185291484
 11
215.021173243291
 20
-81.1161804101141
 21
-80.0408792052948
 62
7
  0
LINE
  6
BYLAYER
  8
0
 10
215.021173243291
 11
216.174064809556
 20
-80.0408792052948
 21
-76.7652165546925
 62
7
  0
LINE
  6
BYLAYER
  8
0
 10
216.174064809556
 11
214.911534689074
 20
-76.7652165546925
 21
-73.7813611330057
 62
7
  0
LINE
  6
BYLAYER
  8
0
 10
214.911534689074
 11
211.854305773411
 20
-73.7813611330057
 21
-72.6284695667407
 62
7
  0
LINE
  6
BYLAYER
  8
0
 10
211.854305773411
 11
210.152378062568
 20
-72.6284695667407
 21
-72.9219635426442
 62
7
  0
LINE
  6
BYLAYER
  8
0
 10
210.152378062568
 11
209.273582881845
 20
-72.9219635426442
 21
-73.452445470355
 62
7
  0
LINE
  6
BYLAYER
  8
0
 10
209.273582881845
 11
209.842016616785
 20
-73.452445470355
 21
-69.8284695667406
 62
7
  0
LINE
  6
BYLAYER
  8
0
 10
209.842016616785
 11
215.423462399917
 20
-69.8284695667406
 21
-69.8284695667406
 62
7
  0
LINE
  6
BYLAYER
  8
0
 10
215.423462399917
 11
215.423462399917
 20
-69.8284695667406
 21
-68.1999153498731
 62
7
  0
LINE
  6
BYLAYER
  8
0
 10
215.423462399917
 11
208.615751556544
 20
-68.1999153498731
 21
-68.1999153498731
 62
7
  0
LINE
  6
BYLAYER
  8
0
 10
208.615751556544
 11
207.607920231243
 20
-68.1999153498731
 21
-75.3002767956563
 62
7
  0
LINE
  6
BYLAYER
  8
0
 10
207.607920231243
 11
209.035751556544
 20
-75.3002767956563
 21
-75.3744936631261
 62
7
  0
LINE
  6
BYLAYER
  8
0
 10
209.035751556544
 11
210.079847942086
 20
-75.3744936631261
 21
-74.4585900486684
 62
7
  0
LINE
  6
BYLAYER
  8
0
 10
210.079847942086
 11
211.525390110761
 20
-74.4585900486684
 21
-74.1296743860178
 62
7
  0
LINE
  6
BYLAYER
  8
0
 10
211.525390110761
 11
213.538522640881
 20
-74.1296743860178
 21
-74.8802767956564
 62
7
  0
LINE
  6
BYLAYER
  8
0
 10
213.538522640881
 11
214.381052761363
 20
-74.8802767956564
 21
-77.021602096861
 62
7
  0
LINE
  6
BYLAYER
  8
0
 10
214.381052761363
 11
213.665872038472
 20
-77.021602096861
 21
-79.0895539040901
 62
7
  0
LINE
  6
BYLAYER
  8
0
 10
213.665872038472
 11
211.507679267387
 20
-79.0895539040901
 21
-80.0223249884273
 62
7
  0
LINE
  6
BYLAYER
  8
0
 10
211.507679267387
 11
210.152378062568
 20
-80.0223249884273
 21
-79.7482286028851
 62
7
  0
LINE
  6
BYLAYER
  8
0
 10
210.152378062568
 11
208.834185291484
 20
-79.7482286028851
 21
-77.7899153498732
 62
7
  0
LINE
  6
BYLAYER
  8
0
 10
208.834185291484
 11
207.13225758064
 20
-77.7899153498732
 21
-77.7899153498732
 62
7
  0
LINE
  6
BYLAYER
  8
0
 10
207.13225758064
 11
207.13225758064
 20
-77.7899153498732
 21
-77.7899153498732
 62
7
  0
LINE
  6
BYLAYER
  8
0
 10
202.876594930038
 11
204.396353966182
 20
-83.9220840245719
 21
-82.9142526992708
 62
7
  0
LINE
  6
BYLAYER
  8
0
 10
204.396353966182
 11
204.835751556544
 20
-82.9142526992708
 21
-80.9930478799936
 62
7
  0
LINE
  6
BYLAYER
  8
0
 10
204.835751556544
 11
204.835751556544
 20
-80.9930478799936
 21
-79.1435298077045
 62
7
  0
LINE
  6
BYLAYER
  8
0
 10
204.835751556544
 11
202.876594930038
 20
-79.1435298077045
 21
-79.1435298077045
 62
7
  0
LINE
  6
BYLAYER
  8
0
 10
202.876594930038
 11
202.876594930038
 20
-79.1435298077045
 21
-81.1397948679455
 62
7
  0
LINE
  6
BYLAYER
  8
0
 10
202.876594930038
 11
203.884426255339
 20
-81.1397948679455
 21
-81.1397948679455
 62
7
  0
LINE
  6
BYLAYER
  8
0
 10
203.884426255339
 11
203.902137098713
 20
-81.1397948679455
 21
-81.2485900486684
 62
7
  0
LINE
  6
BYLAYER
  8
0
 10
203.902137098713
 11
203.902137098713
 20
-81.2485900486684
 21
-81.3590719763791
 62
7
  0
LINE
  6
BYLAYER
  8
0
 10
203.902137098713
 11
203.773944327628
 20
-81.3590719763791
 21
-82.1644936631261
 62
7
  0
LINE
  6
BYLAYER
  8
0
 10
203.773944327628
 11
202.876594930038
 20
-82.1644936631261
 21
-83.0609996872226
 62
7
  0
LINE
  6
BYLAYER
  8
0
 10
202.876594930038
 11
202.876594930038
 20
-83.0609996872226
 21
-83.9220840245719
 62
7
  0
LINE
  6
BYLAYER
  8
0
 10
202.876594930038
 11
202.876594930038
 20
-83.9220840245719
 21
-83.9220840245719
 62
7
  0
LINE
  6
BYLAYER
  8
0
 10
195.790570833652
 11
199.304064809556
 20
-81.504975590837
 21
-80.314975590837
 62
7
  0
LINE
  6
BYLAYER
  8
0
 10
199.304064809556
 11
200.54804071317
 20
-80.314975590837
 21
-77.2400358318008
 62
7
  0
LINE
  6
BYLAYER
  8
0
 10
200.54804071317
 11
199.962739508351
 20
-77.2400358318008
 21
-75.2640117354154
 62
7
  0
LINE
  6
BYLAYER
  8
0
 10
199.962739508351
 11
198.351896134857
 20
-75.2640117354154
 21
-74.1659394462587
 62
7
  0
LINE
  6
BYLAYER
  8
0
 10
198.351896134857
 11
199.376594930038
 20
-74.1659394462587
 21
-73.4338912534877
 62
7
  0
LINE
  6
BYLAYER
  8
0
 10
199.376594930038
 11
200.036113002327
 20
-73.4338912534877
 21
-71.4570237836082
 62
7
  0
LINE
  6
BYLAYER
  8
0
 10
200.036113002327
 11
198.93804071317
 20
-71.4570237836082
 21
-68.8771442655357
 62
7
  0
LINE
  6
BYLAYER
  8
0
 10
198.93804071317
 11
195.826835893893
 20
-68.8771442655357
 21
-67.9797948679455
 62
7
  0
LINE
  6
BYLAYER
  8
0
 10
195.826835893893
 11
193.671173243291
 20
-67.9797948679455
 21
-68.4326864342106
 62
7
  0
LINE
  6
BYLAYER
  8
0
 10
193.671173243291
 11
192.276233484255
 20
-68.4326864342106
 21
-69.8107587233671
 62
7
  0
LINE
  6
BYLAYER
  8
0
 10
192.276233484255
 11
191.690088905941
 20
-69.8107587233671
 21
-72.29955390409
 62
7
  0
LINE
  6
BYLAYER
  8
0
 10
191.690088905941
 11
193.35490818305
 20
-72.29955390409
 21
-72.29955390409
 62
7
  0
LINE
  6
BYLAYER
  8
0
 10
193.35490818305
 11
193.740329869797
 20
-72.29955390409
 21
-70.5790719763792
 62
7
  0
LINE
  6
BYLAYER
  8
0
 10
193.740329869797
 11
196.009004568592
 20
-70.5790719763792
 21
-69.4801563137285
 62
7
  0
LINE
  6
BYLAYER
  8
0
 10
196.009004568592
 11
197.638402158953
 20
-69.4801563137285
 21
-70.0123249884273
 62
7
  0
LINE
  6
BYLAYER
  8
0
 10
197.638402158953
 11
198.33334191799
 20
-70.0123249884273
 21
-71.530397277584
 62
7
  0
LINE
  6
BYLAYER
  8
0
 10
198.33334191799
 11
197.272378062568
 20
-71.530397277584
 21
-73.3605177595117
 62
7
  0
LINE
  6
BYLAYER
  8
0
 10
197.272378062568
 11
195.752619026423
 20
-73.3605177595117
 21
-73.6540117354153
 62
7
  0
LINE
  6
BYLAYER
  8
0
 10
195.752619026423
 11
195.368884086664
 20
-73.6540117354153
 21
-73.6346141450538
 62
7
  0
LINE
  6
BYLAYER
  8
0
 10
195.368884086664
 11
194.94804071317
 20
-73.6346141450538
 21
-73.5983490848129
 62
7
  0
LINE
  6
BYLAYER
  8
0
 10
194.94804071317
 11
194.94804071317
 20
-73.5983490848129
 21
-75.0624454703551
 62
7
  0
LINE
  6
BYLAYER
  8
0
 10
194.94804071317
 11
195.276956375821
 20
-75.0624454703551
 21
-75.0438912534876
 62
7
  0
LINE
  6
BYLAYER
  8
0
 10
195.276956375821
 11
195.625269628833
 20
-75.0438912534876
 21
-75.0438912534876
 62
7
  0
LINE
  6
BYLAYER
  8
0
 10
195.625269628833
 11
197.931052761363
 20
-75.0438912534876
 21
-75.5937707715599
 62
7
  0
LINE
  6
BYLAYER
  8
0
 10
197.931052761363
 11
198.755028664978
 20
-75.5937707715599
 21
-77.4972647474635
 62
7
  0
LINE
  6
BYLAYER
  8
0
 10
198.755028664978
 11
197.968161195098
 20
-77.4972647474635
 21
-79.2902767956563
 62
7
  0
LINE
  6
BYLAYER
  8
0
 10
197.968161195098
 11
195.881655171002
 20
-79.2902767956563
 21
-79.9860599281864
 62
7
  0
LINE
  6
BYLAYER
  8
0
 10
195.881655171002
 11
193.55647444811
 20
-79.9860599281864
 21
-78.9613611330057
 62
7
  0
LINE
  6
BYLAYER
  8
0
 10
193.55647444811
 11
193.080811797508
 20
-78.9613611330057
 21
-77.0941322173431
 62
7
  0
LINE
  6
BYLAYER
  8
0
 10
193.080811797508
 11
191.360329869797
 20
-77.0941322173431
 21
-77.0941322173431
 62
7
  0
LINE
  6
BYLAYER
  8
0
 10
191.360329869797
 11
192.403582881845
 20
-77.0941322173431
 21
-80.2238912534876
 62
7
  0
LINE
  6
BYLAYER
  8
0
 10
192.403582881845
 11
193.772378062568
 20
-80.2238912534876
 21
-81.1811201691503
 62
7
  0
LINE
  6
BYLAYER
  8
0
 10
193.772378062568
 11
195.790570833652
 20
-81.1811201691503
 21
-81.504975590837
 62
7
  0
LINE
  6
BYLAYER
  8
0
 10
195.790570833652
 11
195.790570833652
 20
-81.504975590837
 21
-81.504975590837
 62
7
  0
LINE
  6
BYLAYER
  8
0
 10
188.373100954134
 11
188.373100954134
 20
-81.1397948679455
 21
-77.9189514944514
 62
7
  0
LINE
  6
BYLAYER
  8
0
 10
188.373100954134
 11
190.312859990279
 20
-77.9189514944514
 21
-77.9189514944514
 62
7
  0
LINE
  6
BYLAYER
  8
0
 10
190.312859990279
 11
190.312859990279
 20
-77.9189514944514
 21
-76.4540117354154
 62
7
  0
LINE
  6
BYLAYER
  8
0
 10
190.312859990279
 11
188.373100954134
 20
-76.4540117354154
 21
-76.4540117354154
 62
7
  0
LINE
  6
BYLAYER
  8
0
 10
188.373100954134
 11
188.373100954134
 20
-76.4540117354154
 21
-67.962084024572
 62
7
  0
LINE
  6
BYLAYER
  8
0
 10
188.373100954134
 11
186.981534689074
 20
-67.962084024572
 21
-67.962084024572
 62
7
  0
LINE
  6
BYLAYER
  8
0
 10
186.981534689074
 11
180.959847942086
 20
-67.962084024572
 21
-76.28955390409
 62
7
  0
LINE
  6
BYLAYER
  8
0
 10
180.959847942086
 11
180.959847942086
 20
-76.28955390409
 21
-77.9189514944514
 62
7
  0
LINE
  6
BYLAYER
  8
0
 10
180.959847942086
 11
186.725149146905
 20
-77.9189514944514
 21
-77.9189514944514
 62
7
  0
LINE
  6
BYLAYER
  8
0
 10
186.725149146905
 11
186.725149146905
 20
-77.9189514944514
 21
-81.1397948679455
 62
7
  0
LINE
  6
BYLAYER
  8
0
 10
186.725149146905
 11
188.373100954134
 20
-81.1397948679455
 21
-81.1397948679455
 62
7
  0
LINE
  6
BYLAYER
  8
0
 10
188.373100954134
 11
188.373100954134
 20
-81.1397948679455
 21
-81.1397948679455
 62
7
  0
LINE
  6
BYLAYER
  8
0
 10
182.478763604737
 11
186.707438303532
 20
-76.4540117354154
 21
-70.5428069161381
 62
7
  0
LINE
  6
BYLAYER
  8
0
 10
186.707438303532
 11
186.707438303532
 20
-70.5428069161381
 21
-76.4540117354154
 62
7
  0
LINE
  6
BYLAYER
  8
0
 10
186.707438303532
 11
182.478763604737
 20
-76.4540117354154
 21
-76.4540117354154
 62
7
  0
LINE
  6
BYLAYER
  8
0
 10
182.478763604737
 11
182.478763604737
 20
-76.4540117354154
 21
-76.4540117354154
 62
7
  0
LINE
  6
BYLAYER
  8
0
 10
-103.225393021769
 11
-95.1586098892392
 20
6.02960272241603
 21
6.02960272241603
 62
7
  0
LINE
  6
BYLAYER
  8
0
 10
-106.400778563938
 11
-94.9618508530946
 20
29.1641810356691
 21
29.1641810356691
 62
7
  0
LINE
  6
BYLAYER
  8
0
 10
-102.959983383215
 11
-95.3278749494802
 20
0.567072601934115
 21
0.567072601934115
 62
7
  0
LINE
  6
BYLAYER
  8
0
 10
-108.157778563938
 11
-106.400778563938
 20
34.9480364573557
 21
29.1641810356691
 62
7
  0
LINE
  6
BYLAYER
  8
0
 10
-106.400778563938
 11
-105.815140009721
 20
29.1641810356691
 21
25.5039400718136
 62
7
  0
LINE
  6
BYLAYER
  8
0
 10
-105.815140009721
 11
-105.083007479601
 20
25.5039400718136
 21
20.6714099513317
 62
7
  0
LINE
  6
BYLAYER
  8
0
 10
-105.083007479601
 11
-103.916200250685
 20
20.6714099513317
 21
10.4362292284401
 62
7
  0
LINE
  6
BYLAYER
  8
0
 10
-103.916200250685
 11
-102.959983383215
 20
10.4362292284401
 21
0.173217180247377
 62
7
  0
LINE
  6
BYLAYER
  8
0
 10
-108.157778563938
 11
-94.9618508530946
 20
34.7279159754279
 21
34.7279159754279
 62
7
  0
LINE
  6
BYLAYER
  8
0
 10
114.659727460158
 11
120.475631074616
 20
0.612614770608843
 21
0.612614770608843
 62
7
  0
LINE
  6
BYLAYER
  8
0
 10
114.659727460158
 11
121.939727460158
 20
6.02960272241603
 21
6.02960272241603
 62
7
  0
LINE
  6
BYLAYER
  8
0
 10
114.659727460158
 11
124.282619026423
 20
29.1641810356691
 21
29.1641810356691
 62
7
  0
LINE
  6
BYLAYER
  8
0
 10
114.659727460158
 11
125.38069131558
 20
34.7279159754279
 21
34.7279159754279
 62
7
  0
LINE
  6
BYLAYER
  8
0
 10
125.266835893893
 11
125.046715411966
 20
35.012976216392
 21
32.0105665778376
 62
7
  0
LINE
  6
BYLAYER
  8
0
 10
125.046715411966
 11
124.460570833652
 20
32.0105665778376
 21
29.9603256139822
 62
7
  0
LINE
  6
BYLAYER
  8
0
 10
124.460570833652
 11
124.021173243291
 20
29.9603256139822
 21
25.1286388669943
 62
7
  0
LINE
  6
BYLAYER
  8
0
 10
124.021173243291
 11
123.28912505052
 20
25.1286388669943
 21
22.2004460959099
 62
7
  0
LINE
  6
BYLAYER
  8
0
 10
123.28912505052
 11
123.106956375821
 20
22.2004460959099
 21
17.8992412766328
 62
7
  0
LINE
  6
BYLAYER
  8
0
 10
123.106956375821
 11
122.703823845701
 20
17.8992412766328
 21
13.7085183850666
 62
7
  0
LINE
  6
BYLAYER
  8
0
 10
122.703823845701
 11
122.264426255339
 20
13.7085183850666
 21
10.194181035669
 62
7
  0
LINE
  6
BYLAYER
  8
0
 10
122.264426255339
 11
121.825028664978
 20
10.194181035669
 21
5.65514489109063
 62
7
  0
LINE
  6
BYLAYER
  8
0
 10
121.825028664978
 11
120.947076857749
 20
5.65514489109063
 21
2.87285573446417
 62
7
  0
LINE
  6
BYLAYER
  8
0
 10
120.947076857749
 11
120.329727460158
 20
2.87285573446417
 21
0.173217180247377
 62
7
  0
LINE
  6
BYLAYER
  8
0
 10
114.659727460158
 11
-94.9618508530946
 20
-86.5576261932466
 21
-86.5576261932466
 62
7
  0
LINE
  6
BYLAYER
  8
0
 10
114.659727460158
 11
114.659727460158
 20
-39.3599153498731
 21
-90.3865418558973
 62
7
  0
LINE
  6
BYLAYER
  8
0
 10
-94.9618508530946
 11
-94.9618508530946
 20
-41.1166623378249
 21
-90.606662337825
 62
7
  0
LINE
  6
BYLAYER
  8
0
 10
-144.762549648275
 11
-144.762549648275
 20
-36.4536502896323
 21
71.2367111561509
 62
7
  0
LINE
  6
BYLAYER
  8
0
 10
-100.251152057914
 11
-147.690911094058
 20
-36.4536502896323
 21
-36.4536502896323
 62
7
  0
LINE
  6
BYLAYER
  8
0
 10
-100.83687494948
 11
-148.349838804902
 20
71.2367111561509
 21
71.2367111561509
 62
7
  0
LINE
  6
BYLAYER
  8
0
 10
283.627920231243
 11
283.627920231243
 20
54.395385854946
 21
-19.9859394462587
 62
7
  0
LINE
  6
BYLAYER
  8
0
 10
235.96804071317
 11
288.372739508351
 20
39.6102051320545
 21
39.6102051320545
 62
7
  0
LINE
  6
BYLAYER
  8
0
 10
237.532498544496
 11
288.385390110761
 20
-4.70907197637922
 21
-4.70907197637922
 62
7
  0
LINE
  6
BYLAYER
  8
0
 10
177.107317821604
 11
178.278763604737
 20
-121.354373181199
 21
-120.865216554692
 62
7
  0
LINE
  6
BYLAYER
  8
0
 10
178.278763604737
 11
178.767920231243
 20
-120.865216554692
 21
-119.69377077156
 62
7
  0
LINE
  6
BYLAYER
  8
0
 10
178.767920231243
 11
178.278763604737
 20
-119.69377077156
 21
-118.522324988427
 62
7
  0
LINE
  6
BYLAYER
  8
0
 10
178.278763604737
 11
177.107317821604
 20
-118.522324988427
 21
-118.037385229391
 62
7
  0
LINE
  6
BYLAYER
  8
0
 10
177.107317821604
 11
175.930811797508
 20
-118.037385229391
 21
-118.522324988427
 62
7
  0
LINE
  6
BYLAYER
  8
0
 10
175.930811797508
 11
175.445872038472
 20
-118.522324988427
 21
-119.69377077156
 62
7
  0
LINE
  6
BYLAYER
  8
0
 10
175.445872038472
 11
175.930811797508
 20
-119.69377077156
 21
-120.865216554692
 62
7
  0
LINE
  6
BYLAYER
  8
0
 10
175.930811797508
 11
177.107317821604
 20
-120.865216554692
 21
-121.354373181199
 62
7
  0
LINE
  6
BYLAYER
  8
0
 10
177.107317821604
 11
177.107317821604
 20
-121.354373181199
 21
-121.354373181199
 62
7
  0
LINE
  6
BYLAYER
  8
0
 10
137.112859990279
 11
252.687076857749
 20
-119.766300892042
 21
-119.766300892042
 62
7
  0
LINE
  6
BYLAYER
  8
0
 10
153.876594930038
 11
246.414064809556
 20
-86.6301563137285
 21
-86.6301563137285
 62
7
  0
LINE
  6
BYLAYER
  8
0
 10
233.845269628833
 11
233.845269628833
 20
-91.1919635426443
 21
-123.720035831801
 62
7
  0
LINE
  6
BYLAYER
  8
0
 10
233.845269628833
 11
233.845269628833
 20
-8.78087920529492
 21
-82.1147346269815
 62
7
  0
LINE
  6
BYLAYER
  8
0
 10
219.889968424014
 11
219.889968424014
 20
-24.7906382414394
 21
-91.7781081209575
 62
7
  0
LINE
  6
BYLAYER
  8
0
 10
177.107317821604
 11
177.107317821604
 20
-4.70907197637922
 21
-124.012686434211
 62
7
  0
LINE
  6
BYLAYER
  8
0
 10
169.56755878546
 11
169.640088905941
 20
-90.4101563137285
 21
-123.940156313729
 62
7
  0
LINE
  6
BYLAYER
  8
0
 10
169.49334191799
 11
169.56755878546
 20
0.978638866994345
 21
-82.8965418558973
 62
7
  0
LINE
  6
BYLAYER
  8
0
 10
172.128884086664
 11
171.396835893893
 20
-35.4567828197527
 21
-35.1599153498731
 62
7
  0
LINE
  6
BYLAYER
  8
0
 10
171.396835893893
 11
171.104185291484
 20
-35.1599153498731
 21
-34.4776261932467
 62
7
  0
LINE
  6
BYLAYER
  8
0
 10
171.104185291484
 11
171.104185291484
 20
-34.4776261932467
 21
-2.63099968722253
 62
7
  0
LINE
  6
BYLAYER
  8
0
 10
171.104185291484
 11
173.057438303532
 20
-2.63099968722253
 21
-0.508228602885254
 62
7
  0
LINE
  6
BYLAYER
  8
0
 10
173.057438303532
 11
177.107317821604
 20
-0.508228602885254
 21
-0.508228602885254
 62
7
  0
LINE
  6
BYLAYER
  8
0
 10
177.107317821604
 11
177.107317821604
 20
-0.508228602885254
 21
35.7028557344642
 62
7
  0
LINE
  6
BYLAYER
  8
0
 10
177.107317821604
 11
173.057438303532
 20
35.7028557344642
 21
35.7028557344642
 62
7
  0
LINE
  6
BYLAYER
  8
0
 10
173.057438303532
 11
171.104185291484
 20
35.7028557344642
 21
37.8028557344642
 62
7
  0
LINE
  6
BYLAYER
  8
0
 10
171.104185291484
 11
171.104185291484
 20
37.8028557344642
 21
56.0829762163918
 62
7
  0
LINE
  6
BYLAYER
  8
0
 10
171.104185291484
 11
172.930088905941
 20
56.0829762163918
 21
69.2514099513317
 62
7
  0
LINE
  6
BYLAYER
  8
0
 10
172.930088905941
 11
173.89069131558
 20
69.2514099513317
 21
70.2305665778376
 62
7
  0
LINE
  6
BYLAYER
  8
0
 10
173.89069131558
 11
186.016715411966
 20
70.2305665778376
 21
71.2367111561509
 62
7
  0
LINE
  6
BYLAYER
  8
0
 10
186.016715411966
 11
201.554185291484
 20
71.2367111561509
 21
70.2305665778376
 62
7
  0
LINE
  6
BYLAYER
  8
0
 10
201.554185291484
 11
202.346113002327
 20
70.2305665778376
 21
69.9328557344642
 62
7
  0
LINE
  6
BYLAYER
  8
0
 10
202.346113002327
 11
202.611775652929
 20
69.9328557344642
 21
69.1864701922956
 62
7
  0
LINE
  6
BYLAYER
  8
0
 10
202.611775652929
 11
202.611775652929
 20
69.1864701922956
 21
56.1049039272353
 62
7
  0
LINE
  6
BYLAYER
  8
0
 10
202.611775652929
 11
218.764064809556
 20
56.1049039272353
 21
56.1049039272353
 62
7
  0
LINE
  6
BYLAYER
  8
0
 10
218.764064809556
 11
219.51804071317
 20
56.1049039272353
 21
55.8400846501269
 62
7
  0
LINE
  6
BYLAYER
  8
0
 10
219.51804071317
 11
219.889968424014
 20
55.8400846501269
 21
55.1308075416931
 62
7
  0
LINE
  6
BYLAYER
  8
0
 10
219.889968424014
 11
219.889968424014
 20
55.1308075416931
 21
39.6102051320545
 62
7
  0
LINE
  6
BYLAYER
  8
0
 10
219.889968424014
 11
232.96647444811
 20
39.6102051320545
 21
39.6102051320545
 62
7
  0
LINE
  6
BYLAYER
  8
0
 10
232.96647444811
 11
233.845269628833
 20
39.6102051320545
 21
38.7314099513317
 62
7
  0
LINE
  6
BYLAYER
  8
0
 10
233.845269628833
 11
233.845269628833
 20
38.7314099513317
 21
-3.72991534987318
 62
7
  0
LINE
  6
BYLAYER
  8
0
 10
233.845269628833
 11
232.6738238457
 20
-3.72991534987318
 21
-4.70907197637922
 62
7
  0
LINE
  6
BYLAYER
  8
0
 10
232.6738238457
 11
219.889968424014
 20
-4.70907197637922
 21
-4.70907197637922
 62
7
  0
LINE
  6
BYLAYER
  8
0
 10
219.889968424014
 11
219.889968424014
 20
-4.70907197637922
 21
-20.1284695667407
 62
7
  0
LINE
  6
BYLAYER
  8
0
 10
219.889968424014
 11
219.601534689074
 20
-20.1284695667407
 21
-20.8377466751743
 62
7
  0
LINE
  6
BYLAYER
  8
0
 10
219.601534689074
 11
218.764064809556
 20
-20.8377466751743
 21
-21.1076261932467
 62
7
  0
LINE
  6
BYLAYER
  8
0
 10
218.764064809556
 11
202.611775652929
 20
-21.1076261932467
 21
-21.1076261932467
 62
7
  0
LINE
  6
BYLAYER
  8
0
 10
202.611775652929
 11
202.611775652929
 20
-21.1076261932467
 21
-34.4042526992708
 62
7
  0
LINE
  6
BYLAYER
  8
0
 10
202.611775652929
 11
202.333462399917
 20
-34.4042526992708
 21
-35.1497948679455
 62
7
  0
LINE
  6
BYLAYER
  8
0
 10
202.333462399917
 11
201.339968424014
 20
-35.1497948679455
 21
-35.4567828197527
 62
7
  0
LINE
  6
BYLAYER
  8
0
 10
175.671052761363
 11
175.671052761363
 20
0.489482240488371
 21
4.76285573446415
 62
7
  0
LINE
  6
BYLAYER
  8
0
 10
175.671052761363
 11
174.888402158954
 20
4.76285573446415
 21
5.83309669831959
 62
7
  0
LINE
  6
BYLAYER
  8
0
 10
174.888402158954
 11
170.692619026423
 20
5.83309669831959
 21
5.83309669831959
 62
7
  0
LINE
  6
BYLAYER
  8
0
 10
170.692619026423
 11
170.349366014375
 20
5.83309669831959
 21
5.93345814410281
 62
7
  0
LINE
  6
BYLAYER
  8
0
 10
170.349366014375
 11
170.006113002327
 20
5.93345814410281
 21
6.61574730072931
 62
7
  0
LINE
  6
BYLAYER
  8
0
 10
170.006113002327
 11
170.006113002327
 20
6.61574730072931
 21
28.1892412766329
 62
7
  0
LINE
  6
BYLAYER
  8
0
 10
170.006113002327
 11
170.239727460158
 20
28.1892412766329
 21
28.7939400718137
 62
7
  0
LINE
  6
BYLAYER
  8
0
 10
170.239727460158
 11
170.788763604737
 20
28.7939400718137
 21
29.0680364573557
 62
7
  0
LINE
  6
BYLAYER
  8
0
 10
170.788763604737
 11
174.691896134857
 20
29.0680364573557
 21
29.0680364573557
 62
7
  0
LINE
  6
BYLAYER
  8
0
 10
174.691896134857
 11
175.547076857749
 20
29.0680364573557
 21
29.5580364573558
 62
7
  0
LINE
  6
BYLAYER
  8
0
 10
175.547076857749
 11
175.671052761363
 20
29.5580364573558
 21
30.0429762163919
 62
7
  0
LINE
  6
BYLAYER
  8
0
 10
175.671052761363
 11
175.671052761363
 20
30.0429762163919
 21
34.6553858549462
 62
7
  0
LINE
  6
BYLAYER
  8
0
 10
218.98334191799
 11
202.611775652929
 20
-4.70907197637922
 21
-4.70907197637922
 62
7
  0
LINE
  6
BYLAYER
  8
0
 10
202.611775652929
 11
202.611775652929
 20
-4.70907197637922
 21
-20.1056984824032
 62
7
  0
LINE
  6
BYLAYER
  8
0
 10
202.611775652929
 11
202.611775652929
 20
55.3509280236208
 21
39.6102051320545
 62
7
  0
LINE
  6
BYLAYER
  8
0
 10
202.611775652929
 11
218.98334191799
 20
39.6102051320545
 21
39.6102051320545
 62
7
  0
LINE
  6
BYLAYER
  8
0
 10
186.016715411966
 11
186.016715411966
 20
-36.4536502896323
 21
71.2367111561509
 62
7
  0
LINE
  6
BYLAYER
  8
0
 10
201.779366014375
 11
186.016715411966
 20
-35.4567828197527
 21
-36.4536502896323
 62
7
  0
LINE
  6
BYLAYER
  8
0
 10
186.016715411966
 11
171.982137098713
 20
-36.4536502896323
 21
-35.5158189643311
 62
7
  0
LINE
  6
BYLAYER
  8
0
 10
-77.9448508530947
 11
-38.9978629012874
 20
-29.7463008920418
 21
-29.7463008920418
 62
7
  0
LINE
  6
BYLAYER
  8
0
 10
-78.9881038651428
 11
-77.9448508530947
 20
-35.2872647474635
 21
-35.2872647474635
 62
7
  0
LINE
  6
BYLAYER
  8
0
 10
-38.9978629012874
 11
-39.0155737446609
 20
-36.3532888438491
 21
-24.5755780004755
 62
7
  0
LINE
  6
BYLAYER
  8
0
 10
-39.0155737446609
 11
98.676956375821
 20
-24.5755780004755
 21
-24.7493129402346
 62
7
  0
LINE
  6
BYLAYER
  8
0
 10
98.676956375821
 11
98.676956375821
 20
-24.7493129402346
 21
-36.6316020968611
 62
7
  0
LINE
  6
BYLAYER
  8
0
 10
-77.9448508530947
 11
-77.9448508530947
 20
-36.2352165546924
 21
-25.8018430607165
 62
7
  0
LINE
  6
BYLAYER
  8
0
 10
-77.9448508530947
 11
-70.9077424193598
 20
-25.8018430607165
 21
-25.8018430607165
 62
7
  0
LINE
  6
BYLAYER
  8
0
 10
-70.9077424193598
 11
-70.9170195277935
 20
-25.8018430607165
 21
-24.5755780004755
 62
7
  0
LINE
  6
BYLAYER
  8
0
 10
-70.9170195277935
 11
-78.9383448289983
 20
-24.5755780004755
 21
-24.5755780004755
 62
7
  0
LINE
  6
BYLAYER
  8
0
 10
-78.9383448289983
 11
-78.9383448289983
 20
-24.5755780004755
 21
-36.1888310125238
 62
7
  0
LINE
  6
BYLAYER
  8
0
 10
-39.9365376000827
 11
-39.9365376000827
 20
-24.5755780004755
 21
-25.8018430607165
 62
7
  0
LINE
  6
BYLAYER
  8
0
 10
-39.9365376000827
 11
-69.9699110940586
 20
-25.8018430607165
 21
-25.8018430607165
 62
7
  0
LINE
  6
BYLAYER
  8
0
 10
-69.9699110940586
 11
-69.9699110940586
 20
-25.8018430607165
 21
-24.5755780004755
 62
7
  0
LINE
  6
BYLAYER
  8
0
 10
-69.9699110940586
 11
-39.9365376000827
 20
-24.5755780004755
 21
-24.5755780004755
 62
7
  0
LINE
  6
BYLAYER
  8
0
 10
-39.9365376000827
 11
-39.9365376000827
 20
-24.5755780004755
 21
-24.5755780004755
 62
7
  0
LINE
  6
BYLAYER
  8
0
 10
30.3949081830499
 11
29.3794864963029
 20
33.4476750115727
 21
31.0820123609703
 62
7
  0
LINE
  6
BYLAYER
  8
0
 10
29.3794864963029
 11
30.4185226408812
 20
31.0820123609703
 21
28.6885183850666
 62
7
  0
LINE
  6
BYLAYER
  8
0
 10
30.4185226408812
 11
34.8706913155801
 20
28.6885183850666
 21
28.6665906742232
 62
7
  0
LINE
  6
BYLAYER
  8
0
 10
34.8706913155801
 11
35.9367154119655
 20
28.6665906742232
 21
31.0820123609703
 62
7
  0
LINE
  6
BYLAYER
  8
0
 10
35.9367154119655
 11
34.8934623999173
 20
31.0820123609703
 21
33.4797232043438
 62
7
  0
LINE
  6
BYLAYER
  8
0
 10
34.8934623999173
 11
30.3949081830499
 20
33.4797232043438
 21
33.4476750115727
 62
7
  0
LINE
  6
BYLAYER
  8
0
 10
30.3949081830499
 11
30.3949081830499
 20
33.4476750115727
 21
33.4476750115727
 62
7
  0
LINE
  6
BYLAYER
  8
0
 10
32.6652696288331
 11
34.2162334842547
 20
27.0827352525366
 21
27.3990003127774
 62
7
  0
LINE
  6
BYLAYER
  8
0
 10
34.2162334842547
 11
35.4838238457005
 20
27.3990003127774
 21
28.2541810356691
 62
7
  0
LINE
  6
BYLAYER
  8
0
 10
35.4838238457005
 11
36.339847942086
 20
28.2541810356691
 21
29.5217713971148
 62
7
  0
LINE
  6
BYLAYER
  8
0
 10
36.339847942086
 11
36.6552696288331
 20
29.5217713971148
 21
31.0718918790425
 62
7
  0
LINE
  6
BYLAYER
  8
0
 10
36.6552696288331
 11
36.339847942086
 20
31.0718918790425
 21
32.627915975428
 62
7
  0
LINE
  6
BYLAYER
  8
0
 10
36.339847942086
 11
35.4838238457005
 20
32.627915975428
 21
33.8963497103678
 62
7
  0
LINE
  6
BYLAYER
  8
0
 10
35.4838238457005
 11
34.2162334842547
 20
33.8963497103678
 21
34.7515304332595
 62
7
  0
LINE
  6
BYLAYER
  8
0
 10
34.2162334842547
 11
32.6652696288331
 20
34.7515304332595
 21
35.0627352525365
 62
7
  0
LINE
  6
BYLAYER
  8
0
 10
32.6652696288331
 11
31.1100889059414
 20
35.0627352525365
 21
34.7515304332595
 62
7
  0
LINE
  6
BYLAYER
  8
0
 10
31.1100889059414
 11
29.8424985444956
 20
34.7515304332595
 21
33.8963497103678
 62
7
  0
LINE
  6
BYLAYER
  8
0
 10
29.8424985444956
 11
28.9864744481102
 20
33.8963497103678
 21
32.627915975428
 62
7
  0
LINE
  6
BYLAYER
  8
0
 10
28.9864744481102
 11
28.676113002327
 20
32.627915975428
 21
31.0718918790425
 62
7
  0
LINE
  6
BYLAYER
  8
0
 10
28.676113002327
 11
28.9864744481102
 20
31.0718918790425
 21
29.5217713971148
 62
7
  0
LINE
  6
BYLAYER
  8
0
 10
28.9864744481102
 11
29.8424985444956
 20
29.5217713971148
 21
28.2541810356691
 62
7
  0
LINE
  6
BYLAYER
  8
0
 10
29.8424985444956
 11
31.1100889059414
 20
28.2541810356691
 21
27.3990003127774
 62
7
  0
LINE
  6
BYLAYER
  8
0
 10
31.1100889059414
 11
32.6652696288331
 20
27.3990003127774
 21
27.0827352525366
 62
7
  0
LINE
  6
BYLAYER
  8
0
 10
32.6652696288331
 11
32.6652696288331
 20
27.0827352525366
 21
27.0827352525366
 62
7
  0
LINE
  6
BYLAYER
  8
0
 10
63.779004568592
 11
65.1882816770258
 20
21.1344219995244
 21
21.7205665778378
 62
7
  0
LINE
  6
BYLAYER
  8
0
 10
65.1882816770258
 11
65.773582881845
 20
21.7205665778378
 21
23.1290003127775
 62
7
  0
LINE
  6
BYLAYER
  8
0
 10
65.773582881845
 11
65.1882816770258
 20
23.1290003127775
 21
24.543337662175
 62
7
  0
LINE
  6
BYLAYER
  8
0
 10
65.1882816770258
 11
63.779004568592
 20
24.543337662175
 21
25.1244219995245
 62
7
  0
LINE
  6
BYLAYER
  8
0
 10
63.779004568592
 11
62.3646672191945
 20
25.1244219995245
 21
24.543337662175
 62
7
  0
LINE
  6
BYLAYER
  8
0
 10
62.3646672191945
 11
61.7844262553391
 20
24.543337662175
 21
23.1290003127775
 62
7
  0
LINE
  6
BYLAYER
  8
0
 10
61.7844262553391
 11
62.3646672191945
 20
23.1290003127775
 21
21.7205665778378
 62
7
  0
LINE
  6
BYLAYER
  8
0
 10
62.3646672191945
 11
63.779004568592
 20
21.7205665778378
 21
21.1344219995244
 62
7
  0
LINE
  6
BYLAYER
  8
0
 10
63.779004568592
 11
63.779004568592
 20
21.1344219995244
 21
21.1344219995244
 62
7
  0
LINE
  6
BYLAYER
  8
0
 10
63.779004568592
 11
65.3308117975077
 20
19.1398436862714
 21
19.4544219995244
 62
7
  0
LINE
  6
BYLAYER
  8
0
 10
65.3308117975077
 11
66.5984021589535
 20
19.4544219995244
 21
20.3112894694039
 62
7
  0
LINE
  6
BYLAYER
  8
0
 10
66.5984021589535
 11
67.453582881845
 20
20.3112894694039
 21
21.5780364573558
 62
7
  0
LINE
  6
BYLAYER
  8
0
 10
67.453582881845
 11
67.769847942086
 20
21.5780364573558
 21
23.1290003127775
 62
7
  0
LINE
  6
BYLAYER
  8
0
 10
67.769847942086
 11
67.453582881845
 20
23.1290003127775
 21
24.685024409163
 62
7
  0
LINE
  6
BYLAYER
  8
0
 10
67.453582881845
 11
66.5984021589535
 20
24.685024409163
 21
25.9568316380787
 62
7
  0
LINE
  6
BYLAYER
  8
0
 10
66.5984021589535
 11
65.3308117975077
 20
25.9568316380787
 21
26.8128557344641
 62
7
  0
LINE
  6
BYLAYER
  8
0
 10
65.3308117975077
 11
63.779004568592
 20
26.8128557344641
 21
27.1232171802473
 62
7
  0
LINE
  6
BYLAYER
  8
0
 10
63.779004568592
 11
62.2229804722065
 20
27.1232171802473
 21
26.8128557344641
 62
7
  0
LINE
  6
BYLAYER
  8
0
 10
62.2229804722065
 11
60.9562334842548
 20
26.8128557344641
 21
25.9568316380787
 62
7
  0
LINE
  6
BYLAYER
  8
0
 10
60.9562334842548
 11
60.1010527613631
 20
25.9568316380787
 21
24.685024409163
 62
7
  0
LINE
  6
BYLAYER
  8
0
 10
60.1010527613631
 11
59.789004568592
 20
24.685024409163
 21
23.1290003127775
 62
7
  0
LINE
  6
BYLAYER
  8
0
 10
59.789004568592
 11
60.1010527613631
 20
23.1290003127775
 21
21.5780364573558
 62
7
  0
LINE
  6
BYLAYER
  8
0
 10
60.1010527613631
 11
60.9562334842548
 20
21.5780364573558
 21
20.3112894694039
 62
7
  0
LINE
  6
BYLAYER
  8
0
 10
60.9562334842548
 11
62.2229804722065
 20
20.3112894694039
 21
19.4544219995244
 62
7
  0
LINE
  6
BYLAYER
  8
0
 10
62.2229804722065
 11
63.779004568592
 20
19.4544219995244
 21
19.1398436862714
 62
7
  0
LINE
  6
BYLAYER
  8
0
 10
63.779004568592
 11
63.779004568592
 20
19.1398436862714
 21
19.1398436862714
 62
7
  0
LINE
  6
BYLAYER
  8
0
 10
47.824064809556
 11
49.2333419179897
 20
21.0197232043436
 21
21.6050244091629
 62
7
  0
LINE
  6
BYLAYER
  8
0
 10
49.2333419179897
 11
49.8186431228089
 20
21.6050244091629
 21
23.0143015175967
 62
7
  0
LINE
  6
BYLAYER
  8
0
 10
49.8186431228089
 11
49.2333419179897
 20
23.0143015175967
 21
24.4286388669943
 62
7
  0
LINE
  6
BYLAYER
  8
0
 10
49.2333419179897
 11
47.824064809556
 20
24.4286388669943
 21
25.0105665778377
 62
7
  0
LINE
  6
BYLAYER
  8
0
 10
47.824064809556
 11
46.4097274601583
 20
25.0105665778377
 21
24.4286388669943
 62
7
  0
LINE
  6
BYLAYER
  8
0
 10
46.4097274601583
 11
45.8294864963029
 20
24.4286388669943
 21
23.0143015175967
 62
7
  0
LINE
  6
BYLAYER
  8
0
 10
45.8294864963029
 11
46.4097274601583
 20
23.0143015175967
 21
21.6050244091629
 62
7
  0
LINE
  6
BYLAYER
  8
0
 10
46.4097274601583
 11
47.824064809556
 20
21.6050244091629
 21
21.0197232043436
 62
7
  0
LINE
  6
BYLAYER
  8
0
 10
47.824064809556
 11
47.824064809556
 20
21.0197232043436
 21
21.0197232043436
 62
7
  0
LINE
  6
BYLAYER
  8
0
 10
47.824064809556
 11
49.3750286649776
 20
19.0251448910906
 21
19.3414099513316
 62
7
  0
LINE
  6
BYLAYER
  8
0
 10
49.3750286649776
 11
50.6434623999173
 20
19.3414099513316
 21
20.1965906742232
 62
7
  0
LINE
  6
BYLAYER
  8
0
 10
50.6434623999173
 11
51.4986431228089
 20
20.1965906742232
 21
21.4633376621751
 62
7
  0
LINE
  6
BYLAYER
  8
0
 10
51.4986431228089
 11
51.8149081830499
 20
21.4633376621751
 21
23.0143015175967
 62
7
  0
LINE
  6
BYLAYER
  8
0
 10
51.8149081830499
 11
51.4986431228089
 20
23.0143015175967
 21
24.5711689874763
 62
7
  0
LINE
  6
BYLAYER
  8
0
 10
51.4986431228089
 11
50.6434623999173
 20
24.5711689874763
 21
25.8387593489221
 62
7
  0
LINE
  6
BYLAYER
  8
0
 10
50.6434623999173
 11
49.3750286649776
 20
25.8387593489221
 21
26.6939400718135
 62
7
  0
LINE
  6
BYLAYER
  8
0
 10
49.3750286649776
 11
47.824064809556
 20
26.6939400718135
 21
27.0051448910907
 62
7
  0
LINE
  6
BYLAYER
  8
0
 10
47.824064809556
 11
46.2680407131703
 20
27.0051448910907
 21
26.6939400718135
 62
7
  0
LINE
  6
BYLAYER
  8
0
 10
46.2680407131703
 11
45.0012937252185
 20
26.6939400718135
 21
25.8387593489221
 62
7
  0
LINE
  6
BYLAYER
  8
0
 10
45.0012937252185
 11
44.1461130023269
 20
25.8387593489221
 21
24.5711689874763
 62
7
  0
LINE
  6
BYLAYER
  8
0
 10
44.1461130023269
 11
43.834064809556
 20
24.5711689874763
 21
23.0143015175967
 62
7
  0
LINE
  6
BYLAYER
  8
0
 10
43.834064809556
 11
44.1461130023269
 20
23.0143015175967
 21
21.4633376621751
 62
7
  0
LINE
  6
BYLAYER
  8
0
 10
44.1461130023269
 11
45.0012937252185
 20
21.4633376621751
 21
20.1965906742232
 62
7
  0
LINE
  6
BYLAYER
  8
0
 10
45.0012937252185
 11
46.2680407131703
 20
20.1965906742232
 21
19.3414099513316
 62
7
  0
LINE
  6
BYLAYER
  8
0
 10
46.2680407131703
 11
47.824064809556
 20
19.3414099513316
 21
19.0251448910906
 62
7
  0
LINE
  6
BYLAYER
  8
0
 10
47.824064809556
 11
47.824064809556
 20
19.0251448910906
 21
19.0251448910906
 62
7
  0
LINE
  6
BYLAYER
  8
0
 10
83.6792455324474
 11
85.7050286649776
 20
54.2705665778377
 21
54.2705665778377
 62
7
  0
LINE
  6
BYLAYER
  8
0
 10
83.7155105926885
 11
83.7155105926885
 20
56.1192412766329
 21
50.2485183850667
 62
7
  0
LINE
  6
BYLAYER
  8
0
 10
83.7155105926885
 11
84.0081611950981
 20
50.2485183850667
 21
49.5443015175968
 62
7
  0
LINE
  6
BYLAYER
  8
0
 10
84.0081611950981
 11
84.712378062568
 20
49.5443015175968
 21
49.2516509151872
 62
7
  0
LINE
  6
BYLAYER
  8
0
 10
84.712378062568
 11
84.712378062568
 20
49.2516509151872
 21
49.2516509151872
 62
7
  0
LINE
  6
BYLAYER
  8
0
 10
84.712378062568
 11
85.4174383035318
 20
49.2516509151872
 21
49.5443015175968
 62
7
  0
LINE
  6
BYLAYER
  8
0
 10
85.4174383035318
 11
85.7100889059415
 20
49.5443015175968
 21
50.2485183850667
 62
7
  0
LINE
  6
BYLAYER
  8
0
 10
85.7100889059415
 11
85.7100889059415
 20
50.2485183850667
 21
56.1647834453076
 62
7
  0
LINE
  6
BYLAYER
  8
0
 10
88.6745467372667
 11
90.697799749315
 20
54.225024409163
 21
54.225024409163
 62
7
  0
LINE
  6
BYLAYER
  8
0
 10
88.7124985444957
 11
88.7124985444957
 20
56.0736991079582
 21
50.202976216392
 62
7
  0
LINE
  6
BYLAYER
  8
0
 10
88.7124985444957
 11
89.0000889059414
 20
50.202976216392
 21
49.4987593489221
 62
7
  0
LINE
  6
BYLAYER
  8
0
 10
89.0000889059414
 11
89.7093660143752
 20
49.4987593489221
 21
49.2061087465124
 62
7
  0
LINE
  6
BYLAYER
  8
0
 10
89.7093660143752
 11
89.7093660143752
 20
49.2061087465124
 21
49.2061087465124
 62
7
  0
LINE
  6
BYLAYER
  8
0
 10
89.7093660143752
 11
90.414426255339
 20
49.2061087465124
 21
49.4987593489221
 62
7
  0
LINE
  6
BYLAYER
  8
0
 10
90.414426255339
 11
90.7070768577487
 20
49.4987593489221
 21
50.202976216392
 62
7
  0
LINE
  6
BYLAYER
  8
0
 10
90.7070768577487
 11
90.7070768577487
 20
50.202976216392
 21
56.1141810356689
 62
7
  0
LINE
  6
BYLAYER
  8
0
 10
93.6909322794354
 11
95.7124985444956
 20
54.225024409163
 21
54.225024409163
 62
7
  0
LINE
  6
BYLAYER
  8
0
 10
93.7271973396764
 11
93.7271973396764
 20
56.0736991079582
 21
50.202976216392
 62
7
  0
LINE
  6
BYLAYER
  8
0
 10
93.7271973396764
 11
94.0147877011222
 20
50.202976216392
 21
49.4987593489221
 62
7
  0
LINE
  6
BYLAYER
  8
0
 10
94.0147877011222
 11
94.7240648095559
 20
49.4987593489221
 21
49.2061087465124
 62
7
  0
LINE
  6
BYLAYER
  8
0
 10
94.7240648095559
 11
94.7240648095559
 20
49.2061087465124
 21
49.2061087465124
 62
7
  0
LINE
  6
BYLAYER
  8
0
 10
94.7240648095559
 11
95.4291250505198
 20
49.2061087465124
 21
49.4987593489221
 62
7
  0
LINE
  6
BYLAYER
  8
0
 10
95.4291250505198
 11
95.7217756529294
 20
49.4987593489221
 21
50.202976216392
 62
7
  0
LINE
  6
BYLAYER
  8
0
 10
95.7217756529294
 11
95.7217756529294
 20
50.202976216392
 21
56.1141810356689
 62
7
  0
LINE
  6
BYLAYER
  8
0
 10
68.7802093878691
 11
70.8026190264234
 20
54.2705665778377
 21
54.2705665778377
 62
7
  0
LINE
  6
BYLAYER
  8
0
 10
68.8164744481102
 11
68.8164744481102
 20
56.1192412766329
 21
50.2485183850667
 62
7
  0
LINE
  6
BYLAYER
  8
0
 10
68.8164744481102
 11
69.1049081830498
 20
50.2485183850667
 21
49.5443015175968
 62
7
  0
LINE
  6
BYLAYER
  8
0
 10
69.1049081830498
 11
69.8150286649776
 20
49.5443015175968
 21
49.2516509151872
 62
7
  0
LINE
  6
BYLAYER
  8
0
 10
69.8150286649776
 11
69.8150286649776
 20
49.2516509151872
 21
49.2516509151872
 62
7
  0
LINE
  6
BYLAYER
  8
0
 10
69.8150286649776
 11
70.5192455324474
 20
49.2516509151872
 21
49.5443015175968
 62
7
  0
LINE
  6
BYLAYER
  8
0
 10
70.5192455324474
 11
70.8118961348572
 20
49.5443015175968
 21
50.2485183850667
 62
7
  0
LINE
  6
BYLAYER
  8
0
 10
70.8118961348572
 11
70.8118961348572
 20
50.2485183850667
 21
56.1647834453076
 62
7
  0
LINE
  6
BYLAYER
  8
0
 10
73.7729804722066
 11
75.7996069782307
 20
54.225024409163
 21
54.225024409163
 62
7
  0
LINE
  6
BYLAYER
  8
0
 10
73.8092455324475
 11
73.8092455324475
 20
56.0736991079582
 21
50.202976216392
 62
7
  0
LINE
  6
BYLAYER
  8
0
 10
73.8092455324475
 11
74.1018961348571
 20
50.202976216392
 21
49.4987593489221
 62
7
  0
LINE
  6
BYLAYER
  8
0
 10
74.1018961348571
 11
74.8061130023269
 20
49.4987593489221
 21
49.2061087465124
 62
7
  0
LINE
  6
BYLAYER
  8
0
 10
74.8061130023269
 11
74.8061130023269
 20
49.2061087465124
 21
49.2061087465124
 62
7
  0
LINE
  6
BYLAYER
  8
0
 10
74.8061130023269
 11
75.5111732432909
 20
49.2061087465124
 21
49.4987593489221
 62
7
  0
LINE
  6
BYLAYER
  8
0
 10
75.5111732432909
 11
75.8038238457005
 20
49.4987593489221
 21
50.202976216392
 62
7
  0
LINE
  6
BYLAYER
  8
0
 10
75.8038238457005
 11
75.8038238457005
 20
50.202976216392
 21
56.1141810356689
 62
7
  0
LINE
  6
BYLAYER
  8
0
 10
78.7876792673873
 11
80.8134623999174
 20
54.225024409163
 21
54.225024409163
 62
7
  0
LINE
  6
BYLAYER
  8
0
 10
78.8239443276283
 11
78.8239443276283
 20
56.0736991079582
 21
50.202976216392
 62
7
  0
LINE
  6
BYLAYER
  8
0
 10
78.8239443276283
 11
79.1165949300378
 20
50.202976216392
 21
49.4987593489221
 62
7
  0
LINE
  6
BYLAYER
  8
0
 10
79.1165949300378
 11
79.8216551710017
 20
49.4987593489221
 21
49.2061087465124
 62
7
  0
LINE
  6
BYLAYER
  8
0
 10
79.8216551710017
 11
79.8216551710017
 20
49.2061087465124
 21
49.2061087465124
 62
7
  0
LINE
  6
BYLAYER
  8
0
 10
79.8216551710017
 11
80.5258720384716
 20
49.2061087465124
 21
49.4987593489221
 62
7
  0
LINE
  6
BYLAYER
  8
0
 10
80.5258720384716
 11
80.8185226408813
 20
49.4987593489221
 21
50.202976216392
 62
7
  0
LINE
  6
BYLAYER
  8
0
 10
80.8185226408813
 11
80.8185226408813
 20
50.202976216392
 21
56.1141810356689
 62
7
  0
LINE
  6
BYLAYER
  8
0
 10
53.8221370987126
 11
55.8453901107608
 20
54.2115304332594
 21
54.2115304332594
 62
7
  0
LINE
  6
BYLAYER
  8
0
 10
53.8600889059414
 11
53.8600889059414
 20
56.0593617585606
 21
50.1894822404884
 62
7
  0
LINE
  6
BYLAYER
  8
0
 10
53.8600889059414
 11
54.1476792673872
 20
50.1894822404884
 21
49.4844219995244
 62
7
  0
LINE
  6
BYLAYER
  8
0
 10
54.1476792673872
 11
54.856956375821
 20
49.4844219995244
 21
49.1917713971147
 62
7
  0
LINE
  6
BYLAYER
  8
0
 10
54.856956375821
 11
54.856956375821
 20
49.1917713971147
 21
49.1917713971147
 62
7
  0
LINE
  6
BYLAYER
  8
0
 10
54.856956375821
 11
55.5620166167848
 20
49.1917713971147
 21
49.4844219995244
 62
7
  0
LINE
  6
BYLAYER
  8
0
 10
55.5620166167848
 11
55.8546672191944
 20
49.4844219995244
 21
50.1894822404884
 62
7
  0
LINE
  6
BYLAYER
  8
0
 10
55.8546672191944
 11
55.8546672191944
 20
50.1894822404884
 21
56.1049039272353
 62
7
  0
LINE
  6
BYLAYER
  8
0
 10
58.8149081830498
 11
60.8373178216041
 20
54.1651448910907
 21
54.1651448910907
 62
7
  0
LINE
  6
BYLAYER
  8
0
 10
58.8511732432908
 11
58.8511732432908
 20
56.0138195898858
 21
50.1439400718136
 62
7
  0
LINE
  6
BYLAYER
  8
0
 10
58.8511732432908
 11
59.1438238457005
 20
50.1439400718136
 21
49.4388798308497
 62
7
  0
LINE
  6
BYLAYER
  8
0
 10
59.1438238457005
 11
59.8488840866643
 20
49.4388798308497
 21
49.14622922844
 62
7
  0
LINE
  6
BYLAYER
  8
0
 10
59.8488840866643
 11
59.8488840866643
 20
49.14622922844
 21
49.14622922844
 62
7
  0
LINE
  6
BYLAYER
  8
0
 10
59.8488840866643
 11
60.5531009541342
 20
49.14622922844
 21
49.4388798308497
 62
7
  0
LINE
  6
BYLAYER
  8
0
 10
60.5531009541342
 11
60.8457515565438
 20
49.4388798308497
 21
50.1439400718136
 62
7
  0
LINE
  6
BYLAYER
  8
0
 10
60.8457515565438
 11
60.8457515565438
 20
50.1439400718136
 21
56.0551448910907
 62
7
  0
LINE
  6
BYLAYER
  8
0
 10
63.8296069782306
 11
65.8570768577487
 20
54.1651448910907
 21
54.1651448910907
 62
7
  0
LINE
  6
BYLAYER
  8
0
 10
63.8667154119656
 11
63.8667154119656
 20
56.0138195898858
 21
50.1439400718136
 62
7
  0
LINE
  6
BYLAYER
  8
0
 10
63.8667154119656
 11
64.1593660143752
 20
50.1439400718136
 21
49.4388798308497
 62
7
  0
LINE
  6
BYLAYER
  8
0
 10
64.1593660143752
 11
64.8635828818451
 20
49.4388798308497
 21
49.14622922844
 62
7
  0
LINE
  6
BYLAYER
  8
0
 10
64.8635828818451
 11
64.8635828818451
 20
49.14622922844
 21
49.14622922844
 62
7
  0
LINE
  6
BYLAYER
  8
0
 10
64.8635828818451
 11
65.5686431228089
 20
49.14622922844
 21
49.4388798308497
 62
7
  0
LINE
  6
BYLAYER
  8
0
 10
65.5686431228089
 11
65.8612937252186
 20
49.4388798308497
 21
50.1439400718136
 62
7
  0
LINE
  6
BYLAYER
  8
0
 10
65.8612937252186
 11
65.8612937252186
 20
50.1439400718136
 21
56.0551448910907
 62
7
  0
LINE
  6
BYLAYER
  8
0
 10
38.8657515565439
 11
40.8873178216041
 20
54.2115304332594
 21
54.2115304332594
 62
7
  0
LINE
  6
BYLAYER
  8
0
 10
38.8969563758209
 11
38.8969563758209
 20
56.0593617585606
 21
50.1894822404884
 62
7
  0
LINE
  6
BYLAYER
  8
0
 10
38.8969563758209
 11
39.1896069782306
 20
50.1894822404884
 21
49.4844219995244
 62
7
  0
LINE
  6
BYLAYER
  8
0
 10
39.1896069782306
 11
39.8946672191945
 20
49.4844219995244
 21
49.1917713971147
 62
7
  0
LINE
  6
BYLAYER
  8
0
 10
39.8946672191945
 11
39.8946672191945
 20
49.1917713971147
 21
49.1917713971147
 62
7
  0
LINE
  6
BYLAYER
  8
0
 10
39.8946672191945
 11
40.5988840866643
 20
49.1917713971147
 21
49.4844219995244
 62
7
  0
LINE
  6
BYLAYER
  8
0
 10
40.5988840866643
 11
40.8915346890739
 20
49.4844219995244
 21
50.1894822404884
 62
7
  0
LINE
  6
BYLAYER
  8
0
 10
40.8915346890739
 11
40.8915346890739
 20
50.1894822404884
 21
56.1049039272353
 62
7
  0
LINE
  6
BYLAYER
  8
0
 10
43.8576792673873
 11
45.8792455324475
 20
54.1651448910907
 21
54.1651448910907
 62
7
  0
LINE
  6
BYLAYER
  8
0
 10
43.8939443276281
 11
43.8939443276281
 20
56.0138195898858
 21
50.1439400718136
 62
7
  0
LINE
  6
BYLAYER
  8
0
 10
43.8939443276281
 11
44.182378062568
 20
50.1439400718136
 21
49.4388798308497
 62
7
  0
LINE
  6
BYLAYER
  8
0
 10
44.182378062568
 11
44.8908117975078
 20
49.4388798308497
 21
49.14622922844
 62
7
  0
LINE
  6
BYLAYER
  8
0
 10
44.8908117975078
 11
44.8908117975078
 20
49.14622922844
 21
49.14622922844
 62
7
  0
LINE
  6
BYLAYER
  8
0
 10
44.8908117975078
 11
45.5958720384715
 20
49.14622922844
 21
49.4388798308497
 62
7
  0
LINE
  6
BYLAYER
  8
0
 10
45.5958720384715
 11
45.8885226408812
 20
49.4388798308497
 21
50.1439400718136
 62
7
  0
LINE
  6
BYLAYER
  8
0
 10
45.8885226408812
 11
45.8885226408812
 20
50.1439400718136
 21
56.0551448910907
 62
7
  0
LINE
  6
BYLAYER
  8
0
 10
48.8723780625679
 11
50.8939443276282
 20
54.1651448910907
 21
54.1651448910907
 62
7
  0
LINE
  6
BYLAYER
  8
0
 10
48.908643122809
 11
48.908643122809
 20
56.0138195898858
 21
50.1439400718136
 62
7
  0
LINE
  6
BYLAYER
  8
0
 10
48.908643122809
 11
49.1970768577486
 20
50.1439400718136
 21
49.4388798308497
 62
7
  0
LINE
  6
BYLAYER
  8
0
 10
49.1970768577486
 11
49.9063539661825
 20
49.4388798308497
 21
49.14622922844
 62
7
  0
LINE
  6
BYLAYER
  8
0
 10
49.9063539661825
 11
49.9063539661825
 20
49.14622922844
 21
49.14622922844
 62
7
  0
LINE
  6
BYLAYER
  8
0
 10
49.9063539661825
 11
50.6105708336523
 20
49.14622922844
 21
49.4388798308497
 62
7
  0
LINE
  6
BYLAYER
  8
0
 10
50.6105708336523
 11
50.903221436062
 20
49.4388798308497
 21
50.1439400718136
 62
7
  0
LINE
  6
BYLAYER
  8
0
 10
50.903221436062
 11
50.903221436062
 20
50.1439400718136
 21
56.0551448910907
 62
7
  0
LINE
  6
BYLAYER
  8
0
 10
23.8756310746162
 11
25.8988840866644
 20
54.1558677826569
 21
54.1558677826569
 62
7
  0
LINE
  6
BYLAYER
  8
0
 10
23.9118961348571
 11
23.9118961348571
 20
56.0011689874762
 21
50.1346629633798
 62
7
  0
LINE
  6
BYLAYER
  8
0
 10
23.9118961348571
 11
24.2003298697968
 20
50.1346629633798
 21
49.4296027224161
 62
7
  0
LINE
  6
BYLAYER
  8
0
 10
24.2003298697968
 11
24.9096069782306
 20
49.4296027224161
 21
49.1369521200064
 62
7
  0
LINE
  6
BYLAYER
  8
0
 10
24.9096069782306
 11
24.9096069782306
 20
49.1369521200064
 21
49.1369521200064
 62
7
  0
LINE
  6
BYLAYER
  8
0
 10
24.9096069782306
 11
25.6138238457005
 20
49.1369521200064
 21
49.4296027224161
 62
7
  0
LINE
  6
BYLAYER
  8
0
 10
25.6138238457005
 11
25.9064744481102
 20
49.4296027224161
 21
50.1346629633798
 62
7
  0
LINE
  6
BYLAYER
  8
0
 10
25.9064744481102
 11
25.9064744481102
 20
50.1346629633798
 21
56.0467111561509
 62
7
  0
LINE
  6
BYLAYER
  8
0
 10
28.8675587854595
 11
30.8899684240138
 20
54.1061087465124
 21
54.1061087465124
 62
7
  0
LINE
  6
BYLAYER
  8
0
 10
28.9038238457005
 11
28.9038238457005
 20
55.9556268188015
 21
50.0840605537414
 62
7
  0
LINE
  6
BYLAYER
  8
0
 10
28.9038238457005
 11
29.1973178216041
 20
50.0840605537414
 21
49.3790003127775
 62
7
  0
LINE
  6
BYLAYER
  8
0
 10
29.1973178216041
 11
29.9006913155801
 20
49.3790003127775
 21
49.0863497103678
 62
7
  0
LINE
  6
BYLAYER
  8
0
 10
29.9006913155801
 11
29.9006913155801
 20
49.0863497103678
 21
49.0863497103678
 62
7
  0
LINE
  6
BYLAYER
  8
0
 10
29.9006913155801
 11
30.6065949300378
 20
49.0863497103678
 21
49.3790003127775
 62
7
  0
LINE
  6
BYLAYER
  8
0
 10
30.6065949300378
 11
30.8992455324474
 20
49.3790003127775
 21
50.0840605537414
 62
7
  0
LINE
  6
BYLAYER
  8
0
 10
30.8992455324474
 11
30.8992455324474
 20
50.0840605537414
 21
56.0011689874762
 62
7
  0
LINE
  6
BYLAYER
  8
0
 10
33.8822575806403
 11
35.9088840866643
 20
54.1061087465124
 21
54.1061087465124
 62
7
  0
LINE
  6
BYLAYER
  8
0
 10
33.9185226408812
 11
33.9185226408812
 20
55.9556268188015
 21
50.0840605537414
 62
7
  0
LINE
  6
BYLAYER
  8
0
 10
33.9185226408812
 11
34.2120166167849
 20
50.0840605537414
 21
49.3790003127775
 62
7
  0
LINE
  6
BYLAYER
  8
0
 10
34.2120166167849
 11
34.9170768577487
 20
49.3790003127775
 21
49.0863497103678
 62
7
  0
LINE
  6
BYLAYER
  8
0
 10
34.9170768577487
 11
34.9170768577487
 20
49.0863497103678
 21
49.0863497103678
 62
7
  0
LINE
  6
BYLAYER
  8
0
 10
34.9170768577487
 11
35.6204503517245
 20
49.0863497103678
 21
49.3790003127775
 62
7
  0
LINE
  6
BYLAYER
  8
0
 10
35.6204503517245
 11
35.9139443276282
 20
49.3790003127775
 21
50.0840605537414
 62
7
  0
LINE
  6
BYLAYER
  8
0
 10
35.9139443276282
 11
35.9139443276282
 20
50.0840605537414
 21
56.0011689874762
 62
7
  0
LINE
  6
BYLAYER
  8
0
 10
8.88551059268848
 11
10.9138238457005
 20
54.2115304332594
 21
54.2115304332594
 62
7
  0
LINE
  6
BYLAYER
  8
0
 10
8.92177565292936
 11
8.92177565292936
 20
56.0593617585606
 21
50.1894822404884
 62
7
  0
LINE
  6
BYLAYER
  8
0
 10
8.92177565292936
 11
9.21526962883304
 20
50.1894822404884
 21
49.4844219995244
 62
7
  0
LINE
  6
BYLAYER
  8
0
 10
9.21526962883304
 11
9.92032986979693
 20
49.4844219995244
 21
49.1917713971147
 62
7
  0
LINE
  6
BYLAYER
  8
0
 10
9.92032986979693
 11
9.92032986979693
 20
49.1917713971147
 21
49.1917713971147
 62
7
  0
LINE
  6
BYLAYER
  8
0
 10
9.92032986979693
 11
10.6237033637728
 20
49.1917713971147
 21
49.4844219995244
 62
7
  0
LINE
  6
BYLAYER
  8
0
 10
10.6237033637728
 11
10.9171973396765
 20
49.4844219995244
 21
50.1894822404884
 62
7
  0
LINE
  6
BYLAYER
  8
0
 10
10.9171973396765
 11
10.9171973396765
 20
50.1894822404884
 21
56.1049039272353
 62
7
  0
LINE
  6
BYLAYER
  8
0
 10
13.8824985444957
 11
15.9049081830498
 20
54.1651448910907
 21
54.1651448910907
 62
7
  0
LINE
  6
BYLAYER
  8
0
 10
13.9145467372667
 11
13.9145467372667
 20
56.0138195898858
 21
50.1439400718136
 62
7
  0
LINE
  6
BYLAYER
  8
0
 10
13.9145467372667
 11
14.2071973396764
 20
50.1439400718136
 21
49.4388798308497
 62
7
  0
LINE
  6
BYLAYER
  8
0
 10
14.2071973396764
 11
14.9173178216042
 20
49.4388798308497
 21
49.14622922844
 62
7
  0
LINE
  6
BYLAYER
  8
0
 10
14.9173178216042
 11
14.9173178216042
 20
49.14622922844
 21
49.14622922844
 62
7
  0
LINE
  6
BYLAYER
  8
0
 10
14.9173178216042
 11
15.6164744481102
 20
49.14622922844
 21
49.4388798308497
 62
7
  0
LINE
  6
BYLAYER
  8
0
 10
15.6164744481102
 11
15.9091250505197
 20
49.4388798308497
 21
50.1439400718136
 62
7
  0
LINE
  6
BYLAYER
  8
0
 10
15.9091250505197
 11
15.9091250505197
 20
50.1439400718136
 21
56.0551448910907
 62
7
  0
LINE
  6
BYLAYER
  8
0
 10
18.8971973396765
 11
20.9204503517246
 20
54.1651448910907
 21
54.1651448910907
 62
7
  0
LINE
  6
BYLAYER
  8
0
 10
18.9334623999174
 11
18.9334623999174
 20
56.0138195898858
 21
50.1439400718136
 62
7
  0
LINE
  6
BYLAYER
  8
0
 10
18.9334623999174
 11
19.2218961348572
 20
50.1439400718136
 21
49.4388798308497
 62
7
  0
LINE
  6
BYLAYER
  8
0
 10
19.2218961348572
 11
19.9320166167848
 20
49.4388798308497
 21
49.14622922844
 62
7
  0
LINE
  6
BYLAYER
  8
0
 10
19.9320166167848
 11
19.9320166167848
 20
49.14622922844
 21
49.14622922844
 62
7
  0
LINE
  6
BYLAYER
  8
0
 10
19.9320166167848
 11
20.6353901107608
 20
49.14622922844
 21
49.4388798308497
 62
7
  0
LINE
  6
BYLAYER
  8
0
 10
20.6353901107608
 11
20.9288840866643
 20
49.4388798308497
 21
50.1439400718136
 62
7
  0
LINE
  6
BYLAYER
  8
0
 10
20.9288840866643
 11
20.9288840866643
 20
50.1439400718136
 21
56.0551448910907
 62
7
  0
LINE
  6
BYLAYER
  8
0
 10
-12.1161761542996
 11
27.659004568592
 20
37.2040605537413
 21
37.2040605537413
 62
7
  0
LINE
  6
BYLAYER
  8
0
 10
27.659004568592
 11
27.659004568592
 20
37.2040605537413
 21
-2.92365028963229
 62
7
  0
LINE
  6
BYLAYER
  8
0
 10
27.659004568592
 11
-12.1161761542996
 20
-2.92365028963229
 21
-2.92365028963229
 62
7
  0
LINE
  6
BYLAYER
  8
0
 10
-12.1161761542996
 11
-12.1161761542996
 20
-2.92365028963229
 21
37.2040605537413
 62
7
  0
LINE
  6
BYLAYER
  8
0
 10
-12.1161761542996
 11
-12.1161761542996
 20
37.2040605537413
 21
37.2040605537413
 62
7
  0
LINE
  6
BYLAYER
  8
0
 10
90.7121370987125
 11
90.7121370987125
 20
39.6936991079581
 21
40.6947834453075
 62
7
  0
LINE
  6
BYLAYER
  8
0
 10
90.7121370987125
 11
90.4186431228089
 20
40.6947834453075
 21
41.3998436862714
 62
7
  0
LINE
  6
BYLAYER
  8
0
 10
90.4186431228089
 11
89.7135828818451
 20
41.3998436862714
 21
41.6924942886811
 62
7
  0
LINE
  6
BYLAYER
  8
0
 10
89.7135828818451
 11
89.7135828818451
 20
41.6924942886811
 21
41.6924942886811
 62
7
  0
LINE
  6
BYLAYER
  8
0
 10
89.7135828818451
 11
89.0085226408812
 20
41.6924942886811
 21
41.3998436862714
 62
7
  0
LINE
  6
BYLAYER
  8
0
 10
89.0085226408812
 11
88.7158720384716
 20
41.3998436862714
 21
40.6947834453075
 62
7
  0
LINE
  6
BYLAYER
  8
0
 10
88.7158720384716
 11
88.7158720384716
 20
40.6947834453075
 21
39.6936991079581
 62
7
  0
LINE
  6
BYLAYER
  8
0
 10
85.728643122809
 11
85.728643122809
 20
39.665024409163
 21
40.6635786260305
 62
7
  0
LINE
  6
BYLAYER
  8
0
 10
85.728643122809
 11
85.4359925203993
 20
40.6635786260305
 21
41.3720123609702
 62
7
  0
LINE
  6
BYLAYER
  8
0
 10
85.4359925203993
 11
84.7309322794355
 20
41.3720123609702
 21
41.6604460959099
 62
7
  0
LINE
  6
BYLAYER
  8
0
 10
84.7309322794355
 11
84.7309322794355
 20
41.6604460959099
 21
41.6604460959099
 62
7
  0
LINE
  6
BYLAYER
  8
0
 10
84.7309322794355
 11
84.0224985444957
 20
41.6604460959099
 21
41.3720123609702
 62
7
  0
LINE
  6
BYLAYER
  8
0
 10
84.0224985444957
 11
83.729004568592
 20
41.3720123609702
 21
40.6635786260305
 62
7
  0
LINE
  6
BYLAYER
  8
0
 10
83.729004568592
 11
83.729004568592
 20
40.6635786260305
 21
39.665024409163
 62
7
  0
LINE
  6
BYLAYER
  8
0
 10
95.6399684240137
 11
95.6399684240137
 20
39.6936991079581
 21
40.6947834453075
 62
7
  0
LINE
  6
BYLAYER
  8
0
 10
95.6399684240137
 11
95.3464744481101
 20
40.6947834453075
 21
41.3998436862714
 62
7
  0
LINE
  6
BYLAYER
  8
0
 10
95.3464744481101
 11
94.6414142071463
 20
41.3998436862714
 21
41.6924942886811
 62
7
  0
LINE
  6
BYLAYER
  8
0
 10
94.6414142071463
 11
94.6414142071463
 20
41.6924942886811
 21
41.6924942886811
 62
7
  0
LINE
  6
BYLAYER
  8
0
 10
94.6414142071463
 11
93.9363539661824
 20
41.6924942886811
 21
41.3998436862714
 62
7
  0
LINE
  6
BYLAYER
  8
0
 10
93.9363539661824
 11
93.6437033637728
 20
41.3998436862714
 21
40.6947834453075
 62
7
  0
LINE
  6
BYLAYER
  8
0
 10
93.6437033637728
 11
93.6437033637728
 20
40.6947834453075
 21
39.6936991079581
 62
7
  0
LINE
  6
BYLAYER
  8
0
 10
75.753221436062
 11
75.753221436062
 20
39.6936991079581
 21
40.6947834453075
 62
7
  0
LINE
  6
BYLAYER
  8
0
 10
75.753221436062
 11
75.4605708336523
 20
40.6947834453075
 21
41.3998436862714
 62
7
  0
LINE
  6
BYLAYER
  8
0
 10
75.4605708336523
 11
74.7555105926885
 20
41.3998436862714
 21
41.6924942886811
 62
7
  0
LINE
  6
BYLAYER
  8
0
 10
74.7555105926885
 11
74.7555105926885
 20
41.6924942886811
 21
41.6924942886811
 62
7
  0
LINE
  6
BYLAYER
  8
0
 10
74.7555105926885
 11
74.0512937252185
 20
41.6924942886811
 21
41.3998436862714
 62
7
  0
LINE
  6
BYLAYER
  8
0
 10
74.0512937252185
 11
73.758643122809
 20
41.3998436862714
 21
40.6947834453075
 62
7
  0
LINE
  6
BYLAYER
  8
0
 10
73.758643122809
 11
73.758643122809
 20
40.6947834453075
 21
39.6936991079581
 62
7
  0
LINE
  6
BYLAYER
  8
0
 10
70.7663539661825
 11
70.7663539661825
 20
39.665024409163
 21
40.6635786260305
 62
7
  0
LINE
  6
BYLAYER
  8
0
 10
70.7663539661825
 11
70.4728599902788
 20
40.6635786260305
 21
41.3720123609702
 62
7
  0
LINE
  6
BYLAYER
  8
0
 10
70.4728599902788
 11
69.7694864963029
 20
41.3720123609702
 21
41.6604460959099
 62
7
  0
LINE
  6
BYLAYER
  8
0
 10
69.7694864963029
 11
69.7694864963029
 20
41.6604460959099
 21
41.6604460959099
 62
7
  0
LINE
  6
BYLAYER
  8
0
 10
69.7694864963029
 11
69.064426255339
 20
41.6604460959099
 21
41.3720123609702
 62
7
  0
LINE
  6
BYLAYER
  8
0
 10
69.064426255339
 11
68.7709322794355
 20
41.3720123609702
 21
40.6635786260305
 62
7
  0
LINE
  6
BYLAYER
  8
0
 10
68.7709322794355
 11
68.7709322794355
 20
40.6635786260305
 21
39.665024409163
 62
7
  0
LINE
  6
BYLAYER
  8
0
 10
80.6818961348571
 11
80.6818961348571
 20
39.6936991079581
 21
40.6947834453075
 62
7
  0
LINE
  6
BYLAYER
  8
0
 10
80.6818961348571
 11
80.3884021589535
 20
40.6947834453075
 21
41.3998436862714
 62
7
  0
LINE
  6
BYLAYER
  8
0
 10
80.3884021589535
 11
79.6833419179897
 20
41.3998436862714
 21
41.6924942886811
 62
7
  0
LINE
  6
BYLAYER
  8
0
 10
79.6833419179897
 11
79.6833419179897
 20
41.6924942886811
 21
41.6924942886811
 62
7
  0
LINE
  6
BYLAYER
  8
0
 10
79.6833419179897
 11
78.9791250505198
 20
41.6924942886811
 21
41.3998436862714
 62
7
  0
LINE
  6
BYLAYER
  8
0
 10
78.9791250505198
 11
78.6864744481102
 20
41.3998436862714
 21
40.6947834453075
 62
7
  0
LINE
  6
BYLAYER
  8
0
 10
78.6864744481102
 11
78.6864744481102
 20
40.6947834453075
 21
39.6936991079581
 62
7
  0
LINE
  6
BYLAYER
  8
0
 10
60.7951491469053
 11
60.7951491469053
 20
39.6936991079581
 21
40.6947834453075
 62
7
  0
LINE
  6
BYLAYER
  8
0
 10
60.7951491469053
 11
60.5024985444956
 20
40.6947834453075
 21
41.3998436862714
 62
7
  0
LINE
  6
BYLAYER
  8
0
 10
60.5024985444956
 11
59.7982816770257
 20
41.3998436862714
 21
41.6924942886811
 62
7
  0
LINE
  6
BYLAYER
  8
0
 10
59.7982816770257
 11
59.7982816770257
 20
41.6924942886811
 21
41.6924942886811
 62
7
  0
LINE
  6
BYLAYER
  8
0
 10
59.7982816770257
 11
59.089004568592
 20
41.6924942886811
 21
41.3998436862714
 62
7
  0
LINE
  6
BYLAYER
  8
0
 10
59.089004568592
 11
58.8005708336523
 20
41.3998436862714
 21
40.6947834453075
 62
7
  0
LINE
  6
BYLAYER
  8
0
 10
58.8005708336523
 11
58.8005708336523
 20
40.6947834453075
 21
39.6936991079581
 62
7
  0
LINE
  6
BYLAYER
  8
0
 10
55.8091250505197
 11
55.8091250505197
 20
39.665024409163
 21
40.6635786260305
 62
7
  0
LINE
  6
BYLAYER
  8
0
 10
55.8091250505197
 11
55.5164744481101
 20
40.6635786260305
 21
41.3720123609702
 62
7
  0
LINE
  6
BYLAYER
  8
0
 10
55.5164744481101
 11
54.8114142071463
 20
41.3720123609702
 21
41.6604460959099
 62
7
  0
LINE
  6
BYLAYER
  8
0
 10
54.8114142071463
 11
54.8114142071463
 20
41.6604460959099
 21
41.6604460959099
 62
7
  0
LINE
  6
BYLAYER
  8
0
 10
54.8114142071463
 11
54.1071973396764
 20
41.6604460959099
 21
41.3720123609702
 62
7
  0
LINE
  6
BYLAYER
  8
0
 10
54.1071973396764
 11
53.8145467372667
 20
41.3720123609702
 21
40.6635786260305
 62
7
  0
LINE
  6
BYLAYER
  8
0
 10
53.8145467372667
 11
53.8145467372667
 20
40.6635786260305
 21
39.665024409163
 62
7
  0
LINE
  6
BYLAYER
  8
0
 10
65.7246672191945
 11
65.7246672191945
 20
39.6936991079581
 21
40.6947834453075
 62
7
  0
LINE
  6
BYLAYER
  8
0
 10
65.7246672191945
 11
65.4320166167849
 20
40.6947834453075
 21
41.3998436862714
 62
7
  0
LINE
  6
BYLAYER
  8
0
 10
65.4320166167849
 11
64.726113002327
 20
41.3998436862714
 21
41.6924942886811
 62
7
  0
LINE
  6
BYLAYER
  8
0
 10
64.726113002327
 11
64.726113002327
 20
41.6924942886811
 21
41.6924942886811
 62
7
  0
LINE
  6
BYLAYER
  8
0
 10
64.726113002327
 11
64.0168358938932
 20
41.6924942886811
 21
41.3998436862714
 62
7
  0
LINE
  6
BYLAYER
  8
0
 10
64.0168358938932
 11
63.7284021589536
 20
41.3998436862714
 21
40.6947834453075
 62
7
  0
LINE
  6
BYLAYER
  8
0
 10
63.7284021589536
 11
63.7284021589536
 20
40.6947834453075
 21
39.6936991079581
 62
7
  0
LINE
  6
BYLAYER
  8
0
 10
45.8387636047366
 11
45.8387636047366
 20
39.6936991079581
 21
40.6947834453075
 62
7
  0
LINE
  6
BYLAYER
  8
0
 10
45.8387636047366
 11
45.545269628833
 20
40.6947834453075
 21
41.3998436862714
 62
7
  0
LINE
  6
BYLAYER
  8
0
 10
45.545269628833
 11
44.8402093878692
 20
41.3998436862714
 21
41.6924942886811
 62
7
  0
LINE
  6
BYLAYER
  8
0
 10
44.8402093878692
 11
44.8402093878692
 20
41.6924942886811
 21
41.6924942886811
 62
7
  0
LINE
  6
BYLAYER
  8
0
 10
44.8402093878692
 11
44.1317756529294
 20
41.6924942886811
 21
41.3998436862714
 62
7
  0
LINE
  6
BYLAYER
  8
0
 10
44.1317756529294
 11
43.8433419179896
 20
41.3998436862714
 21
40.6947834453075
 62
7
  0
LINE
  6
BYLAYER
  8
0
 10
43.8433419179896
 11
43.8433419179896
 20
40.6947834453075
 21
39.6936991079581
 62
7
  0
LINE
  6
BYLAYER
  8
0
 10
40.8510527613632
 11
40.8510527613632
 20
39.665024409163
 21
40.6635786260305
 62
7
  0
LINE
  6
BYLAYER
  8
0
 10
40.8510527613632
 11
40.5584021589535
 20
40.6635786260305
 21
41.3720123609702
 62
7
  0
LINE
  6
BYLAYER
  8
0
 10
40.5584021589535
 11
39.8541852914837
 20
41.3720123609702
 21
41.6604460959099
 62
7
  0
LINE
  6
BYLAYER
  8
0
 10
39.8541852914837
 11
39.8541852914837
 20
41.6604460959099
 21
41.6604460959099
 62
7
  0
LINE
  6
BYLAYER
  8
0
 10
39.8541852914837
 11
39.1440648095559
 20
41.6604460959099
 21
41.3720123609702
 62
7
  0
LINE
  6
BYLAYER
  8
0
 10
39.1440648095559
 11
38.8556310746162
 20
41.3720123609702
 21
40.6635786260305
 62
7
  0
LINE
  6
BYLAYER
  8
0
 10
38.8556310746162
 11
38.8556310746162
 20
40.6635786260305
 21
39.665024409163
 62
7
  0
LINE
  6
BYLAYER
  8
0
 10
50.7665949300378
 11
50.7665949300378
 20
39.6936991079581
 21
40.6947834453075
 62
7
  0
LINE
  6
BYLAYER
  8
0
 10
50.7665949300378
 11
50.4688840866644
 20
40.6947834453075
 21
41.3998436862714
 62
7
  0
LINE
  6
BYLAYER
  8
0
 10
50.4688840866644
 11
49.7646672191945
 20
41.3998436862714
 21
41.6924942886811
 62
7
  0
LINE
  6
BYLAYER
  8
0
 10
49.7646672191945
 11
49.7646672191945
 20
41.6924942886811
 21
41.6924942886811
 62
7
  0
LINE
  6
BYLAYER
  8
0
 10
49.7646672191945
 11
49.0596069782307
 20
41.6924942886811
 21
41.3998436862714
 62
7
  0
LINE
  6
BYLAYER
  8
0
 10
49.0596069782307
 11
48.766956375821
 20
41.3998436862714
 21
40.6947834453075
 62
7
  0
LINE
  6
BYLAYER
  8
0
 10
48.766956375821
 11
48.766956375821
 20
40.6947834453075
 21
39.6936991079581
 62
7
  0
LINE
  6
BYLAYER
  8
0
 10
30.8764744481101
 11
30.8764744481101
 20
39.7392412766329
 21
40.7361087465123
 62
7
  0
LINE
  6
BYLAYER
  8
0
 10
30.8764744481101
 11
30.5838238457005
 20
40.7361087465123
 21
41.445385854946
 62
7
  0
LINE
  6
BYLAYER
  8
0
 10
30.5838238457005
 11
29.8787636047367
 20
41.445385854946
 21
41.7338195898859
 62
7
  0
LINE
  6
BYLAYER
  8
0
 10
29.8787636047367
 11
29.8787636047367
 20
41.7338195898859
 21
41.7338195898859
 62
7
  0
LINE
  6
BYLAYER
  8
0
 10
29.8787636047367
 11
29.1737033637727
 20
41.7338195898859
 21
41.445385854946
 62
7
  0
LINE
  6
BYLAYER
  8
0
 10
29.1737033637727
 11
28.8810527613632
 20
41.445385854946
 21
40.7361087465123
 62
7
  0
LINE
  6
BYLAYER
  8
0
 10
28.8810527613632
 11
28.8810527613632
 20
40.7361087465123
 21
39.7392412766329
 62
7
  0
LINE
  6
BYLAYER
  8
0
 10
25.8938238457005
 11
25.8938238457005
 20
39.7063497103679
 21
40.7091207947051
 62
7
  0
LINE
  6
BYLAYER
  8
0
 10
25.8938238457005
 11
25.6011732432908
 20
40.7091207947051
 21
41.413337662175
 62
7
  0
LINE
  6
BYLAYER
  8
0
 10
25.6011732432908
 11
24.896113002327
 20
41.413337662175
 21
41.7059882645846
 62
7
  0
LINE
  6
BYLAYER
  8
0
 10
24.896113002327
 11
24.896113002327
 20
41.7059882645846
 21
41.7059882645846
 62
7
  0
LINE
  6
BYLAYER
  8
0
 10
24.896113002327
 11
24.1868358938932
 20
41.7059882645846
 21
41.413337662175
 62
7
  0
LINE
  6
BYLAYER
  8
0
 10
24.1868358938932
 11
23.8975587854595
 20
41.413337662175
 21
40.7091207947051
 62
7
  0
LINE
  6
BYLAYER
  8
0
 10
23.8975587854595
 11
23.8975587854595
 20
40.7091207947051
 21
39.7063497103679
 62
7
  0
LINE
  6
BYLAYER
  8
0
 10
35.8043057734113
 11
35.8043057734113
 20
39.7392412766329
 21
40.7361087465123
 62
7
  0
LINE
  6
BYLAYER
  8
0
 10
35.8043057734113
 11
35.5116551710017
 20
40.7361087465123
 21
41.445385854946
 62
7
  0
LINE
  6
BYLAYER
  8
0
 10
35.5116551710017
 11
34.8065949300379
 20
41.445385854946
 21
41.7338195898859
 62
7
  0
LINE
  6
BYLAYER
  8
0
 10
34.8065949300379
 11
34.8065949300379
 20
41.7338195898859
 21
41.7338195898859
 62
7
  0
LINE
  6
BYLAYER
  8
0
 10
34.8065949300379
 11
34.1015346890739
 20
41.7338195898859
 21
41.445385854946
 62
7
  0
LINE
  6
BYLAYER
  8
0
 10
34.1015346890739
 11
33.8088840866643
 20
41.445385854946
 21
40.7361087465123
 62
7
  0
LINE
  6
BYLAYER
  8
0
 10
33.8088840866643
 11
33.8088840866643
 20
40.7361087465123
 21
39.7392412766329
 62
7
  0
LINE
  6
BYLAYER
  8
0
 10
15.9184021589536
 11
15.9184021589536
 20
39.6936991079581
 21
40.6947834453075
 62
7
  0
LINE
  6
BYLAYER
  8
0
 10
15.9184021589536
 11
15.6257515565439
 20
40.6947834453075
 21
41.3998436862714
 62
7
  0
LINE
  6
BYLAYER
  8
0
 10
15.6257515565439
 11
14.92069131558
 20
41.3998436862714
 21
41.6924942886811
 62
7
  0
LINE
  6
BYLAYER
  8
0
 10
14.92069131558
 11
14.92069131558
 20
41.6924942886811
 21
41.6924942886811
 62
7
  0
LINE
  6
BYLAYER
  8
0
 10
14.92069131558
 11
14.2164744481102
 20
41.6924942886811
 21
41.3998436862714
 62
7
  0
LINE
  6
BYLAYER
  8
0
 10
14.2164744481102
 11
13.9238238457005
 20
41.3998436862714
 21
40.6947834453075
 62
7
  0
LINE
  6
BYLAYER
  8
0
 10
13.9238238457005
 11
13.9238238457005
 20
40.6947834453075
 21
39.6936991079581
 62
7
  0
LINE
  6
BYLAYER
  8
0
 10
10.93069131558
 11
10.93069131558
 20
39.665024409163
 21
40.6635786260305
 62
7
  0
LINE
  6
BYLAYER
  8
0
 10
10.93069131558
 11
10.6380407131703
 20
40.6635786260305
 21
41.3720123609702
 62
7
  0
LINE
  6
BYLAYER
  8
0
 10
10.6380407131703
 11
9.93382384570045
 20
41.3720123609702
 21
41.6604460959099
 62
7
  0
LINE
  6
BYLAYER
  8
0
 10
9.93382384570045
 11
9.93382384570045
 20
41.6604460959099
 21
41.6604460959099
 62
7
  0
LINE
  6
BYLAYER
  8
0
 10
9.93382384570045
 11
9.22876360473667
 20
41.6604460959099
 21
41.3720123609702
 62
7
  0
LINE
  6
BYLAYER
  8
0
 10
9.22876360473667
 11
8.93611300232696
 20
41.3720123609702
 21
40.6635786260305
 62
7
  0
LINE
  6
BYLAYER
  8
0
 10
8.93611300232696
 11
8.93611300232696
 20
40.6635786260305
 21
39.665024409163
 62
7
  0
LINE
  6
BYLAYER
  8
0
 10
20.8462334842548
 11
20.8462334842548
 20
39.6936991079581
 21
40.6947834453075
 62
7
  0
LINE
  6
BYLAYER
  8
0
 10
20.8462334842548
 11
20.5535828818451
 20
40.6947834453075
 21
41.3998436862714
 62
7
  0
LINE
  6
BYLAYER
  8
0
 10
20.5535828818451
 11
19.8485226408812
 20
41.3998436862714
 21
41.6924942886811
 62
7
  0
LINE
  6
BYLAYER
  8
0
 10
19.8485226408812
 11
19.8485226408812
 20
41.6924942886811
 21
41.6924942886811
 62
7
  0
LINE
  6
BYLAYER
  8
0
 10
19.8485226408812
 11
19.1443057734113
 20
41.6924942886811
 21
41.3998436862714
 62
7
  0
LINE
  6
BYLAYER
  8
0
 10
19.1443057734113
 11
18.8516551710018
 20
41.3998436862714
 21
40.6947834453075
 62
7
  0
LINE
  6
BYLAYER
  8
0
 10
18.8516551710018
 11
18.8516551710018
 20
40.6947834453075
 21
39.6936991079581
 62
7
  0
LINE
  6
BYLAYER
  8
0
 10
88.6382816770258
 11
90.661534689074
 20
-19.4326864342104
 21
-19.4326864342104
 62
7
  0
LINE
  6
BYLAYER
  8
0
 10
88.6745467372667
 11
88.6745467372667
 20
-21.2813611330056
 21
-15.4106382414395
 62
7
  0
LINE
  6
BYLAYER
  8
0
 10
88.6745467372667
 11
88.9629804722065
 20
-15.4106382414395
 21
-14.7064213739696
 62
7
  0
LINE
  6
BYLAYER
  8
0
 10
88.9629804722065
 11
89.6731009541343
 20
-14.7064213739696
 21
-14.4137707715599
 62
7
  0
LINE
  6
BYLAYER
  8
0
 10
89.6731009541343
 11
89.6731009541343
 20
-14.4137707715599
 21
-14.4137707715599
 62
7
  0
LINE
  6
BYLAYER
  8
0
 10
89.6731009541343
 11
90.3764744481102
 20
-14.4137707715599
 21
-14.7064213739696
 62
7
  0
LINE
  6
BYLAYER
  8
0
 10
90.3764744481102
 11
90.6699684240137
 20
-14.7064213739696
 21
-15.4106382414395
 62
7
  0
LINE
  6
BYLAYER
  8
0
 10
90.6699684240137
 11
90.6699684240137
 20
-15.4106382414395
 21
-21.3269033016805
 62
7
  0
LINE
  6
BYLAYER
  8
0
 10
93.6310527613632
 11
95.6526190264235
 20
-19.3871442655358
 21
-19.3871442655358
 62
7
  0
LINE
  6
BYLAYER
  8
0
 10
93.6673178216041
 11
93.6673178216041
 20
-21.2358189643309
 21
-15.3650960727646
 62
7
  0
LINE
  6
BYLAYER
  8
0
 10
93.6673178216041
 11
93.9599684240138
 20
-15.3650960727646
 21
-14.655818964331
 62
7
  0
LINE
  6
BYLAYER
  8
0
 10
93.9599684240138
 11
94.6650286649776
 20
-14.655818964331
 21
-14.3682286028853
 62
7
  0
LINE
  6
BYLAYER
  8
0
 10
94.6650286649776
 11
94.6650286649776
 20
-14.3682286028853
 21
-14.3682286028853
 62
7
  0
LINE
  6
BYLAYER
  8
0
 10
94.6650286649776
 11
95.3692455324475
 20
-14.3682286028853
 21
-14.655818964331
 62
7
  0
LINE
  6
BYLAYER
  8
0
 10
95.3692455324475
 11
95.6618961348571
 20
-14.655818964331
 21
-15.3650960727646
 62
7
  0
LINE
  6
BYLAYER
  8
0
 10
95.6618961348571
 11
95.6618961348571
 20
-15.3650960727646
 21
-21.2763008920419
 62
7
  0
LINE
  6
BYLAYER
  8
0
 10
73.6802093878691
 11
75.7034623999173
 20
-19.4326864342104
 21
-19.4326864342104
 62
7
  0
LINE
  6
BYLAYER
  8
0
 10
73.7131009541342
 11
73.7131009541342
 20
-21.2813611330056
 21
-15.4106382414395
 62
7
  0
LINE
  6
BYLAYER
  8
0
 10
73.7131009541342
 11
74.0057515565438
 20
-15.4106382414395
 21
-14.7064213739696
 62
7
  0
LINE
  6
BYLAYER
  8
0
 10
74.0057515565438
 11
74.7099684240137
 20
-14.7064213739696
 21
-14.4137707715599
 62
7
  0
LINE
  6
BYLAYER
  8
0
 10
74.7099684240137
 11
74.7099684240137
 20
-14.4137707715599
 21
-14.4137707715599
 62
7
  0
LINE
  6
BYLAYER
  8
0
 10
74.7099684240137
 11
75.4150286649776
 20
-14.4137707715599
 21
-14.7064213739696
 62
7
  0
LINE
  6
BYLAYER
  8
0
 10
75.4150286649776
 11
75.7076792673873
 20
-14.7064213739696
 21
-15.4106382414395
 62
7
  0
LINE
  6
BYLAYER
  8
0
 10
75.7076792673873
 11
75.7076792673873
 20
-15.4106382414395
 21
-21.3269033016805
 62
7
  0
LINE
  6
BYLAYER
  8
0
 10
78.6729804722066
 11
80.6953901107608
 20
-19.3871442655358
 21
-19.3871442655358
 62
7
  0
LINE
  6
BYLAYER
  8
0
 10
78.7092455324475
 11
78.7092455324475
 20
-21.2358189643309
 21
-15.3650960727646
 62
7
  0
LINE
  6
BYLAYER
  8
0
 10
78.7092455324475
 11
78.9985226408813
 20
-15.3650960727646
 21
-14.655818964331
 62
7
  0
LINE
  6
BYLAYER
  8
0
 10
78.9985226408813
 11
79.7069563758209
 20
-14.655818964331
 21
-14.3682286028853
 62
7
  0
LINE
  6
BYLAYER
  8
0
 10
79.7069563758209
 11
79.7069563758209
 20
-14.3682286028853
 21
-14.3682286028853
 62
7
  0
LINE
  6
BYLAYER
  8
0
 10
79.7069563758209
 11
80.4120166167849
 20
-14.3682286028853
 21
-14.655818964331
 62
7
  0
LINE
  6
BYLAYER
  8
0
 10
80.4120166167849
 11
80.7046672191945
 20
-14.655818964331
 21
-15.3650960727646
 62
7
  0
LINE
  6
BYLAYER
  8
0
 10
80.7046672191945
 11
80.7046672191945
 20
-15.3650960727646
 21
-21.2763008920419
 62
7
  0
LINE
  6
BYLAYER
  8
0
 10
83.6143057734114
 11
85.6375587854596
 20
-19.382927398066
 21
-19.382927398066
 62
7
  0
LINE
  6
BYLAYER
  8
0
 10
83.6505708336523
 11
83.6505708336523
 20
-21.2307587233672
 21
-15.3600358318009
 62
7
  0
LINE
  6
BYLAYER
  8
0
 10
83.6505708336523
 11
83.9390045685921
 20
-15.3600358318009
 21
-14.655818964331
 62
7
  0
LINE
  6
BYLAYER
  8
0
 10
83.9390045685921
 11
84.6491250505198
 20
-14.655818964331
 21
-14.3631683619213
 62
7
  0
LINE
  6
BYLAYER
  8
0
 10
84.6491250505198
 11
84.6491250505198
 20
-14.3631683619213
 21
-14.3631683619213
 62
7
  0
LINE
  6
BYLAYER
  8
0
 10
84.6491250505198
 11
85.3524985444956
 20
-14.3631683619213
 21
-14.655818964331
 62
7
  0
LINE
  6
BYLAYER
  8
0
 10
85.3524985444956
 11
85.6459925203993
 20
-14.655818964331
 21
-15.3600358318009
 62
7
  0
LINE
  6
BYLAYER
  8
0
 10
85.6459925203993
 11
85.6459925203993
 20
-15.3600358318009
 21
-21.272084024572
 62
7
  0
LINE
  6
BYLAYER
  8
0
 10
58.6774383035318
 11
60.6990045685921
 20
-19.4326864342104
 21
-19.4326864342104
 62
7
  0
LINE
  6
BYLAYER
  8
0
 10
58.7094864963029
 11
58.7094864963029
 20
-21.2813611330056
 21
-15.4106382414395
 62
7
  0
LINE
  6
BYLAYER
  8
0
 10
58.7094864963029
 11
59.0021370987126
 20
-15.4106382414395
 21
-14.7064213739696
 62
7
  0
LINE
  6
BYLAYER
  8
0
 10
59.0021370987126
 11
59.7122575806403
 20
-14.7064213739696
 21
-14.4137707715599
 62
7
  0
LINE
  6
BYLAYER
  8
0
 10
59.7122575806403
 11
59.7122575806403
 20
-14.4137707715599
 21
-14.4137707715599
 62
7
  0
LINE
  6
BYLAYER
  8
0
 10
59.7122575806403
 11
60.4156310746161
 20
-14.4137707715599
 21
-14.7064213739696
 62
7
  0
LINE
  6
BYLAYER
  8
0
 10
60.4156310746161
 11
60.7091250505197
 20
-14.7064213739696
 21
-15.4106382414395
 62
7
  0
LINE
  6
BYLAYER
  8
0
 10
60.7091250505197
 11
60.7091250505197
 20
-15.4106382414395
 21
-21.3269033016805
 62
7
  0
LINE
  6
BYLAYER
  8
0
 10
63.6702093878691
 11
65.6917756529295
 20
-19.3871442655358
 21
-19.3871442655358
 62
7
  0
LINE
  6
BYLAYER
  8
0
 10
63.7064744481102
 11
63.7064744481102
 20
-21.2358189643309
 21
-15.3650960727646
 62
7
  0
LINE
  6
BYLAYER
  8
0
 10
63.7064744481102
 11
63.9991250505198
 20
-15.3650960727646
 21
-14.655818964331
 62
7
  0
LINE
  6
BYLAYER
  8
0
 10
63.9991250505198
 11
64.7033419179897
 20
-14.655818964331
 21
-14.3682286028853
 62
7
  0
LINE
  6
BYLAYER
  8
0
 10
64.7033419179897
 11
64.7033419179897
 20
-14.3682286028853
 21
-14.3682286028853
 62
7
  0
LINE
  6
BYLAYER
  8
0
 10
64.7033419179897
 11
65.4084021589535
 20
-14.3682286028853
 21
-14.655818964331
 62
7
  0
LINE
  6
BYLAYER
  8
0
 10
65.4084021589535
 11
65.7010527613632
 20
-14.655818964331
 21
-15.3650960727646
 62
7
  0
LINE
  6
BYLAYER
  8
0
 10
65.7010527613632
 11
65.7010527613632
 20
-15.3650960727646
 21
-21.2763008920419
 62
7
  0
LINE
  6
BYLAYER
  8
0
 10
68.61069131558
 11
70.6339443276282
 20
-19.382927398066
 21
-19.382927398066
 62
7
  0
LINE
  6
BYLAYER
  8
0
 10
68.647799749315
 11
68.647799749315
 20
-21.2307587233672
 21
-15.3600358318009
 62
7
  0
LINE
  6
BYLAYER
  8
0
 10
68.647799749315
 11
68.9412937252185
 20
-15.3600358318009
 21
-14.655818964331
 62
7
  0
LINE
  6
BYLAYER
  8
0
 10
68.9412937252185
 11
69.6446672191944
 20
-14.655818964331
 21
-14.3631683619213
 62
7
  0
LINE
  6
BYLAYER
  8
0
 10
69.6446672191944
 11
69.6446672191944
 20
-14.3631683619213
 21
-14.3631683619213
 62
7
  0
LINE
  6
BYLAYER
  8
0
 10
69.6446672191944
 11
70.3497274601584
 20
-14.3631683619213
 21
-14.655818964331
 62
7
  0
LINE
  6
BYLAYER
  8
0
 10
70.3497274601584
 11
70.6432214360619
 20
-14.655818964331
 21
-15.3600358318009
 62
7
  0
LINE
  6
BYLAYER
  8
0
 10
70.6432214360619
 11
70.6432214360619
 20
-15.3600358318009
 21
-21.272084024572
 62
7
  0
LINE
  6
BYLAYER
  8
0
 10
43.7151491469053
 11
45.7426190264234
 20
-19.4782286028852
 21
-19.4782286028852
 62
7
  0
LINE
  6
BYLAYER
  8
0
 10
43.7522575806402
 11
43.7522575806402
 20
-21.3269033016805
 21
-15.4561804101142
 62
7
  0
LINE
  6
BYLAYER
  8
0
 10
43.7522575806402
 11
44.0449081830499
 20
-15.4561804101142
 21
-14.7477466751744
 62
7
  0
LINE
  6
BYLAYER
  8
0
 10
44.0449081830499
 11
44.7491250505198
 20
-14.7477466751744
 21
-14.4593129402346
 62
7
  0
LINE
  6
BYLAYER
  8
0
 10
44.7491250505198
 11
44.7491250505198
 20
-14.4593129402346
 21
-14.4593129402346
 62
7
  0
LINE
  6
BYLAYER
  8
0
 10
44.7491250505198
 11
45.4541852914836
 20
-14.4593129402346
 21
-14.7477466751744
 62
7
  0
LINE
  6
BYLAYER
  8
0
 10
45.4541852914836
 11
45.7468358938932
 20
-14.7477466751744
 21
-15.4561804101142
 62
7
  0
LINE
  6
BYLAYER
  8
0
 10
45.7468358938932
 11
45.7468358938932
 20
-15.4561804101142
 21
-21.3682286028852
 62
7
  0
LINE
  6
BYLAYER
  8
0
 10
48.7121370987125
 11
50.7345467372668
 20
-19.4284695667406
 21
-19.4284695667406
 62
7
  0
LINE
  6
BYLAYER
  8
0
 10
48.7484021589535
 11
48.7484021589535
 20
-21.2763008920419
 21
-15.4055780004756
 62
7
  0
LINE
  6
BYLAYER
  8
0
 10
48.7484021589535
 11
49.0359925203993
 20
-15.4055780004756
 21
-14.7022045064997
 62
7
  0
LINE
  6
BYLAYER
  8
0
 10
49.0359925203993
 11
49.7461130023271
 20
-14.7022045064997
 21
-14.408710530596
 62
7
  0
LINE
  6
BYLAYER
  8
0
 10
49.7461130023271
 11
49.7461130023271
 20
-14.408710530596
 21
-14.408710530596
 62
7
  0
LINE
  6
BYLAYER
  8
0
 10
49.7461130023271
 11
50.4503298697969
 20
-14.408710530596
 21
-14.7022045064997
 62
7
  0
LINE
  6
BYLAYER
  8
0
 10
50.4503298697969
 11
50.7429804722066
 20
-14.7022045064997
 21
-15.4055780004756
 62
7
  0
LINE
  6
BYLAYER
  8
0
 10
50.7429804722066
 11
50.7429804722066
 20
-15.4055780004756
 21
-21.3226864342105
 62
7
  0
LINE
  6
BYLAYER
  8
0
 10
53.6534623999173
 11
55.6750286649777
 20
-19.4284695667406
 21
-19.4284695667406
 62
7
  0
LINE
  6
BYLAYER
  8
0
 10
53.6897274601584
 11
53.6897274601584
 20
-21.272084024572
 21
-15.4055780004756
 62
7
  0
LINE
  6
BYLAYER
  8
0
 10
53.6897274601584
 11
53.978161195098
 20
-15.4055780004756
 21
-14.6971442655359
 62
7
  0
LINE
  6
BYLAYER
  8
0
 10
53.978161195098
 11
54.6882816770258
 20
-14.6971442655359
 21
-14.408710530596
 62
7
  0
LINE
  6
BYLAYER
  8
0
 10
54.6882816770258
 11
54.6882816770258
 20
-14.408710530596
 21
-14.408710530596
 62
7
  0
LINE
  6
BYLAYER
  8
0
 10
54.6882816770258
 11
55.3916551710017
 20
-14.408710530596
 21
-14.6971442655359
 62
7
  0
LINE
  6
BYLAYER
  8
0
 10
55.3916551710017
 11
55.6851491469053
 20
-14.6971442655359
 21
-15.4055780004756
 62
7
  0
LINE
  6
BYLAYER
  8
0
 10
55.6851491469053
 11
55.6851491469053
 20
-15.4055780004756
 21
-21.3176261932467
 62
7
  0
LINE
  6
BYLAYER
  8
0
 10
28.7343057734113
 11
30.7617756529294
 20
-19.4326864342104
 21
-19.4326864342104
 62
7
  0
LINE
  6
BYLAYER
  8
0
 10
28.7722575806402
 11
28.7722575806402
 20
-21.2813611330056
 21
-15.4106382414395
 62
7
  0
LINE
  6
BYLAYER
  8
0
 10
28.7722575806402
 11
29.0649081830498
 20
-15.4106382414395
 21
-14.7064213739696
 62
7
  0
LINE
  6
BYLAYER
  8
0
 10
29.0649081830498
 11
29.7682816770257
 20
-14.7064213739696
 21
-14.4137707715599
 62
7
  0
LINE
  6
BYLAYER
  8
0
 10
29.7682816770257
 11
29.7682816770257
 20
-14.4137707715599
 21
-14.4137707715599
 62
7
  0
LINE
  6
BYLAYER
  8
0
 10
29.7682816770257
 11
30.4741852914836
 20
-14.4137707715599
 21
-14.7064213739696
 62
7
  0
LINE
  6
BYLAYER
  8
0
 10
30.4741852914836
 11
30.7668358938932
 20
-14.7064213739696
 21
-15.4106382414395
 62
7
  0
LINE
  6
BYLAYER
  8
0
 10
30.7668358938932
 11
30.7668358938932
 20
-15.4106382414395
 21
-21.3269033016805
 62
7
  0
LINE
  6
BYLAYER
  8
0
 10
33.7312937252186
 11
35.7545467372667
 20
-19.3871442655358
 21
-19.3871442655358
 62
7
  0
LINE
  6
BYLAYER
  8
0
 10
33.7633419179896
 11
33.7633419179896
 20
-21.2358189643309
 21
-15.3650960727646
 62
7
  0
LINE
  6
BYLAYER
  8
0
 10
33.7633419179896
 11
34.0559925203992
 20
-15.3650960727646
 21
-14.655818964331
 62
7
  0
LINE
  6
BYLAYER
  8
0
 10
34.0559925203992
 11
34.765269628833
 20
-14.655818964331
 21
-14.3682286028853
 62
7
  0
LINE
  6
BYLAYER
  8
0
 10
34.765269628833
 11
34.765269628833
 20
-14.3682286028853
 21
-14.3682286028853
 62
7
  0
LINE
  6
BYLAYER
  8
0
 10
34.765269628833
 11
35.4694864963029
 20
-14.3682286028853
 21
-14.655818964331
 62
7
  0
LINE
  6
BYLAYER
  8
0
 10
35.4694864963029
 11
35.7621370987125
 20
-14.655818964331
 21
-15.3650960727646
 62
7
  0
LINE
  6
BYLAYER
  8
0
 10
35.7621370987125
 11
35.7621370987125
 20
-15.3650960727646
 21
-21.2763008920419
 62
7
  0
LINE
  6
BYLAYER
  8
0
 10
38.6734623999173
 11
40.6950286649776
 20
-19.382927398066
 21
-19.382927398066
 62
7
  0
LINE
  6
BYLAYER
  8
0
 10
38.7097274601583
 11
38.7097274601583
 20
-21.2307587233672
 21
-15.3600358318009
 62
7
  0
LINE
  6
BYLAYER
  8
0
 10
38.7097274601583
 11
38.9981611950981
 20
-15.3600358318009
 21
-14.655818964331
 62
7
  0
LINE
  6
BYLAYER
  8
0
 10
38.9981611950981
 11
39.7074383035319
 20
-14.655818964331
 21
-14.3631683619213
 62
7
  0
LINE
  6
BYLAYER
  8
0
 10
39.7074383035319
 11
39.7074383035319
 20
-14.3631683619213
 21
-14.3631683619213
 62
7
  0
LINE
  6
BYLAYER
  8
0
 10
39.7074383035319
 11
40.4116551710017
 20
-14.3631683619213
 21
-14.655818964331
 62
7
  0
LINE
  6
BYLAYER
  8
0
 10
40.4116551710017
 11
40.7043057734113
 20
-14.655818964331
 21
-15.3600358318009
 62
7
  0
LINE
  6
BYLAYER
  8
0
 10
40.7043057734113
 11
40.7043057734113
 20
-15.3600358318009
 21
-21.272084024572
 62
7
  0
LINE
  6
BYLAYER
  8
0
 10
8.78936601437523
 11
10.8176792673873
 20
-19.4141322173431
 21
-19.4141322173431
 62
7
  0
LINE
  6
BYLAYER
  8
0
 10
8.82647444811009
 11
8.82647444811009
 20
-21.2628069161382
 21
-15.392927398066
 62
7
  0
LINE
  6
BYLAYER
  8
0
 10
8.82647444811009
 11
9.11912505051974
 20
-15.392927398066
 21
-14.6828069161382
 62
7
  0
LINE
  6
BYLAYER
  8
0
 10
9.11912505051974
 11
9.82418529148357
 20
-14.6828069161382
 21
-14.3952165546924
 62
7
  0
LINE
  6
BYLAYER
  8
0
 10
9.82418529148357
 11
9.82418529148357
 20
-14.3952165546924
 21
-14.3952165546924
 62
7
  0
LINE
  6
BYLAYER
  8
0
 10
9.82418529148357
 11
10.5284021589535
 20
-14.3952165546924
 21
-14.6828069161382
 62
7
  0
LINE
  6
BYLAYER
  8
0
 10
10.5284021589535
 11
10.8210527613631
 20
-14.6828069161382
 21
-15.392927398066
 62
7
  0
LINE
  6
BYLAYER
  8
0
 10
10.8210527613631
 11
10.8210527613631
 20
-15.392927398066
 21
-21.303288843849
 62
7
  0
LINE
  6
BYLAYER
  8
0
 10
13.804064809556
 11
15.831534689074
 20
-19.5009996872226
 21
-19.5009996872226
 62
7
  0
LINE
  6
BYLAYER
  8
0
 10
13.8420166167849
 11
13.8420166167849
 20
-21.3505177595117
 21
-15.4797948679454
 62
7
  0
LINE
  6
BYLAYER
  8
0
 10
13.8420166167849
 11
14.1346672191945
 20
-15.4797948679454
 21
-14.7747346269816
 62
7
  0
LINE
  6
BYLAYER
  8
0
 10
14.1346672191945
 11
14.8388840866644
 20
-14.7747346269816
 21
-14.4820840245719
 62
7
  0
LINE
  6
BYLAYER
  8
0
 10
14.8388840866644
 11
14.8388840866644
 20
-14.4820840245719
 21
-14.4820840245719
 62
7
  0
LINE
  6
BYLAYER
  8
0
 10
14.8388840866644
 11
15.5439443276282
 20
-14.4820840245719
 21
-14.7747346269816
 62
7
  0
LINE
  6
BYLAYER
  8
0
 10
15.5439443276282
 11
15.8416551710016
 20
-14.7747346269816
 21
-15.4797948679454
 62
7
  0
LINE
  6
BYLAYER
  8
0
 10
15.8416551710016
 11
15.8416551710016
 20
-15.4797948679454
 21
-21.3918430607165
 62
7
  0
LINE
  6
BYLAYER
  8
0
 10
18.8010527613631
 11
20.8226190264234
 20
-19.4503972775839
 21
-19.4503972775839
 62
7
  0
LINE
  6
BYLAYER
  8
0
 10
18.8373178216041
 11
18.8373178216041
 20
-21.2999153498732
 21
-15.4291924583069
 62
7
  0
LINE
  6
BYLAYER
  8
0
 10
18.8373178216041
 11
19.1257515565439
 20
-15.4291924583069
 21
-14.724132217343
 62
7
  0
LINE
  6
BYLAYER
  8
0
 10
19.1257515565439
 11
19.8358720384716
 20
-14.724132217343
 21
-14.4314816149335
 62
7
  0
LINE
  6
BYLAYER
  8
0
 10
19.8358720384716
 11
19.8358720384716
 20
-14.4314816149335
 21
-14.4314816149335
 62
7
  0
LINE
  6
BYLAYER
  8
0
 10
19.8358720384716
 11
20.5392455324474
 20
-14.4314816149335
 21
-14.724132217343
 62
7
  0
LINE
  6
BYLAYER
  8
0
 10
20.5392455324474
 11
20.8327395083511
 20
-14.724132217343
 21
-15.4291924583069
 62
7
  0
LINE
  6
BYLAYER
  8
0
 10
20.8327395083511
 11
20.8327395083511
 20
-15.4291924583069
 21
-21.3454575185479
 62
7
  0
LINE
  6
BYLAYER
  8
0
 10
23.7432214360619
 11
25.7647877011222
 20
-19.4503972775839
 21
-19.4503972775839
 62
7
  0
LINE
  6
BYLAYER
  8
0
 10
23.779486496303
 11
23.779486496303
 20
-21.2999153498732
 21
-15.4291924583069
 62
7
  0
LINE
  6
BYLAYER
  8
0
 10
23.779486496303
 11
24.0721370987125
 20
-15.4291924583069
 21
-14.7190719763792
 62
7
  0
LINE
  6
BYLAYER
  8
0
 10
24.0721370987125
 11
24.7763539661824
 20
-14.7190719763792
 21
-14.4314816149335
 62
7
  0
LINE
  6
BYLAYER
  8
0
 10
24.7763539661824
 11
24.7763539661824
 20
-14.4314816149335
 21
-14.4314816149335
 62
7
  0
LINE
  6
BYLAYER
  8
0
 10
24.7763539661824
 11
25.4814142071463
 20
-14.4314816149335
 21
-14.7190719763792
 62
7
  0
LINE
  6
BYLAYER
  8
0
 10
25.4814142071463
 11
25.774064809556
 20
-14.7190719763792
 21
-15.4291924583069
 62
7
  0
LINE
  6
BYLAYER
  8
0
 10
25.774064809556
 11
25.774064809556
 20
-15.4291924583069
 21
-21.341240651078
 62
7
  0
LINE
  6
BYLAYER
  8
0
 10
34.9390045685921
 11
35.6440648095559
 20
-2.83256595228272
 21
-2.53991534987324
 62
7
  0
LINE
  6
BYLAYER
  8
0
 10
35.6440648095559
 11
35.9367154119655
 20
-2.53991534987324
 21
-1.83485510890927
 62
7
  0
LINE
  6
BYLAYER
  8
0
 10
35.9367154119655
 11
35.9367154119655
 20
-1.83485510890927
 21
14.1293617585605
 62
7
  0
LINE
  6
BYLAYER
  8
0
 10
35.9367154119655
 11
35.6440648095559
 20
14.1293617585605
 21
14.8386388669944
 62
7
  0
LINE
  6
BYLAYER
  8
0
 10
35.6440648095559
 11
34.9390045685921
 20
14.8386388669944
 21
15.1262292284401
 62
7
  0
LINE
  6
BYLAYER
  8
0
 10
34.9390045685921
 11
34.9390045685921
 20
15.1262292284401
 21
15.1262292284401
 62
7
  0
LINE
  6
BYLAYER
  8
0
 10
34.9390045685921
 11
34.2347877011222
 20
15.1262292284401
 21
14.8386388669944
 62
7
  0
LINE
  6
BYLAYER
  8
0
 10
34.2347877011222
 11
33.9421370987125
 20
14.8386388669944
 21
14.1293617585605
 62
7
  0
LINE
  6
BYLAYER
  8
0
 10
33.9421370987125
 11
33.9421370987125
 20
14.1293617585605
 21
-1.83485510890927
 62
7
  0
LINE
  6
BYLAYER
  8
0
 10
33.9421370987125
 11
34.2347877011222
 20
-1.83485510890927
 21
-2.53991534987324
 62
7
  0
LINE
  6
BYLAYER
  8
0
 10
34.2347877011222
 11
34.9390045685921
 20
-2.53991534987324
 21
-2.83256595228272
 62
7
  0
LINE
  6
BYLAYER
  8
0
 10
34.9390045685921
 11
34.9390045685921
 20
-2.83256595228272
 21
-2.83256595228272
 62
7
  0
LINE
  6
BYLAYER
  8
0
 10
34.9390045685921
 11
34.9390045685921
 20
-2.83256595228272
 21
-2.83256595228272
 62
7
  0
LINE
  6
BYLAYER
  8
0
 10
29.9243057734114
 11
30.6293660143752
 20
-2.83256595228272
 21
-2.53991534987324
 62
7
  0
LINE
  6
BYLAYER
  8
0
 10
30.6293660143752
 11
30.9228599902788
 20
-2.53991534987324
 21
-1.83485510890927
 62
7
  0
LINE
  6
BYLAYER
  8
0
 10
30.9228599902788
 11
30.9228599902788
 20
-1.83485510890927
 21
14.1293617585605
 62
7
  0
LINE
  6
BYLAYER
  8
0
 10
30.9228599902788
 11
30.6293660143752
 20
14.1293617585605
 21
14.8386388669944
 62
7
  0
LINE
  6
BYLAYER
  8
0
 10
30.6293660143752
 11
29.9243057734114
 20
14.8386388669944
 21
15.1262292284401
 62
7
  0
LINE
  6
BYLAYER
  8
0
 10
29.9243057734114
 11
29.9243057734114
 20
15.1262292284401
 21
15.1262292284401
 62
7
  0
LINE
  6
BYLAYER
  8
0
 10
29.9243057734114
 11
29.2158720384716
 20
15.1262292284401
 21
14.8386388669944
 62
7
  0
LINE
  6
BYLAYER
  8
0
 10
29.2158720384716
 11
28.9265949300378
 20
14.8386388669944
 21
14.1293617585605
 62
7
  0
LINE
  6
BYLAYER
  8
0
 10
28.9265949300378
 11
28.9265949300378
 20
14.1293617585605
 21
-1.83485510890927
 62
7
  0
LINE
  6
BYLAYER
  8
0
 10
28.9265949300378
 11
29.2158720384716
 20
-1.83485510890927
 21
-2.53991534987324
 62
7
  0
LINE
  6
BYLAYER
  8
0
 10
29.2158720384716
 11
29.9243057734114
 20
-2.53991534987324
 21
-2.83256595228272
 62
7
  0
LINE
  6
BYLAYER
  8
0
 10
29.9243057734114
 11
29.9243057734114
 20
-2.83256595228272
 21
-2.83256595228272
 62
7
  0
LINE
  6
BYLAYER
  8
0
 10
29.9243057734114
 11
29.9243057734114
 20
-2.83256595228272
 21
-2.83256595228272
 62
7
  0
LINE
  6
BYLAYER
  8
0
 10
40.0464744481101
 11
40.7456310746161
 20
-2.91943342216234
 21
-2.62678281975258
 62
7
  0
LINE
  6
BYLAYER
  8
0
 10
40.7456310746161
 11
41.0382816770258
 20
-2.62678281975258
 21
-1.92256595228281
 62
7
  0
LINE
  6
BYLAYER
  8
0
 10
41.0382816770258
 11
41.0382816770258
 20
-1.92256595228281
 21
14.0416509151871
 62
7
  0
LINE
  6
BYLAYER
  8
0
 10
41.0382816770258
 11
40.7456310746161
 20
14.0416509151871
 21
14.7467111561509
 62
7
  0
LINE
  6
BYLAYER
  8
0
 10
40.7456310746161
 11
40.0464744481101
 20
14.7467111561509
 21
15.0402051320545
 62
7
  0
LINE
  6
BYLAYER
  8
0
 10
40.0464744481101
 11
40.0464744481101
 20
15.0402051320545
 21
15.0402051320545
 62
7
  0
LINE
  6
BYLAYER
  8
0
 10
40.0464744481101
 11
39.3363539661825
 20
15.0402051320545
 21
14.7467111561509
 62
7
  0
LINE
  6
BYLAYER
  8
0
 10
39.3363539661825
 11
39.0437033637728
 20
14.7467111561509
 21
14.0416509151871
 62
7
  0
LINE
  6
BYLAYER
  8
0
 10
39.0437033637728
 11
39.0437033637728
 20
14.0416509151871
 21
-1.92256595228281
 62
7
  0
LINE
  6
BYLAYER
  8
0
 10
39.0437033637728
 11
39.3363539661825
 20
-1.92256595228281
 21
-2.62678281975258
 62
7
  0
LINE
  6
BYLAYER
  8
0
 10
39.3363539661825
 11
40.0464744481101
 20
-2.62678281975258
 21
-2.91943342216234
 62
7
  0
LINE
  6
BYLAYER
  8
0
 10
40.0464744481101
 11
40.0464744481101
 20
-2.91943342216234
 21
-2.91943342216234
 62
7
  0
LINE
  6
BYLAYER
  8
0
 10
40.0464744481101
 11
40.0464744481101
 20
-2.91943342216234
 21
-2.91943342216234
 62
7
  0
LINE
  6
BYLAYER
  8
0
 10
54.8932214360619
 11
55.5982816770258
 20
-2.8688310125238
 21
-2.57618041011415
 62
7
  0
LINE
  6
BYLAYER
  8
0
 10
55.5982816770258
 11
55.8909322794355
 20
-2.57618041011415
 21
-1.87196354264427
 62
7
  0
LINE
  6
BYLAYER
  8
0
 10
55.8909322794355
 11
55.8909322794355
 20
-1.87196354264427
 21
14.0922533248257
 62
7
  0
LINE
  6
BYLAYER
  8
0
 10
55.8909322794355
 11
55.5982816770258
 20
14.0922533248257
 21
14.8023738067533
 62
7
  0
LINE
  6
BYLAYER
  8
0
 10
55.5982816770258
 11
54.8932214360619
 20
14.8023738067533
 21
15.0899641681991
 62
7
  0
LINE
  6
BYLAYER
  8
0
 10
54.8932214360619
 11
54.8932214360619
 20
15.0899641681991
 21
15.0899641681991
 62
7
  0
LINE
  6
BYLAYER
  8
0
 10
54.8932214360619
 11
54.1839443276282
 20
15.0899641681991
 21
14.8023738067533
 62
7
  0
LINE
  6
BYLAYER
  8
0
 10
54.1839443276282
 11
53.8963539661825
 20
14.8023738067533
 21
14.0922533248257
 62
7
  0
LINE
  6
BYLAYER
  8
0
 10
53.8963539661825
 11
53.8963539661825
 20
14.0922533248257
 21
-1.87196354264427
 62
7
  0
LINE
  6
BYLAYER
  8
0
 10
53.8963539661825
 11
54.1839443276282
 20
-1.87196354264427
 21
-2.57618041011415
 62
7
  0
LINE
  6
BYLAYER
  8
0
 10
54.1839443276282
 11
54.8932214360619
 20
-2.57618041011415
 21
-2.8688310125238
 62
7
  0
LINE
  6
BYLAYER
  8
0
 10
54.8932214360619
 11
54.8932214360619
 20
-2.8688310125238
 21
-2.8688310125238
 62
7
  0
LINE
  6
BYLAYER
  8
0
 10
54.8932214360619
 11
54.8932214360619
 20
-2.8688310125238
 21
-2.8688310125238
 62
7
  0
LINE
  6
BYLAYER
  8
0
 10
64.8365949300378
 11
65.5408117975078
 20
-2.8688310125238
 21
-2.57618041011415
 62
7
  0
LINE
  6
BYLAYER
  8
0
 10
65.5408117975078
 11
65.8334623999174
 20
-2.57618041011415
 21
-1.87196354264427
 62
7
  0
LINE
  6
BYLAYER
  8
0
 10
65.8334623999174
 11
65.8334623999174
 20
-1.87196354264427
 21
14.0922533248257
 62
7
  0
LINE
  6
BYLAYER
  8
0
 10
65.8334623999174
 11
65.5408117975078
 20
14.0922533248257
 21
14.8023738067533
 62
7
  0
LINE
  6
BYLAYER
  8
0
 10
65.5408117975078
 11
64.8365949300378
 20
14.8023738067533
 21
15.0899641681991
 62
7
  0
LINE
  6
BYLAYER
  8
0
 10
64.8365949300378
 11
64.8365949300378
 20
15.0899641681991
 21
15.0899641681991
 62
7
  0
LINE
  6
BYLAYER
  8
0
 10
64.8365949300378
 11
64.1264744481101
 20
15.0899641681991
 21
14.8023738067533
 62
7
  0
LINE
  6
BYLAYER
  8
0
 10
64.1264744481101
 11
63.8388840866644
 20
14.8023738067533
 21
14.0922533248257
 62
7
  0
LINE
  6
BYLAYER
  8
0
 10
63.8388840866644
 11
63.8388840866644
 20
14.0922533248257
 21
-1.87196354264427
 62
7
  0
LINE
  6
BYLAYER
  8
0
 10
63.8388840866644
 11
64.1264744481101
 20
-1.87196354264427
 21
-2.57618041011415
 62
7
  0
LINE
  6
BYLAYER
  8
0
 10
64.1264744481101
 11
64.8365949300378
 20
-2.57618041011415
 21
-2.8688310125238
 62
7
  0
LINE
  6
BYLAYER
  8
0
 10
64.8365949300378
 11
64.8365949300378
 20
-2.8688310125238
 21
-2.8688310125238
 62
7
  0
LINE
  6
BYLAYER
  8
0
 10
64.8365949300378
 11
64.8365949300378
 20
-2.8688310125238
 21
-2.8688310125238
 62
7
  0
LINE
  6
BYLAYER
  8
0
 10
59.9087636047366
 11
60.6129804722066
 20
-2.8688310125238
 21
-2.57618041011415
 62
7
  0
LINE
  6
BYLAYER
  8
0
 10
60.6129804722066
 11
60.9056310746162
 20
-2.57618041011415
 21
-1.87196354264427
 62
7
  0
LINE
  6
BYLAYER
  8
0
 10
60.9056310746162
 11
60.9056310746162
 20
-1.87196354264427
 21
14.0922533248257
 62
7
  0
LINE
  6
BYLAYER
  8
0
 10
60.9056310746162
 11
60.6129804722066
 20
14.0922533248257
 21
14.8023738067533
 62
7
  0
LINE
  6
BYLAYER
  8
0
 10
60.6129804722066
 11
59.9087636047366
 20
14.8023738067533
 21
15.0899641681991
 62
7
  0
LINE
  6
BYLAYER
  8
0
 10
59.9087636047366
 11
59.9087636047366
 20
15.0899641681991
 21
15.0899641681991
 62
7
  0
LINE
  6
BYLAYER
  8
0
 10
59.9087636047366
 11
59.1986431228089
 20
15.0899641681991
 21
14.8023738067533
 62
7
  0
LINE
  6
BYLAYER
  8
0
 10
59.1986431228089
 11
58.9110527613632
 20
14.8023738067533
 21
14.0922533248257
 62
7
  0
LINE
  6
BYLAYER
  8
0
 10
58.9110527613632
 11
58.9110527613632
 20
14.0922533248257
 21
-1.87196354264427
 62
7
  0
LINE
  6
BYLAYER
  8
0
 10
58.9110527613632
 11
59.1986431228089
 20
-1.87196354264427
 21
-2.57618041011415
 62
7
  0
LINE
  6
BYLAYER
  8
0
 10
59.1986431228089
 11
59.9087636047366
 20
-2.57618041011415
 21
-2.8688310125238
 62
7
  0
LINE
  6
BYLAYER
  8
0
 10
59.9087636047366
 11
59.9087636047366
 20
-2.8688310125238
 21
-2.8688310125238
 62
7
  0
LINE
  6
BYLAYER
  8
0
 10
59.9087636047366
 11
59.9087636047366
 20
-2.8688310125238
 21
-2.8688310125238
 62
7
  0
LINE
  6
BYLAYER
  8
0
 10
49.9653901107608
 11
50.6704503517245
 20
-2.9599153498732
 21
-2.66726474746355
 62
7
  0
LINE
  6
BYLAYER
  8
0
 10
50.6704503517245
 11
50.9631009541343
 20
-2.66726474746355
 21
-1.96304787999361
 62
7
  0
LINE
  6
BYLAYER
  8
0
 10
50.9631009541343
 11
50.9631009541343
 20
-1.96304787999361
 21
14.0011689874762
 62
7
  0
LINE
  6
BYLAYER
  8
0
 10
50.9631009541343
 11
50.6704503517245
 20
14.0011689874762
 21
14.71044609591
 62
7
  0
LINE
  6
BYLAYER
  8
0
 10
50.6704503517245
 11
49.9653901107608
 20
14.71044609591
 21
14.9988798308498
 62
7
  0
LINE
  6
BYLAYER
  8
0
 10
49.9653901107608
 11
49.9653901107608
 20
14.9988798308498
 21
14.9988798308498
 62
7
  0
LINE
  6
BYLAYER
  8
0
 10
49.9653901107608
 11
49.256113002327
 20
14.9988798308498
 21
14.71044609591
 62
7
  0
LINE
  6
BYLAYER
  8
0
 10
49.256113002327
 11
48.9685226408813
 20
14.71044609591
 21
14.0011689874762
 62
7
  0
LINE
  6
BYLAYER
  8
0
 10
48.9685226408813
 11
48.9685226408813
 20
14.0011689874762
 21
-1.96304787999361
 62
7
  0
LINE
  6
BYLAYER
  8
0
 10
48.9685226408813
 11
49.256113002327
 20
-1.96304787999361
 21
-2.66726474746355
 62
7
  0
LINE
  6
BYLAYER
  8
0
 10
49.256113002327
 11
49.9653901107608
 20
-2.66726474746355
 21
-2.9599153498732
 62
7
  0
LINE
  6
BYLAYER
  8
0
 10
49.9653901107608
 11
49.9653901107608
 20
-2.9599153498732
 21
-2.9599153498732
 62
7
  0
LINE
  6
BYLAYER
  8
0
 10
49.9653901107608
 11
49.9653901107608
 20
-2.9599153498732
 21
-2.9599153498732
 62
7
  0
LINE
  6
BYLAYER
  8
0
 10
44.95069131558
 11
45.6557515565438
 20
-2.9599153498732
 21
-2.66726474746355
 62
7
  0
LINE
  6
BYLAYER
  8
0
 10
45.6557515565438
 11
45.9484021589536
 20
-2.66726474746355
 21
-1.96304787999361
 62
7
  0
LINE
  6
BYLAYER
  8
0
 10
45.9484021589536
 11
45.9484021589536
 20
-1.96304787999361
 21
14.0011689874762
 62
7
  0
LINE
  6
BYLAYER
  8
0
 10
45.9484021589536
 11
45.6557515565438
 20
14.0011689874762
 21
14.71044609591
 62
7
  0
LINE
  6
BYLAYER
  8
0
 10
45.6557515565438
 11
44.95069131558
 20
14.71044609591
 21
14.9988798308498
 62
7
  0
LINE
  6
BYLAYER
  8
0
 10
44.95069131558
 11
44.95069131558
 20
14.9988798308498
 21
14.9988798308498
 62
7
  0
LINE
  6
BYLAYER
  8
0
 10
44.95069131558
 11
44.2422575806402
 20
14.9988798308498
 21
14.71044609591
 62
7
  0
LINE
  6
BYLAYER
  8
0
 10
44.2422575806402
 11
43.9538238457005
 20
14.71044609591
 21
14.0011689874762
 62
7
  0
LINE
  6
BYLAYER
  8
0
 10
43.9538238457005
 11
43.9538238457005
 20
14.0011689874762
 21
-1.96304787999361
 62
7
  0
LINE
  6
BYLAYER
  8
0
 10
43.9538238457005
 11
44.2422575806402
 20
-1.96304787999361
 21
-2.66726474746355
 62
7
  0
LINE
  6
BYLAYER
  8
0
 10
44.2422575806402
 11
44.95069131558
 20
-2.66726474746355
 21
-2.9599153498732
 62
7
  0
LINE
  6
BYLAYER
  8
0
 10
44.95069131558
 11
44.95069131558
 20
-2.9599153498732
 21
-2.9599153498732
 62
7
  0
LINE
  6
BYLAYER
  8
0
 10
44.95069131558
 11
44.95069131558
 20
-2.9599153498732
 21
-2.9599153498732
 62
7
  0
LINE
  6
BYLAYER
  8
0
 10
79.7938238457005
 11
80.4988840866643
 20
19.3085183850667
 21
19.6011689874763
 62
7
  0
LINE
  6
BYLAYER
  8
0
 10
80.4988840866643
 11
80.7915346890739
 20
19.6011689874763
 21
20.3062292284401
 62
7
  0
LINE
  6
BYLAYER
  8
0
 10
80.7915346890739
 11
80.7915346890739
 20
20.3062292284401
 21
36.2662292284401
 62
7
  0
LINE
  6
BYLAYER
  8
0
 10
80.7915346890739
 11
80.4988840866643
 20
36.2662292284401
 21
36.9746629633798
 62
7
  0
LINE
  6
BYLAYER
  8
0
 10
80.4988840866643
 11
79.7938238457005
 20
36.9746629633798
 21
37.2639400718136
 62
7
  0
LINE
  6
BYLAYER
  8
0
 10
79.7938238457005
 11
79.7938238457005
 20
37.2639400718136
 21
37.2639400718136
 62
7
  0
LINE
  6
BYLAYER
  8
0
 10
79.7938238457005
 11
79.0896069782306
 20
37.2639400718136
 21
36.9746629633798
 62
7
  0
LINE
  6
BYLAYER
  8
0
 10
79.0896069782306
 11
78.7969563758209
 20
36.9746629633798
 21
36.2662292284401
 62
7
  0
LINE
  6
BYLAYER
  8
0
 10
78.7969563758209
 11
78.7969563758209
 20
36.2662292284401
 21
20.3062292284401
 62
7
  0
LINE
  6
BYLAYER
  8
0
 10
78.7969563758209
 11
79.0896069782306
 20
20.3062292284401
 21
19.6011689874763
 62
7
  0
LINE
  6
BYLAYER
  8
0
 10
79.0896069782306
 11
79.7938238457005
 20
19.6011689874763
 21
19.3085183850667
 62
7
  0
LINE
  6
BYLAYER
  8
0
 10
79.7938238457005
 11
79.7938238457005
 20
19.3085183850667
 21
19.3085183850667
 62
7
  0
LINE
  6
BYLAYER
  8
0
 10
79.7938238457005
 11
79.7938238457005
 20
19.3085183850667
 21
19.3085183850667
 62
7
  0
LINE
  6
BYLAYER
  8
0
 10
74.7791250505198
 11
75.4841852914837
 20
19.3085183850667
 21
19.6011689874763
 62
7
  0
LINE
  6
BYLAYER
  8
0
 10
75.4841852914837
 11
75.7768358938933
 20
19.6011689874763
 21
20.3062292284401
 62
7
  0
LINE
  6
BYLAYER
  8
0
 10
75.7768358938933
 11
75.7768358938933
 20
20.3062292284401
 21
36.2662292284401
 62
7
  0
LINE
  6
BYLAYER
  8
0
 10
75.7768358938933
 11
75.4841852914837
 20
36.2662292284401
 21
36.9746629633798
 62
7
  0
LINE
  6
BYLAYER
  8
0
 10
75.4841852914837
 11
74.7791250505198
 20
36.9746629633798
 21
37.2639400718136
 62
7
  0
LINE
  6
BYLAYER
  8
0
 10
74.7791250505198
 11
74.7791250505198
 20
37.2639400718136
 21
37.2639400718136
 62
7
  0
LINE
  6
BYLAYER
  8
0
 10
74.7791250505198
 11
74.07069131558
 20
37.2639400718136
 21
36.9746629633798
 62
7
  0
LINE
  6
BYLAYER
  8
0
 10
74.07069131558
 11
73.7814142071462
 20
36.9746629633798
 21
36.2662292284401
 62
7
  0
LINE
  6
BYLAYER
  8
0
 10
73.7814142071462
 11
73.7814142071462
 20
36.2662292284401
 21
20.3062292284401
 62
7
  0
LINE
  6
BYLAYER
  8
0
 10
73.7814142071462
 11
74.07069131558
 20
20.3062292284401
 21
19.6011689874763
 62
7
  0
LINE
  6
BYLAYER
  8
0
 10
74.07069131558
 11
74.7791250505198
 20
19.6011689874763
 21
19.3085183850667
 62
7
  0
LINE
  6
BYLAYER
  8
0
 10
74.7791250505198
 11
74.7791250505198
 20
19.3085183850667
 21
19.3085183850667
 62
7
  0
LINE
  6
BYLAYER
  8
0
 10
74.7791250505198
 11
74.7791250505198
 20
19.3085183850667
 21
19.3085183850667
 62
7
  0
LINE
  6
BYLAYER
  8
0
 10
84.8962334842547
 11
85.5996069782306
 20
19.2165906742232
 21
19.5100846501268
 62
7
  0
LINE
  6
BYLAYER
  8
0
 10
85.5996069782306
 11
85.8973178216041
 20
19.5100846501268
 21
20.2151448910907
 62
7
  0
LINE
  6
BYLAYER
  8
0
 10
85.8973178216041
 11
85.8973178216041
 20
20.2151448910907
 21
36.1793617585605
 62
7
  0
LINE
  6
BYLAYER
  8
0
 10
85.8973178216041
 11
85.5996069782306
 20
36.1793617585605
 21
36.8877954935003
 62
7
  0
LINE
  6
BYLAYER
  8
0
 10
85.5996069782306
 11
84.8962334842547
 20
36.8877954935003
 21
37.1762292284402
 62
7
  0
LINE
  6
BYLAYER
  8
0
 10
84.8962334842547
 11
84.8962334842547
 20
37.1762292284402
 21
37.1762292284402
 62
7
  0
LINE
  6
BYLAYER
  8
0
 10
84.8962334842547
 11
84.1911732432909
 20
37.1762292284402
 21
36.8877954935003
 62
7
  0
LINE
  6
BYLAYER
  8
0
 10
84.1911732432909
 11
83.8976792673872
 20
36.8877954935003
 21
36.1793617585605
 62
7
  0
LINE
  6
BYLAYER
  8
0
 10
83.8976792673872
 11
83.8976792673872
 20
36.1793617585605
 21
20.2151448910907
 62
7
  0
LINE
  6
BYLAYER
  8
0
 10
83.8976792673872
 11
84.1911732432909
 20
20.2151448910907
 21
19.5100846501268
 62
7
  0
LINE
  6
BYLAYER
  8
0
 10
84.1911732432909
 11
84.8962334842547
 20
19.5100846501268
 21
19.2165906742232
 62
7
  0
LINE
  6
BYLAYER
  8
0
 10
84.8962334842547
 11
84.8962334842547
 20
19.2165906742232
 21
19.2165906742232
 62
7
  0
LINE
  6
BYLAYER
  8
0
 10
84.8962334842547
 11
84.8962334842547
 20
19.2165906742232
 21
19.2165906742232
 62
7
  0
LINE
  6
BYLAYER
  8
0
 10
99.7471973396765
 11
100.453100954134
 20
19.2722533248256
 21
19.5649039272352
 62
7
  0
LINE
  6
BYLAYER
  8
0
 10
100.453100954134
 11
100.745751556544
 20
19.5649039272352
 21
20.2699641681992
 62
7
  0
LINE
  6
BYLAYER
  8
0
 10
100.745751556544
 11
100.745751556544
 20
20.2699641681992
 21
36.2299641681991
 62
7
  0
LINE
  6
BYLAYER
  8
0
 10
100.745751556544
 11
100.453100954134
 20
36.2299641681991
 21
36.9383979031389
 62
7
  0
LINE
  6
BYLAYER
  8
0
 10
100.453100954134
 11
99.7471973396765
 20
36.9383979031389
 21
37.2268316380788
 62
7
  0
LINE
  6
BYLAYER
  8
0
 10
99.7471973396765
 11
99.7471973396765
 20
37.2268316380788
 21
37.2268316380788
 62
7
  0
LINE
  6
BYLAYER
  8
0
 10
99.7471973396765
 11
99.0387636047367
 20
37.2268316380788
 21
36.9383979031389
 62
7
  0
LINE
  6
BYLAYER
  8
0
 10
99.0387636047367
 11
98.746113002327
 20
36.9383979031389
 21
36.2299641681991
 62
7
  0
LINE
  6
BYLAYER
  8
0
 10
98.746113002327
 11
98.746113002327
 20
36.2299641681991
 21
20.2699641681992
 62
7
  0
LINE
  6
BYLAYER
  8
0
 10
98.746113002327
 11
99.0387636047367
 20
20.2699641681992
 21
19.5649039272352
 62
7
  0
LINE
  6
BYLAYER
  8
0
 10
99.0387636047367
 11
99.7471973396765
 20
19.5649039272352
 21
19.2722533248256
 62
7
  0
LINE
  6
BYLAYER
  8
0
 10
99.7471973396765
 11
99.7471973396765
 20
19.2722533248256
 21
19.2722533248256
 62
7
  0
LINE
  6
BYLAYER
  8
0
 10
99.7471973396765
 11
99.7471973396765
 20
19.2722533248256
 21
19.2722533248256
 62
7
  0
LINE
  6
BYLAYER
  8
0
 10
109.691414207146
 11
110.394787701122
 20
19.2722533248256
 21
19.5649039272352
 62
7
  0
LINE
  6
BYLAYER
  8
0
 10
110.394787701122
 11
110.688281677026
 20
19.5649039272352
 21
20.2699641681992
 62
7
  0
LINE
  6
BYLAYER
  8
0
 10
110.688281677026
 11
110.688281677026
 20
20.2699641681992
 21
36.2299641681991
 62
7
  0
LINE
  6
BYLAYER
  8
0
 10
110.688281677026
 11
110.394787701122
 20
36.2299641681991
 21
36.9383979031389
 62
7
  0
LINE
  6
BYLAYER
  8
0
 10
110.394787701122
 11
109.691414207146
 20
36.9383979031389
 21
37.2268316380788
 62
7
  0
LINE
  6
BYLAYER
  8
0
 10
109.691414207146
 11
109.691414207146
 20
37.2268316380788
 21
37.2268316380788
 62
7
  0
LINE
  6
BYLAYER
  8
0
 10
109.691414207146
 11
108.981293725219
 20
37.2268316380788
 21
36.9383979031389
 62
7
  0
LINE
  6
BYLAYER
  8
0
 10
108.981293725219
 11
108.692859990279
 20
36.9383979031389
 21
36.2299641681991
 62
7
  0
LINE
  6
BYLAYER
  8
0
 10
108.692859990279
 11
108.692859990279
 20
36.2299641681991
 21
20.2699641681992
 62
7
  0
LINE
  6
BYLAYER
  8
0
 10
108.692859990279
 11
108.981293725219
 20
20.2699641681992
 21
19.5649039272352
 62
7
  0
LINE
  6
BYLAYER
  8
0
 10
108.981293725219
 11
109.691414207146
 20
19.5649039272352
 21
19.2722533248256
 62
7
  0
LINE
  6
BYLAYER
  8
0
 10
109.691414207146
 11
109.691414207146
 20
19.2722533248256
 21
19.2722533248256
 62
7
  0
LINE
  6
BYLAYER
  8
0
 10
109.691414207146
 11
109.691414207146
 20
19.2722533248256
 21
19.2722533248256
 62
7
  0
LINE
  6
BYLAYER
  8
0
 10
104.763582881845
 11
105.466956375821
 20
19.2722533248256
 21
19.5649039272352
 62
7
  0
LINE
  6
BYLAYER
  8
0
 10
105.466956375821
 11
105.760450351725
 20
19.5649039272352
 21
20.2699641681992
 62
7
  0
LINE
  6
BYLAYER
  8
0
 10
105.760450351725
 11
105.760450351725
 20
20.2699641681992
 21
36.2299641681991
 62
7
  0
LINE
  6
BYLAYER
  8
0
 10
105.760450351725
 11
105.466956375821
 20
36.2299641681991
 21
36.9383979031389
 62
7
  0
LINE
  6
BYLAYER
  8
0
 10
105.466956375821
 11
104.763582881845
 20
36.9383979031389
 21
37.2268316380788
 62
7
  0
LINE
  6
BYLAYER
  8
0
 10
104.763582881845
 11
104.763582881845
 20
37.2268316380788
 21
37.2268316380788
 62
7
  0
LINE
  6
BYLAYER
  8
0
 10
104.763582881845
 11
104.053462399917
 20
37.2268316380788
 21
36.9383979031389
 62
7
  0
LINE
  6
BYLAYER
  8
0
 10
104.053462399917
 11
103.765028664978
 20
36.9383979031389
 21
36.2299641681991
 62
7
  0
LINE
  6
BYLAYER
  8
0
 10
103.765028664978
 11
103.765028664978
 20
36.2299641681991
 21
20.2699641681992
 62
7
  0
LINE
  6
BYLAYER
  8
0
 10
103.765028664978
 11
104.053462399917
 20
20.2699641681992
 21
19.5649039272352
 62
7
  0
LINE
  6
BYLAYER
  8
0
 10
104.053462399917
 11
104.763582881845
 20
19.5649039272352
 21
19.2722533248256
 62
7
  0
LINE
  6
BYLAYER
  8
0
 10
104.763582881845
 11
104.763582881845
 20
19.2722533248256
 21
19.2722533248256
 62
7
  0
LINE
  6
BYLAYER
  8
0
 10
104.763582881845
 11
104.763582881845
 20
19.2722533248256
 21
19.2722533248256
 62
7
  0
LINE
  6
BYLAYER
  8
0
 10
94.8193660143751
 11
95.524426255339
 20
19.1761087465125
 21
19.4687593489221
 62
7
  0
LINE
  6
BYLAYER
  8
0
 10
95.524426255339
 11
95.8179202312427
 20
19.4687593489221
 21
20.1738195898859
 62
7
  0
LINE
  6
BYLAYER
  8
0
 10
95.8179202312427
 11
95.8179202312427
 20
20.1738195898859
 21
36.1380364573558
 62
7
  0
LINE
  6
BYLAYER
  8
0
 10
95.8179202312427
 11
95.524426255339
 20
36.1380364573558
 21
36.8473135657895
 62
7
  0
LINE
  6
BYLAYER
  8
0
 10
95.524426255339
 11
94.8193660143751
 20
36.8473135657895
 21
37.1349039272353
 62
7
  0
LINE
  6
BYLAYER
  8
0
 10
94.8193660143751
 11
94.8193660143751
 20
37.1349039272353
 21
37.1349039272353
 62
7
  0
LINE
  6
BYLAYER
  8
0
 10
94.8193660143751
 11
94.1109322794354
 20
37.1349039272353
 21
36.8473135657895
 62
7
  0
LINE
  6
BYLAYER
  8
0
 10
94.1109322794354
 11
93.8224985444957
 20
36.8473135657895
 21
36.1380364573558
 62
7
  0
LINE
  6
BYLAYER
  8
0
 10
93.8224985444957
 11
93.8224985444957
 20
36.1380364573558
 21
20.1738195898859
 62
7
  0
LINE
  6
BYLAYER
  8
0
 10
93.8224985444957
 11
94.1109322794354
 20
20.1738195898859
 21
19.4687593489221
 62
7
  0
LINE
  6
BYLAYER
  8
0
 10
94.1109322794354
 11
94.8193660143751
 20
19.4687593489221
 21
19.1761087465125
 62
7
  0
LINE
  6
BYLAYER
  8
0
 10
94.8193660143751
 11
94.8193660143751
 20
19.1761087465125
 21
19.1761087465125
 62
7
  0
LINE
  6
BYLAYER
  8
0
 10
94.8193660143751
 11
94.8193660143751
 20
19.1761087465125
 21
19.1761087465125
 62
7
  0
LINE
  6
BYLAYER
  8
0
 10
89.8004503517246
 11
90.5055105926884
 20
19.1761087465125
 21
19.4687593489221
 62
7
  0
LINE
  6
BYLAYER
  8
0
 10
90.5055105926884
 11
90.8032214360619
 20
19.4687593489221
 21
20.1738195898859
 62
7
  0
LINE
  6
BYLAYER
  8
0
 10
90.8032214360619
 11
90.8032214360619
 20
20.1738195898859
 21
36.1380364573558
 62
7
  0
LINE
  6
BYLAYER
  8
0
 10
90.8032214360619
 11
90.5055105926884
 20
36.1380364573558
 21
36.8473135657895
 62
7
  0
LINE
  6
BYLAYER
  8
0
 10
90.5055105926884
 11
89.8004503517246
 20
36.8473135657895
 21
37.1349039272353
 62
7
  0
LINE
  6
BYLAYER
  8
0
 10
89.8004503517246
 11
89.8004503517246
 20
37.1349039272353
 21
37.1349039272353
 62
7
  0
LINE
  6
BYLAYER
  8
0
 10
89.8004503517246
 11
89.0962334842548
 20
37.1349039272353
 21
36.8473135657895
 62
7
  0
LINE
  6
BYLAYER
  8
0
 10
89.0962334842548
 11
88.8035828818451
 20
36.8473135657895
 21
36.1380364573558
 62
7
  0
LINE
  6
BYLAYER
  8
0
 10
88.8035828818451
 11
88.8035828818451
 20
36.1380364573558
 21
20.1738195898859
 62
7
  0
LINE
  6
BYLAYER
  8
0
 10
88.8035828818451
 11
89.0962334842548
 20
20.1738195898859
 21
19.4687593489221
 62
7
  0
LINE
  6
BYLAYER
  8
0
 10
89.0962334842548
 11
89.8004503517246
 20
19.4687593489221
 21
19.1761087465125
 62
7
  0
LINE
  6
BYLAYER
  8
0
 10
89.8004503517246
 11
89.8004503517246
 20
19.1761087465125
 21
19.1761087465125
 62
7
  0
LINE
  6
BYLAYER
  8
0
 10
89.8004503517246
 11
89.8004503517246
 20
19.1761087465125
 21
19.1761087465125
 62
7
  0
LINE
  6
BYLAYER
  8
0
 10
69.8512937252186
 11
70.5563539661825
 20
-2.7777466751744
 21
-2.48425269927066
 62
7
  0
LINE
  6
BYLAYER
  8
0
 10
70.5563539661825
 11
70.8490045685921
 20
-2.48425269927066
 21
-1.78087920529487
 62
7
  0
LINE
  6
BYLAYER
  8
0
 10
70.8490045685921
 11
70.8490045685921
 20
-1.78087920529487
 21
14.1791207947051
 62
7
  0
LINE
  6
BYLAYER
  8
0
 10
70.8490045685921
 11
70.5563539661825
 20
14.1791207947051
 21
14.8892412766328
 62
7
  0
LINE
  6
BYLAYER
  8
0
 10
70.5563539661825
 11
69.8512937252186
 20
14.8892412766328
 21
15.1768316380786
 62
7
  0
LINE
  6
BYLAYER
  8
0
 10
69.8512937252186
 11
69.8512937252186
 20
15.1768316380786
 21
15.1768316380786
 62
7
  0
LINE
  6
BYLAYER
  8
0
 10
69.8512937252186
 11
69.1411732432909
 20
15.1768316380786
 21
14.8892412766328
 62
7
  0
LINE
  6
BYLAYER
  8
0
 10
69.1411732432909
 11
68.8527395083511
 20
14.8892412766328
 21
14.1791207947051
 62
7
  0
LINE
  6
BYLAYER
  8
0
 10
68.8527395083511
 11
68.8527395083511
 20
14.1791207947051
 21
-1.78087920529487
 62
7
  0
LINE
  6
BYLAYER
  8
0
 10
68.8527395083511
 11
69.1411732432909
 20
-1.78087920529487
 21
-2.48425269927066
 62
7
  0
LINE
  6
BYLAYER
  8
0
 10
69.1411732432909
 11
69.8512937252186
 20
-2.48425269927066
 21
-2.7777466751744
 62
7
  0
LINE
  6
BYLAYER
  8
0
 10
69.8512937252186
 11
69.8512937252186
 20
-2.7777466751744
 21
-2.7777466751744
 62
7
  0
LINE
  6
BYLAYER
  8
0
 10
69.8512937252186
 11
69.8512937252186
 20
-2.7777466751744
 21
-2.7777466751744
 62
7
  0
LINE
  6
BYLAYER
  8
0
 10
79.7938238457005
 11
80.4988840866643
 20
-2.7777466751744
 21
-2.48425269927066
 62
7
  0
LINE
  6
BYLAYER
  8
0
 10
80.4988840866643
 11
80.7915346890739
 20
-2.48425269927066
 21
-1.78087920529487
 62
7
  0
LINE
  6
BYLAYER
  8
0
 10
80.7915346890739
 11
80.7915346890739
 20
-1.78087920529487
 21
14.1791207947051
 62
7
  0
LINE
  6
BYLAYER
  8
0
 10
80.7915346890739
 11
80.4988840866643
 20
14.1791207947051
 21
14.8892412766328
 62
7
  0
LINE
  6
BYLAYER
  8
0
 10
80.4988840866643
 11
79.7938238457005
 20
14.8892412766328
 21
15.1768316380786
 62
7
  0
LINE
  6
BYLAYER
  8
0
 10
79.7938238457005
 11
79.7938238457005
 20
15.1768316380786
 21
15.1768316380786
 62
7
  0
LINE
  6
BYLAYER
  8
0
 10
79.7938238457005
 11
79.0896069782306
 20
15.1768316380786
 21
14.8892412766328
 62
7
  0
LINE
  6
BYLAYER
  8
0
 10
79.0896069782306
 11
78.7969563758209
 20
14.8892412766328
 21
14.1791207947051
 62
7
  0
LINE
  6
BYLAYER
  8
0
 10
78.7969563758209
 11
78.7969563758209
 20
14.1791207947051
 21
-1.78087920529487
 62
7
  0
LINE
  6
BYLAYER
  8
0
 10
78.7969563758209
 11
79.0896069782306
 20
-1.78087920529487
 21
-2.48425269927066
 62
7
  0
LINE
  6
BYLAYER
  8
0
 10
79.0896069782306
 11
79.7938238457005
 20
-2.48425269927066
 21
-2.7777466751744
 62
7
  0
LINE
  6
BYLAYER
  8
0
 10
79.7938238457005
 11
79.7938238457005
 20
-2.7777466751744
 21
-2.7777466751744
 62
7
  0
LINE
  6
BYLAYER
  8
0
 10
79.7938238457005
 11
79.7938238457005
 20
-2.7777466751744
 21
-2.7777466751744
 62
7
  0
LINE
  6
BYLAYER
  8
0
 10
74.7791250505198
 11
75.4841852914837
 20
-2.7777466751744
 21
-2.48425269927066
 62
7
  0
LINE
  6
BYLAYER
  8
0
 10
75.4841852914837
 11
75.7768358938933
 20
-2.48425269927066
 21
-1.78087920529487
 62
7
  0
LINE
  6
BYLAYER
  8
0
 10
75.7768358938933
 11
75.7768358938933
 20
-1.78087920529487
 21
14.1791207947051
 62
7
  0
LINE
  6
BYLAYER
  8
0
 10
75.7768358938933
 11
75.4841852914837
 20
14.1791207947051
 21
14.8892412766328
 62
7
  0
LINE
  6
BYLAYER
  8
0
 10
75.4841852914837
 11
74.7791250505198
 20
14.8892412766328
 21
15.1768316380786
 62
7
  0
LINE
  6
BYLAYER
  8
0
 10
74.7791250505198
 11
74.7791250505198
 20
15.1768316380786
 21
15.1768316380786
 62
7
  0
LINE
  6
BYLAYER
  8
0
 10
74.7791250505198
 11
74.07069131558
 20
15.1768316380786
 21
14.8892412766328
 62
7
  0
LINE
  6
BYLAYER
  8
0
 10
74.07069131558
 11
73.7814142071462
 20
14.8892412766328
 21
14.1791207947051
 62
7
  0
LINE
  6
BYLAYER
  8
0
 10
73.7814142071462
 11
73.7814142071462
 20
14.1791207947051
 21
-1.78087920529487
 62
7
  0
LINE
  6
BYLAYER
  8
0
 10
73.7814142071462
 11
74.07069131558
 20
-1.78087920529487
 21
-2.48425269927066
 62
7
  0
LINE
  6
BYLAYER
  8
0
 10
74.07069131558
 11
74.7791250505198
 20
-2.48425269927066
 21
-2.7777466751744
 62
7
  0
LINE
  6
BYLAYER
  8
0
 10
74.7791250505198
 11
74.7791250505198
 20
-2.7777466751744
 21
-2.7777466751744
 62
7
  0
LINE
  6
BYLAYER
  8
0
 10
74.7791250505198
 11
74.7791250505198
 20
-2.7777466751744
 21
-2.7777466751744
 62
7
  0
LINE
  6
BYLAYER
  8
0
 10
84.8962334842547
 11
85.5996069782306
 20
-2.8688310125238
 21
-2.57618041011415
 62
7
  0
LINE
  6
BYLAYER
  8
0
 10
85.5996069782306
 11
85.8973178216041
 20
-2.57618041011415
 21
-1.87196354264427
 62
7
  0
LINE
  6
BYLAYER
  8
0
 10
85.8973178216041
 11
85.8973178216041
 20
-1.87196354264427
 21
14.0922533248257
 62
7
  0
LINE
  6
BYLAYER
  8
0
 10
85.8973178216041
 11
85.5996069782306
 20
14.0922533248257
 21
14.8023738067533
 62
7
  0
LINE
  6
BYLAYER
  8
0
 10
85.5996069782306
 11
84.8962334842547
 20
14.8023738067533
 21
15.0899641681991
 62
7
  0
LINE
  6
BYLAYER
  8
0
 10
84.8962334842547
 11
84.8962334842547
 20
15.0899641681991
 21
15.0899641681991
 62
7
  0
LINE
  6
BYLAYER
  8
0
 10
84.8962334842547
 11
84.1911732432909
 20
15.0899641681991
 21
14.8023738067533
 62
7
  0
LINE
  6
BYLAYER
  8
0
 10
84.1911732432909
 11
83.8976792673872
 20
14.8023738067533
 21
14.0922533248257
 62
7
  0
LINE
  6
BYLAYER
  8
0
 10
83.8976792673872
 11
83.8976792673872
 20
14.0922533248257
 21
-1.87196354264427
 62
7
  0
LINE
  6
BYLAYER
  8
0
 10
83.8976792673872
 11
84.1911732432909
 20
-1.87196354264427
 21
-2.57618041011415
 62
7
  0
LINE
  6
BYLAYER
  8
0
 10
84.1911732432909
 11
84.8962334842547
 20
-2.57618041011415
 21
-2.8688310125238
 62
7
  0
LINE
  6
BYLAYER
  8
0
 10
84.8962334842547
 11
84.8962334842547
 20
-2.8688310125238
 21
-2.8688310125238
 62
7
  0
LINE
  6
BYLAYER
  8
0
 10
84.8962334842547
 11
84.8962334842547
 20
-2.8688310125238
 21
-2.8688310125238
 62
7
  0
LINE
  6
BYLAYER
  8
0
 10
-74.8977424193597
 11
-74.1935255518898
 20
19.3085183850667
 21
19.6011689874763
 62
7
  0
LINE
  6
BYLAYER
  8
0
 10
-74.1935255518898
 11
-73.9000315759862
 20
19.6011689874763
 21
20.3062292284401
 62
7
  0
LINE
  6
BYLAYER
  8
0
 10
-73.9000315759862
 11
-73.9000315759862
 20
20.3062292284401
 21
36.2662292284401
 62
7
  0
LINE
  6
BYLAYER
  8
0
 10
-73.9000315759862
 11
-74.1935255518898
 20
36.2662292284401
 21
36.9746629633798
 62
7
  0
LINE
  6
BYLAYER
  8
0
 10
-74.1935255518898
 11
-74.8977424193597
 20
36.9746629633798
 21
37.2639400718136
 62
7
  0
LINE
  6
BYLAYER
  8
0
 10
-74.8977424193597
 11
-74.8977424193597
 20
37.2639400718136
 21
37.2639400718136
 62
7
  0
LINE
  6
BYLAYER
  8
0
 10
-74.8977424193597
 11
-75.6028026603236
 20
37.2639400718136
 21
36.9746629633798
 62
7
  0
LINE
  6
BYLAYER
  8
0
 10
-75.6028026603236
 11
-75.8954532627332
 20
36.9746629633798
 21
36.2662292284401
 62
7
  0
LINE
  6
BYLAYER
  8
0
 10
-75.8954532627332
 11
-75.8954532627332
 20
36.2662292284401
 21
20.3062292284401
 62
7
  0
LINE
  6
BYLAYER
  8
0
 10
-75.8954532627332
 11
-75.6028026603236
 20
20.3062292284401
 21
19.6011689874763
 62
7
  0
LINE
  6
BYLAYER
  8
0
 10
-75.6028026603236
 11
-74.8977424193597
 20
19.6011689874763
 21
19.3085183850667
 62
7
  0
LINE
  6
BYLAYER
  8
0
 10
-74.8977424193597
 11
-74.8977424193597
 20
19.3085183850667
 21
19.3085183850667
 62
7
  0
LINE
  6
BYLAYER
  8
0
 10
-74.8977424193597
 11
-74.8977424193597
 20
19.3085183850667
 21
19.3085183850667
 62
7
  0
LINE
  6
BYLAYER
  8
0
 10
-69.850995431408
 11
-69.145935190444
 20
19.3085183850667
 21
19.6011689874763
 62
7
  0
LINE
  6
BYLAYER
  8
0
 10
-69.145935190444
 11
-68.8532845880344
 20
19.6011689874763
 21
20.3062292284401
 62
7
  0
LINE
  6
BYLAYER
  8
0
 10
-68.8532845880344
 11
-68.8532845880344
 20
20.3062292284401
 21
36.2662292284401
 62
7
  0
LINE
  6
BYLAYER
  8
0
 10
-68.8532845880344
 11
-69.145935190444
 20
36.2662292284401
 21
36.9746629633798
 62
7
  0
LINE
  6
BYLAYER
  8
0
 10
-69.145935190444
 11
-69.850995431408
 20
36.9746629633798
 21
37.2639400718136
 62
7
  0
LINE
  6
BYLAYER
  8
0
 10
-69.850995431408
 11
-69.850995431408
 20
37.2639400718136
 21
37.2639400718136
 62
7
  0
LINE
  6
BYLAYER
  8
0
 10
-69.850995431408
 11
-70.5602725398417
 20
37.2639400718136
 21
36.9746629633798
 62
7
  0
LINE
  6
BYLAYER
  8
0
 10
-70.5602725398417
 11
-70.8487062747814
 20
36.9746629633798
 21
36.2662292284401
 62
7
  0
LINE
  6
BYLAYER
  8
0
 10
-70.8487062747814
 11
-70.8487062747814
 20
36.2662292284401
 21
20.3062292284401
 62
7
  0
LINE
  6
BYLAYER
  8
0
 10
-70.8487062747814
 11
-70.5602725398417
 20
20.3062292284401
 21
19.6011689874763
 62
7
  0
LINE
  6
BYLAYER
  8
0
 10
-70.5602725398417
 11
-69.850995431408
 20
19.6011689874763
 21
19.3085183850667
 62
7
  0
LINE
  6
BYLAYER
  8
0
 10
-69.850995431408
 11
-69.850995431408
 20
19.3085183850667
 21
19.3085183850667
 62
7
  0
LINE
  6
BYLAYER
  8
0
 10
-69.850995431408
 11
-69.850995431408
 20
19.3085183850667
 21
19.3085183850667
 62
7
  0
LINE
  6
BYLAYER
  8
0
 10
-59.9405135036971
 11
-59.2354532627332
 20
19.2494822404884
 21
19.5429762163919
 62
7
  0
LINE
  6
BYLAYER
  8
0
 10
-59.2354532627332
 11
-58.9385857928537
 20
19.5429762163919
 21
20.2463497103679
 62
7
  0
LINE
  6
BYLAYER
  8
0
 10
-58.9385857928537
 11
-58.9385857928537
 20
20.2463497103679
 21
36.2105665778377
 62
7
  0
LINE
  6
BYLAYER
  8
0
 10
-58.9385857928537
 11
-59.2354532627332
 20
36.2105665778377
 21
36.9164701922955
 62
7
  0
LINE
  6
BYLAYER
  8
0
 10
-59.2354532627332
 11
-59.9405135036971
 20
36.9164701922955
 21
37.2091207947052
 62
7
  0
LINE
  6
BYLAYER
  8
0
 10
-59.9405135036971
 11
-59.9405135036971
 20
37.2091207947052
 21
37.2091207947052
 62
7
  0
LINE
  6
BYLAYER
  8
0
 10
-59.9405135036971
 11
-60.6447303711669
 20
37.2091207947052
 21
36.9164701922955
 62
7
  0
LINE
  6
BYLAYER
  8
0
 10
-60.6447303711669
 11
-60.9373809735767
 20
36.9164701922955
 21
36.2105665778377
 62
7
  0
LINE
  6
BYLAYER
  8
0
 10
-60.9373809735767
 11
-60.9373809735767
 20
36.2105665778377
 21
20.2463497103679
 62
7
  0
LINE
  6
BYLAYER
  8
0
 10
-60.9373809735767
 11
-60.6447303711669
 20
20.2463497103679
 21
19.5429762163919
 62
7
  0
LINE
  6
BYLAYER
  8
0
 10
-60.6447303711669
 11
-59.9405135036971
 20
19.5429762163919
 21
19.2494822404884
 62
7
  0
LINE
  6
BYLAYER
  8
0
 10
-59.9405135036971
 11
-59.9405135036971
 20
19.2494822404884
 21
19.2494822404884
 62
7
  0
LINE
  6
BYLAYER
  8
0
 10
-59.9405135036971
 11
-59.9405135036971
 20
19.2494822404884
 21
19.2494822404884
 62
7
  0
LINE
  6
BYLAYER
  8
0
 10
-54.9528026603236
 11
-54.2485857928538
 20
-2.80895149445149
 21
-2.5163008920419
 62
7
  0
LINE
  6
BYLAYER
  8
0
 10
-54.2485857928538
 11
-53.9550918169501
 20
-2.5163008920419
 21
-1.81208402457202
 62
7
  0
LINE
  6
BYLAYER
  8
0
 10
-53.9550918169501
 11
-53.9550918169501
 20
-1.81208402457202
 21
14.152132842898
 62
7
  0
LINE
  6
BYLAYER
  8
0
 10
-53.9550918169501
 11
-54.2485857928538
 20
14.152132842898
 21
14.8571930838618
 62
7
  0
LINE
  6
BYLAYER
  8
0
 10
-54.2485857928538
 11
-54.9528026603236
 20
14.8571930838618
 21
15.1498436862715
 62
7
  0
LINE
  6
BYLAYER
  8
0
 10
-54.9528026603236
 11
-54.9528026603236
 20
15.1498436862715
 21
15.1498436862715
 62
7
  0
LINE
  6
BYLAYER
  8
0
 10
-54.9528026603236
 11
-55.6578629012875
 20
15.1498436862715
 21
14.8571930838618
 62
7
  0
LINE
  6
BYLAYER
  8
0
 10
-55.6578629012875
 11
-55.9505135036971
 20
14.8571930838618
 21
14.152132842898
 62
7
  0
LINE
  6
BYLAYER
  8
0
 10
-55.9505135036971
 11
-55.9505135036971
 20
14.152132842898
 21
-1.81208402457202
 62
7
  0
LINE
  6
BYLAYER
  8
0
 10
-55.9505135036971
 11
-55.6578629012875
 20
-1.81208402457202
 21
-2.5163008920419
 62
7
  0
LINE
  6
BYLAYER
  8
0
 10
-55.6578629012875
 11
-54.9528026603236
 20
-2.5163008920419
 21
-2.80895149445149
 62
7
  0
LINE
  6
BYLAYER
  8
0
 10
-54.9528026603236
 11
-54.9528026603236
 20
-2.80895149445149
 21
-2.80895149445149
 62
7
  0
LINE
  6
BYLAYER
  8
0
 10
-54.9528026603236
 11
-54.9528026603236
 20
-2.80895149445149
 21
-2.80895149445149
 62
7
  0
LINE
  6
BYLAYER
  8
0
 10
-59.8215978410465
 11
-59.1165376000827
 20
-2.80895149445149
 21
-2.5163008920419
 62
7
  0
LINE
  6
BYLAYER
  8
0
 10
-59.1165376000827
 11
-58.823886997673
 20
-2.5163008920419
 21
-1.81208402457202
 62
7
  0
LINE
  6
BYLAYER
  8
0
 10
-58.823886997673
 11
-58.823886997673
 20
-1.81208402457202
 21
14.152132842898
 62
7
  0
LINE
  6
BYLAYER
  8
0
 10
-58.823886997673
 11
-59.1165376000827
 20
14.152132842898
 21
14.8571930838618
 62
7
  0
LINE
  6
BYLAYER
  8
0
 10
-59.1165376000827
 11
-59.8215978410465
 20
14.8571930838618
 21
15.1498436862715
 62
7
  0
LINE
  6
BYLAYER
  8
0
 10
-59.8215978410465
 11
-59.8215978410465
 20
15.1498436862715
 21
15.1498436862715
 62
7
  0
LINE
  6
BYLAYER
  8
0
 10
-59.8215978410465
 11
-60.5258147085164
 20
15.1498436862715
 21
14.8571930838618
 62
7
  0
LINE
  6
BYLAYER
  8
0
 10
-60.5258147085164
 11
-60.8184653109261
 20
14.8571930838618
 21
14.152132842898
 62
7
  0
LINE
  6
BYLAYER
  8
0
 10
-60.8184653109261
 11
-60.8184653109261
 20
14.152132842898
 21
-1.81208402457202
 62
7
  0
LINE
  6
BYLAYER
  8
0
 10
-60.8184653109261
 11
-60.5258147085164
 20
-1.81208402457202
 21
-2.5163008920419
 62
7
  0
LINE
  6
BYLAYER
  8
0
 10
-60.5258147085164
 11
-59.8215978410465
 20
-2.5163008920419
 21
-2.80895149445149
 62
7
  0
LINE
  6
BYLAYER
  8
0
 10
-59.8215978410465
 11
-59.8215978410465
 20
-2.80895149445149
 21
-2.80895149445149
 62
7
  0
LINE
  6
BYLAYER
  8
0
 10
-59.8215978410465
 11
-59.8215978410465
 20
-2.80895149445149
 21
-2.80895149445149
 62
7
  0
LINE
  6
BYLAYER
  8
0
 10
95.736113002327
 11
95.736113002327
 20
-5.00172257878882
 21
-6.00365028963216
 62
7
  0
LINE
  6
BYLAYER
  8
0
 10
95.736113002327
 11
95.4426190264235
 20
-6.00365028963216
 21
-6.70871053059597
 62
7
  0
LINE
  6
BYLAYER
  8
0
 10
95.4426190264235
 11
94.7375587854596
 20
-6.70871053059597
 21
-7.00136113300567
 62
7
  0
LINE
  6
BYLAYER
  8
0
 10
94.7375587854596
 11
94.7375587854596
 20
-7.00136113300567
 21
-7.00136113300567
 62
7
  0
LINE
  6
BYLAYER
  8
0
 10
94.7375587854596
 11
94.0324985444956
 20
-7.00136113300567
 21
-6.70871053059597
 62
7
  0
LINE
  6
BYLAYER
  8
0
 10
94.0324985444956
 11
93.739847942086
 20
-6.70871053059597
 21
-6.00365028963216
 62
7
  0
LINE
  6
BYLAYER
  8
0
 10
93.739847942086
 11
93.739847942086
 20
-6.00365028963216
 21
-5.00172257878882
 62
7
  0
LINE
  6
BYLAYER
  8
0
 10
90.7484021589536
 11
90.7484021589536
 20
-5.00172257878882
 21
-6.00365028963216
 62
7
  0
LINE
  6
BYLAYER
  8
0
 10
90.7484021589536
 11
90.4549081830498
 20
-6.00365028963216
 21
-6.70871053059597
 62
7
  0
LINE
  6
BYLAYER
  8
0
 10
90.4549081830498
 11
89.749847942086
 20
-6.70871053059597
 21
-7.00136113300567
 62
7
  0
LINE
  6
BYLAYER
  8
0
 10
89.749847942086
 11
89.749847942086
 20
-7.00136113300567
 21
-7.00136113300567
 62
7
  0
LINE
  6
BYLAYER
  8
0
 10
89.749847942086
 11
89.0464744481101
 20
-7.00136113300567
 21
-6.70871053059597
 62
7
  0
LINE
  6
BYLAYER
  8
0
 10
89.0464744481101
 11
88.7529804722066
 20
-6.70871053059597
 21
-6.00365028963216
 62
7
  0
LINE
  6
BYLAYER
  8
0
 10
88.7529804722066
 11
88.7529804722066
 20
-6.00365028963216
 21
-5.00172257878882
 62
7
  0
LINE
  6
BYLAYER
  8
0
 10
85.8205708336522
 11
85.8205708336522
 20
-5.00172257878882
 21
-6.00365028963216
 62
7
  0
LINE
  6
BYLAYER
  8
0
 10
85.8205708336522
 11
85.5270768577487
 20
-6.00365028963216
 21
-6.70871053059597
 62
7
  0
LINE
  6
BYLAYER
  8
0
 10
85.5270768577487
 11
84.8220166167849
 20
-6.70871053059597
 21
-7.00136113300567
 62
7
  0
LINE
  6
BYLAYER
  8
0
 10
84.8220166167849
 11
84.8220166167849
 20
-7.00136113300567
 21
-7.00136113300567
 62
7
  0
LINE
  6
BYLAYER
  8
0
 10
84.8220166167849
 11
84.1186431228089
 20
-7.00136113300567
 21
-6.70871053059597
 62
7
  0
LINE
  6
BYLAYER
  8
0
 10
84.1186431228089
 11
83.8251491469054
 20
-6.70871053059597
 21
-6.00365028963216
 62
7
  0
LINE
  6
BYLAYER
  8
0
 10
83.8251491469054
 11
83.8251491469054
 20
-6.00365028963216
 21
-5.00172257878882
 62
7
  0
LINE
  6
BYLAYER
  8
0
 10
80.7771973396764
 11
80.7771973396764
 20
-5.00172257878882
 21
-6.00365028963216
 62
7
  0
LINE
  6
BYLAYER
  8
0
 10
80.7771973396764
 11
80.4845467372667
 20
-6.00365028963216
 21
-6.70871053059597
 62
7
  0
LINE
  6
BYLAYER
  8
0
 10
80.4845467372667
 11
79.7803298697969
 20
-6.70871053059597
 21
-7.00136113300567
 62
7
  0
LINE
  6
BYLAYER
  8
0
 10
79.7803298697969
 11
79.7803298697969
 20
-7.00136113300567
 21
-7.00136113300567
 62
7
  0
LINE
  6
BYLAYER
  8
0
 10
79.7803298697969
 11
79.0710527613631
 20
-7.00136113300567
 21
-6.70871053059597
 62
7
  0
LINE
  6
BYLAYER
  8
0
 10
79.0710527613631
 11
78.7826190264233
 20
-6.70871053059597
 21
-6.00365028963216
 62
7
  0
LINE
  6
BYLAYER
  8
0
 10
78.7826190264233
 11
78.7826190264233
 20
-6.00365028963216
 21
-5.00172257878882
 62
7
  0
LINE
  6
BYLAYER
  8
0
 10
75.7903298697968
 11
75.7903298697968
 20
-5.00172257878882
 21
-6.00365028963216
 62
7
  0
LINE
  6
BYLAYER
  8
0
 10
75.7903298697968
 11
75.4968358938932
 20
-6.00365028963216
 21
-6.70871053059597
 62
7
  0
LINE
  6
BYLAYER
  8
0
 10
75.4968358938932
 11
74.7934623999173
 20
-6.70871053059597
 21
-7.00136113300567
 62
7
  0
LINE
  6
BYLAYER
  8
0
 10
74.7934623999173
 11
74.7934623999173
 20
-7.00136113300567
 21
-7.00136113300567
 62
7
  0
LINE
  6
BYLAYER
  8
0
 10
74.7934623999173
 11
74.0875587854596
 20
-7.00136113300567
 21
-6.70871053059597
 62
7
  0
LINE
  6
BYLAYER
  8
0
 10
74.0875587854596
 11
73.7949081830499
 20
-6.70871053059597
 21
-6.00365028963216
 62
7
  0
LINE
  6
BYLAYER
  8
0
 10
73.7949081830499
 11
73.7949081830499
 20
-6.00365028963216
 21
-5.00172257878882
 62
7
  0
LINE
  6
BYLAYER
  8
0
 10
70.8616551710017
 11
70.8616551710017
 20
-5.00172257878882
 21
-6.00365028963216
 62
7
  0
LINE
  6
BYLAYER
  8
0
 10
70.8616551710017
 11
70.5690045685921
 20
-6.00365028963216
 21
-6.70871053059597
 62
7
  0
LINE
  6
BYLAYER
  8
0
 10
70.5690045685921
 11
69.8656310746161
 20
-6.70871053059597
 21
-7.00136113300567
 62
7
  0
LINE
  6
BYLAYER
  8
0
 10
69.8656310746161
 11
69.8656310746161
 20
-7.00136113300567
 21
-7.00136113300567
 62
7
  0
LINE
  6
BYLAYER
  8
0
 10
69.8656310746161
 11
69.1597274601584
 20
-7.00136113300567
 21
-6.70871053059597
 62
7
  0
LINE
  6
BYLAYER
  8
0
 10
69.1597274601584
 11
68.8670768577486
 20
-6.70871053059597
 21
-6.00365028963216
 62
7
  0
LINE
  6
BYLAYER
  8
0
 10
68.8670768577486
 11
68.8670768577486
 20
-6.00365028963216
 21
-5.00172257878882
 62
7
  0
LINE
  6
BYLAYER
  8
0
 10
65.8208117975078
 11
65.8208117975078
 20
-5.00172257878882
 21
-6.00365028963216
 62
7
  0
LINE
  6
BYLAYER
  8
0
 10
65.8208117975078
 11
65.5273178216041
 20
-6.00365028963216
 21
-6.70871053059597
 62
7
  0
LINE
  6
BYLAYER
  8
0
 10
65.5273178216041
 11
64.8222575806402
 20
-6.70871053059597
 21
-7.00136113300567
 62
7
  0
LINE
  6
BYLAYER
  8
0
 10
64.8222575806402
 11
64.8222575806402
 20
-7.00136113300567
 21
-7.00136113300567
 62
7
  0
LINE
  6
BYLAYER
  8
0
 10
64.8222575806402
 11
64.1138238457004
 20
-7.00136113300567
 21
-6.70871053059597
 62
7
  0
LINE
  6
BYLAYER
  8
0
 10
64.1138238457004
 11
63.8211732432908
 20
-6.70871053059597
 21
-6.00365028963216
 62
7
  0
LINE
  6
BYLAYER
  8
0
 10
63.8211732432908
 11
63.8211732432908
 20
-6.00365028963216
 21
-5.00172257878882
 62
7
  0
LINE
  6
BYLAYER
  8
0
 10
60.8331009541342
 11
60.8331009541342
 20
-5.00172257878882
 21
-6.00365028963216
 62
7
  0
LINE
  6
BYLAYER
  8
0
 10
60.8331009541342
 11
60.5404503517245
 20
-6.00365028963216
 21
-6.70871053059597
 62
7
  0
LINE
  6
BYLAYER
  8
0
 10
60.5404503517245
 11
59.8345467372667
 20
-6.70871053059597
 21
-7.00136113300567
 62
7
  0
LINE
  6
BYLAYER
  8
0
 10
59.8345467372667
 11
59.8345467372667
 20
-7.00136113300567
 21
-7.00136113300567
 62
7
  0
LINE
  6
BYLAYER
  8
0
 10
59.8345467372667
 11
59.126113002327
 20
-7.00136113300567
 21
-6.70871053059597
 62
7
  0
LINE
  6
BYLAYER
  8
0
 10
59.126113002327
 11
58.8385226408812
 20
-6.70871053059597
 21
-6.00365028963216
 62
7
  0
LINE
  6
BYLAYER
  8
0
 10
58.8385226408812
 11
58.8385226408812
 20
-6.00365028963216
 21
-5.00172257878882
 62
7
  0
LINE
  6
BYLAYER
  8
0
 10
55.905269628833
 11
55.905269628833
 20
-5.00172257878882
 21
-6.00365028963216
 62
7
  0
LINE
  6
BYLAYER
  8
0
 10
55.905269628833
 11
55.6117756529295
 20
-6.00365028963216
 21
-6.70871053059597
 62
7
  0
LINE
  6
BYLAYER
  8
0
 10
55.6117756529295
 11
54.9067154119655
 20
-6.70871053059597
 21
-7.00136113300567
 62
7
  0
LINE
  6
BYLAYER
  8
0
 10
54.9067154119655
 11
54.9067154119655
 20
-7.00136113300567
 21
-7.00136113300567
 62
7
  0
LINE
  6
BYLAYER
  8
0
 10
54.9067154119655
 11
54.2033419179896
 20
-7.00136113300567
 21
-6.70871053059597
 62
7
  0
LINE
  6
BYLAYER
  8
0
 10
54.2033419179896
 11
53.909847942086
 20
-6.70871053059597
 21
-6.00365028963216
 62
7
  0
LINE
  6
BYLAYER
  8
0
 10
53.909847942086
 11
53.909847942086
 20
-6.00365028963216
 21
-5.00172257878882
 62
7
  0
LINE
  6
BYLAYER
  8
0
 10
50.8576792673872
 11
50.8576792673872
 20
-5.00172257878882
 21
-6.00365028963216
 62
7
  0
LINE
  6
BYLAYER
  8
0
 10
50.8576792673872
 11
50.5650286649776
 20
-6.00365028963216
 21
-6.70871053059597
 62
7
  0
LINE
  6
BYLAYER
  8
0
 10
50.5650286649776
 11
49.8608117975077
 20
-6.70871053059597
 21
-7.00136113300567
 62
7
  0
LINE
  6
BYLAYER
  8
0
 10
49.8608117975077
 11
49.8608117975077
 20
-7.00136113300567
 21
-7.00136113300567
 62
7
  0
LINE
  6
BYLAYER
  8
0
 10
49.8608117975077
 11
49.1557515565439
 20
-7.00136113300567
 21
-6.70871053059597
 62
7
  0
LINE
  6
BYLAYER
  8
0
 10
49.1557515565439
 11
48.8631009541342
 20
-6.70871053059597
 21
-6.00365028963216
 62
7
  0
LINE
  6
BYLAYER
  8
0
 10
48.8631009541342
 11
48.8631009541342
 20
-6.00365028963216
 21
-5.00172257878882
 62
7
  0
LINE
  6
BYLAYER
  8
0
 10
45.8750286649776
 11
45.8750286649776
 20
-5.00172257878882
 21
-6.00365028963216
 62
7
  0
LINE
  6
BYLAYER
  8
0
 10
45.8750286649776
 11
45.5815346890739
 20
-6.00365028963216
 21
-6.70871053059597
 62
7
  0
LINE
  6
BYLAYER
  8
0
 10
45.5815346890739
 11
44.878161195098
 20
-6.70871053059597
 21
-7.00136113300567
 62
7
  0
LINE
  6
BYLAYER
  8
0
 10
44.878161195098
 11
44.878161195098
 20
-7.00136113300567
 21
-7.00136113300567
 62
7
  0
LINE
  6
BYLAYER
  8
0
 10
44.878161195098
 11
44.1680407131703
 20
-7.00136113300567
 21
-6.70871053059597
 62
7
  0
LINE
  6
BYLAYER
  8
0
 10
44.1680407131703
 11
43.8753901107607
 20
-6.70871053059597
 21
-6.00365028963216
 62
7
  0
LINE
  6
BYLAYER
  8
0
 10
43.8753901107607
 11
43.8753901107607
 20
-6.00365028963216
 21
-5.00172257878882
 62
7
  0
LINE
  6
BYLAYER
  8
0
 10
40.9471973396764
 11
40.9471973396764
 20
-5.00172257878882
 21
-6.00365028963216
 62
7
  0
LINE
  6
BYLAYER
  8
0
 10
40.9471973396764
 11
40.6537033637727
 20
-6.00365028963216
 21
-6.70871053059597
 62
7
  0
LINE
  6
BYLAYER
  8
0
 10
40.6537033637727
 11
39.9503298697968
 20
-6.70871053059597
 21
-7.00136113300567
 62
7
  0
LINE
  6
BYLAYER
  8
0
 10
39.9503298697968
 11
39.9503298697968
 20
-7.00136113300567
 21
-7.00136113300567
 62
7
  0
LINE
  6
BYLAYER
  8
0
 10
39.9503298697968
 11
39.2402093878691
 20
-7.00136113300567
 21
-6.70871053059597
 62
7
  0
LINE
  6
BYLAYER
  8
0
 10
39.2402093878691
 11
38.9517756529294
 20
-6.70871053059597
 21
-6.00365028963216
 62
7
  0
LINE
  6
BYLAYER
  8
0
 10
38.9517756529294
 11
38.9517756529294
 20
-6.00365028963216
 21
-5.00172257878882
 62
7
  0
LINE
  6
BYLAYER
  8
0
 10
35.9004503517246
 11
35.9004503517246
 20
-5.00172257878882
 21
-6.00365028963216
 62
7
  0
LINE
  6
BYLAYER
  8
0
 10
35.9004503517246
 11
35.607799749315
 20
-6.00365028963216
 21
-6.70871053059597
 62
7
  0
LINE
  6
BYLAYER
  8
0
 10
35.607799749315
 11
34.902739508351
 20
-6.70871053059597
 21
-7.00136113300567
 62
7
  0
LINE
  6
BYLAYER
  8
0
 10
34.902739508351
 11
34.902739508351
 20
-7.00136113300567
 21
-7.00136113300567
 62
7
  0
LINE
  6
BYLAYER
  8
0
 10
34.902739508351
 11
34.1976792673872
 20
-7.00136113300567
 21
-6.70871053059597
 62
7
  0
LINE
  6
BYLAYER
  8
0
 10
34.1976792673872
 11
33.9050286649777
 20
-6.70871053059597
 21
-6.00365028963216
 62
7
  0
LINE
  6
BYLAYER
  8
0
 10
33.9050286649777
 11
33.9050286649777
 20
-6.00365028963216
 21
-5.00172257878882
 62
7
  0
LINE
  6
BYLAYER
  8
0
 10
30.9127395083511
 11
30.9127395083511
 20
-5.00172257878882
 21
-6.00365028963216
 62
7
  0
LINE
  6
BYLAYER
  8
0
 10
30.9127395083511
 11
30.6200889059414
 20
-6.00365028963216
 21
-6.70871053059597
 62
7
  0
LINE
  6
BYLAYER
  8
0
 10
30.6200889059414
 11
29.9150286649776
 20
-6.70871053059597
 21
-7.00136113300567
 62
7
  0
LINE
  6
BYLAYER
  8
0
 10
29.9150286649776
 11
29.9150286649776
 20
-7.00136113300567
 21
-7.00136113300567
 62
7
  0
LINE
  6
BYLAYER
  8
0
 10
29.9150286649776
 11
29.2108117975077
 20
-7.00136113300567
 21
-6.70871053059597
 62
7
  0
LINE
  6
BYLAYER
  8
0
 10
29.2108117975077
 11
28.9181611950981
 20
-6.70871053059597
 21
-6.00365028963216
 62
7
  0
LINE
  6
BYLAYER
  8
0
 10
28.9181611950981
 11
28.9181611950981
 20
-6.00365028963216
 21
-5.00172257878882
 62
7
  0
LINE
  6
BYLAYER
  8
0
 10
25.9300889059414
 11
25.9300889059414
 20
-5.00172257878882
 21
-6.00365028963216
 62
7
  0
LINE
  6
BYLAYER
  8
0
 10
25.9300889059414
 11
25.6374383035318
 20
-6.00365028963216
 21
-6.70871053059597
 62
7
  0
LINE
  6
BYLAYER
  8
0
 10
25.6374383035318
 11
24.9323780625679
 20
-6.70871053059597
 21
-7.00136113300567
 62
7
  0
LINE
  6
BYLAYER
  8
0
 10
24.9323780625679
 11
24.9323780625679
 20
-7.00136113300567
 21
-7.00136113300567
 62
7
  0
LINE
  6
BYLAYER
  8
0
 10
24.9323780625679
 11
24.2231009541342
 20
-7.00136113300567
 21
-6.70871053059597
 62
7
  0
LINE
  6
BYLAYER
  8
0
 10
24.2231009541342
 11
23.9355105926884
 20
-6.70871053059597
 21
-6.00365028963216
 62
7
  0
LINE
  6
BYLAYER
  8
0
 10
23.9355105926884
 11
23.9355105926884
 20
-6.00365028963216
 21
-5.00172257878882
 62
7
  0
LINE
  6
BYLAYER
  8
0
 10
20.8824985444956
 11
20.8824985444956
 20
-5.00172257878882
 21
-6.00365028963216
 62
7
  0
LINE
  6
BYLAYER
  8
0
 10
20.8824985444956
 11
20.589847942086
 20
-6.00365028963216
 21
-6.70871053059597
 62
7
  0
LINE
  6
BYLAYER
  8
0
 10
20.589847942086
 11
19.8856310746161
 20
-6.70871053059597
 21
-7.00136113300567
 62
7
  0
LINE
  6
BYLAYER
  8
0
 10
19.8856310746161
 11
19.8856310746161
 20
-7.00136113300567
 21
-7.00136113300567
 62
7
  0
LINE
  6
BYLAYER
  8
0
 10
19.8856310746161
 11
19.1805708336523
 20
-7.00136113300567
 21
-6.70871053059597
 62
7
  0
LINE
  6
BYLAYER
  8
0
 10
19.1805708336523
 11
18.8879202312426
 20
-6.70871053059597
 21
-6.00365028963216
 62
7
  0
LINE
  6
BYLAYER
  8
0
 10
18.8879202312426
 11
18.8879202312426
 20
-6.00365028963216
 21
-5.00172257878882
 62
7
  0
LINE
  6
BYLAYER
  8
0
 10
-89.8782484434561
 11
-89.1736942265886
 20
-2.79124065107794
 21
-2.4985900486684
 62
7
  0
LINE
  6
BYLAYER
  8
0
 10
-89.1736942265886
 11
-88.8808749494802
 20
-2.4985900486684
 21
-1.79352980770449
 62
7
  0
LINE
  6
BYLAYER
  8
0
 10
-88.8808749494802
 11
-88.8808749494802
 20
-1.79352980770449
 21
14.1706870597654
 62
7
  0
LINE
  6
BYLAYER
  8
0
 10
-88.8808749494802
 11
-89.1736942265886
 20
14.1706870597654
 21
14.8749039272353
 62
7
  0
LINE
  6
BYLAYER
  8
0
 10
-89.1736942265886
 11
-89.8782484434561
 20
14.8749039272353
 21
15.167554529645
 62
7
  0
LINE
  6
BYLAYER
  8
0
 10
-89.8782484434561
 11
-89.8782484434561
 20
15.167554529645
 21
15.167554529645
 62
7
  0
LINE
  6
BYLAYER
  8
0
 10
-89.8782484434561
 11
-90.5829713350224
 20
15.167554529645
 21
14.8749039272353
 62
7
  0
LINE
  6
BYLAYER
  8
0
 10
-90.5829713350224
 11
-90.8757906121308
 20
14.8749039272353
 21
14.1706870597654
 62
7
  0
LINE
  6
BYLAYER
  8
0
 10
-90.8757906121308
 11
-90.8757906121308
 20
14.1706870597654
 21
-1.79352980770449
 62
7
  0
LINE
  6
BYLAYER
  8
0
 10
-90.8757906121308
 11
-90.5829713350224
 20
-1.79352980770449
 21
-2.4985900486684
 62
7
  0
LINE
  6
BYLAYER
  8
0
 10
-90.5829713350224
 11
-89.8782484434561
 20
-2.4985900486684
 21
-2.79124065107794
 62
7
  0
LINE
  6
BYLAYER
  8
0
 10
-89.8782484434561
 11
-89.8782484434561
 20
-2.79124065107794
 21
-2.79124065107794
 62
7
  0
LINE
  6
BYLAYER
  8
0
 10
-89.8782484434561
 11
-89.8782484434561
 20
-2.79124065107794
 21
-2.79124065107794
 62
7
  0
LINE
  6
BYLAYER
  8
0
 10
-89.8782484434561
 11
-89.1736942265886
 20
19.2908075416931
 21
19.5834581441028
 62
7
  0
LINE
  6
BYLAYER
  8
0
 10
-89.1736942265886
 11
-88.8808749494802
 20
19.5834581441028
 21
20.2876750115726
 62
7
  0
LINE
  6
BYLAYER
  8
0
 10
-88.8808749494802
 11
-88.8808749494802
 20
20.2876750115726
 21
36.2518918790425
 62
7
  0
LINE
  6
BYLAYER
  8
0
 10
-88.8808749494802
 11
-89.1736942265886
 20
36.2518918790425
 21
36.9620123609703
 62
7
  0
LINE
  6
BYLAYER
  8
0
 10
-89.1736942265886
 11
-89.8782484434561
 20
36.9620123609703
 21
37.2496027224159
 62
7
  0
LINE
  6
BYLAYER
  8
0
 10
-89.8782484434561
 11
-89.8782484434561
 20
37.2496027224159
 21
37.2496027224159
 62
7
  0
LINE
  6
BYLAYER
  8
0
 10
-89.8782484434561
 11
-90.5829713350224
 20
37.2496027224159
 21
36.9620123609703
 62
7
  0
LINE
  6
BYLAYER
  8
0
 10
-90.5829713350224
 11
-90.8757906121308
 20
36.9620123609703
 21
36.2518918790425
 62
7
  0
LINE
  6
BYLAYER
  8
0
 10
-90.8757906121308
 11
-90.8757906121308
 20
36.2518918790425
 21
20.2876750115726
 62
7
  0
LINE
  6
BYLAYER
  8
0
 10
-90.8757906121308
 11
-90.5829713350224
 20
20.2876750115726
 21
19.5834581441028
 62
7
  0
LINE
  6
BYLAYER
  8
0
 10
-90.5829713350224
 11
-89.8782484434561
 20
19.5834581441028
 21
19.2908075416931
 62
7
  0
LINE
  6
BYLAYER
  8
0
 10
-89.8782484434561
 11
-89.8782484434561
 20
19.2908075416931
 21
19.2908075416931
 62
7
  0
LINE
  6
BYLAYER
  8
0
 10
-89.8782484434561
 11
-89.8782484434561
 20
19.2908075416931
 21
19.2908075416931
 62
7
  0
LINE
  6
BYLAYER
  8
0
 10
0.960329869796922
 11
0.960329869796922
 20
39.6936991079581
 21
40.6947834453075
 62
7
  0
LINE
  6
BYLAYER
  8
0
 10
0.960329869796922
 11
0.6676792673873
 20
40.6947834453075
 21
41.3998436862714
 62
7
  0
LINE
  6
BYLAYER
  8
0
 10
0.6676792673873
 11
-0.0365376000826103
 20
41.3998436862714
 21
41.6924942886811
 62
7
  0
LINE
  6
BYLAYER
  8
0
 10
-0.0365376000826103
 11
-0.0365376000826103
 20
41.6924942886811
 21
41.6924942886811
 62
7
  0
LINE
  6
BYLAYER
  8
0
 10
-0.0365376000826103
 11
-0.746658082010313
 20
41.6924942886811
 21
41.3998436862714
 62
7
  0
LINE
  6
BYLAYER
  8
0
 10
-0.746658082010313
 11
-1.03424844345618
 20
41.3998436862714
 21
40.6947834453075
 62
7
  0
LINE
  6
BYLAYER
  8
0
 10
-1.03424844345618
 11
-1.03424844345618
 20
40.6947834453075
 21
39.6936991079581
 62
7
  0
LINE
  6
BYLAYER
  8
0
 10
-4.02569422658861
 11
-4.02569422658861
 20
39.665024409163
 21
40.6635786260305
 62
7
  0
LINE
  6
BYLAYER
  8
0
 10
-4.02569422658861
 11
-4.31918820249233
 20
40.6635786260305
 21
41.3720123609702
 62
7
  0
LINE
  6
BYLAYER
  8
0
 10
-4.31918820249233
 11
-5.0242484434561
 20
41.3720123609702
 21
41.6604460959099
 62
7
  0
LINE
  6
BYLAYER
  8
0
 10
-5.0242484434561
 11
-5.0242484434561
 20
41.6604460959099
 21
41.6604460959099
 62
7
  0
LINE
  6
BYLAYER
  8
0
 10
-5.0242484434561
 11
-5.72762193743209
 20
41.6604460959099
 21
41.3720123609702
 62
7
  0
LINE
  6
BYLAYER
  8
0
 10
-5.72762193743209
 11
-6.02111591333569
 20
41.3720123609702
 21
40.6635786260305
 62
7
  0
LINE
  6
BYLAYER
  8
0
 10
-6.02111591333569
 11
-6.02111591333569
 20
40.6635786260305
 21
39.665024409163
 62
7
  0
LINE
  6
BYLAYER
  8
0
 10
-44.0032845880345
 11
-44.0032845880345
 20
39.7063497103679
 21
40.7091207947051
 62
7
  0
LINE
  6
BYLAYER
  8
0
 10
-44.0032845880345
 11
-44.2959351904441
 20
40.7091207947051
 21
41.417554529645
 62
7
  0
LINE
  6
BYLAYER
  8
0
 10
-44.2959351904441
 11
-45.0009954314079
 20
41.417554529645
 21
41.7059882645846
 62
7
  0
LINE
  6
BYLAYER
  8
0
 10
-45.0009954314079
 11
-45.0009954314079
 20
41.7059882645846
 21
41.7059882645846
 62
7
  0
LINE
  6
BYLAYER
  8
0
 10
-45.0009954314079
 11
-45.7094291663477
 20
41.7059882645846
 21
41.417554529645
 62
7
  0
LINE
  6
BYLAYER
  8
0
 10
-45.7094291663477
 11
-45.9978629012874
 20
41.417554529645
 21
40.7091207947051
 62
7
  0
LINE
  6
BYLAYER
  8
0
 10
-45.9978629012874
 11
-45.9978629012874
 20
40.7091207947051
 21
39.7063497103679
 62
7
  0
LINE
  6
BYLAYER
  8
0
 10
-48.9775014555044
 11
-48.9775014555044
 20
39.7392412766329
 21
40.7403256139822
 62
7
  0
LINE
  6
BYLAYER
  8
0
 10
-48.9775014555044
 11
-49.2701520579139
 20
40.7403256139822
 21
41.445385854946
 62
7
  0
LINE
  6
BYLAYER
  8
0
 10
-49.2701520579139
 11
-49.9743689253838
 20
41.445385854946
 21
41.7388798308498
 62
7
  0
LINE
  6
BYLAYER
  8
0
 10
-49.9743689253838
 11
-49.9743689253838
 20
41.7388798308498
 21
41.7388798308498
 62
7
  0
LINE
  6
BYLAYER
  8
0
 10
-49.9743689253838
 11
-50.6794291663476
 20
41.7388798308498
 21
41.445385854946
 62
7
  0
LINE
  6
BYLAYER
  8
0
 10
-50.6794291663476
 11
-50.9720797687573
 20
41.445385854946
 21
40.7403256139822
 62
7
  0
LINE
  6
BYLAYER
  8
0
 10
-50.9720797687573
 11
-50.9720797687573
 20
40.7403256139822
 21
39.7392412766329
 62
7
  0
LINE
  6
BYLAYER
  8
0
 10
-54.0790677205645
 11
-54.0790677205645
 20
39.7392412766329
 21
40.7403256139822
 62
7
  0
LINE
  6
BYLAYER
  8
0
 10
-54.0790677205645
 11
-54.3717183229742
 20
40.7403256139822
 21
41.445385854946
 62
7
  0
LINE
  6
BYLAYER
  8
0
 10
-54.3717183229742
 11
-55.0759351904441
 20
41.445385854946
 21
41.7388798308498
 62
7
  0
LINE
  6
BYLAYER
  8
0
 10
-55.0759351904441
 11
-55.0759351904441
 20
41.7388798308498
 21
41.7388798308498
 62
7
  0
LINE
  6
BYLAYER
  8
0
 10
-55.0759351904441
 11
-55.7809954314079
 20
41.7388798308498
 21
41.445385854946
 62
7
  0
LINE
  6
BYLAYER
  8
0
 10
-55.7809954314079
 11
-56.0736460338175
 20
41.445385854946
 21
40.7403256139822
 62
7
  0
LINE
  6
BYLAYER
  8
0
 10
-56.0736460338175
 11
-56.0736460338175
 20
40.7403256139822
 21
39.7392412766329
 62
7
  0
LINE
  6
BYLAYER
  8
0
 10
-73.9641279615284
 11
-73.9641279615284
 20
39.7392412766329
 21
40.7403256139822
 62
7
  0
LINE
  6
BYLAYER
  8
0
 10
-73.9641279615284
 11
-74.2576219374321
 20
40.7403256139822
 21
41.445385854946
 62
7
  0
LINE
  6
BYLAYER
  8
0
 10
-74.2576219374321
 11
-74.961838804902
 20
41.445385854946
 21
41.7388798308498
 62
7
  0
LINE
  6
BYLAYER
  8
0
 10
-74.961838804902
 11
-74.961838804902
 20
41.7388798308498
 21
41.7388798308498
 62
7
  0
LINE
  6
BYLAYER
  8
0
 10
-74.961838804902
 11
-75.6711159133357
 20
41.7388798308498
 21
41.445385854946
 62
7
  0
LINE
  6
BYLAYER
  8
0
 10
-75.6711159133357
 11
-75.9595496482754
 20
41.445385854946
 21
40.7403256139822
 62
7
  0
LINE
  6
BYLAYER
  8
0
 10
-75.9595496482754
 11
-75.9595496482754
 20
40.7403256139822
 21
39.7392412766329
 62
7
  0
LINE
  6
BYLAYER
  8
0
 10
-69.0362966362273
 11
-69.0362966362273
 20
39.7392412766329
 21
40.7403256139822
 62
7
  0
LINE
  6
BYLAYER
  8
0
 10
-69.0362966362273
 11
-69.3289472386369
 20
40.7403256139822
 21
41.445385854946
 62
7
  0
LINE
  6
BYLAYER
  8
0
 10
-69.3289472386369
 11
-70.0340074796007
 20
41.445385854946
 21
41.7388798308498
 62
7
  0
LINE
  6
BYLAYER
  8
0
 10
-70.0340074796007
 11
-70.0340074796007
 20
41.7388798308498
 21
41.7388798308498
 62
7
  0
LINE
  6
BYLAYER
  8
0
 10
-70.0340074796007
 11
-70.7432845880344
 20
41.7388798308498
 21
41.445385854946
 62
7
  0
LINE
  6
BYLAYER
  8
0
 10
-70.7432845880344
 11
-71.0317183229742
 20
41.445385854946
 21
40.7403256139822
 62
7
  0
LINE
  6
BYLAYER
  8
0
 10
-71.0317183229742
 11
-71.0317183229742
 20
40.7403256139822
 21
39.7392412766329
 62
7
  0
LINE
  6
BYLAYER
  8
0
 10
-63.9212363952633
 11
-63.9212363952633
 20
39.7392412766329
 21
40.7403256139822
 62
7
  0
LINE
  6
BYLAYER
  8
0
 10
-63.9212363952633
 11
-64.213886997673
 20
40.7403256139822
 21
41.445385854946
 62
7
  0
LINE
  6
BYLAYER
  8
0
 10
-64.213886997673
 11
-64.9181038651429
 20
41.445385854946
 21
41.7388798308498
 62
7
  0
LINE
  6
BYLAYER
  8
0
 10
-64.9181038651429
 11
-64.9181038651429
 20
41.7388798308498
 21
41.7388798308498
 62
7
  0
LINE
  6
BYLAYER
  8
0
 10
-64.9181038651429
 11
-65.6231641061067
 20
41.7388798308498
 21
41.445385854946
 62
7
  0
LINE
  6
BYLAYER
  8
0
 10
-65.6231641061067
 11
-65.9158147085163
 20
41.445385854946
 21
40.7403256139822
 62
7
  0
LINE
  6
BYLAYER
  8
0
 10
-65.9158147085163
 11
-65.9158147085163
 20
40.7403256139822
 21
39.7392412766329
 62
7
  0
LINE
  6
BYLAYER
  8
0
 10
-58.9200315759863
 11
-58.9200315759863
 20
39.7392412766329
 21
40.7361087465123
 62
7
  0
LINE
  6
BYLAYER
  8
0
 10
-58.9200315759863
 11
-59.2126821783959
 20
40.7361087465123
 21
41.445385854946
 62
7
  0
LINE
  6
BYLAYER
  8
0
 10
-59.2126821783959
 11
-59.9177424193597
 20
41.445385854946
 21
41.7388798308498
 62
7
  0
LINE
  6
BYLAYER
  8
0
 10
-59.9177424193597
 11
-59.9177424193597
 20
41.7388798308498
 21
41.7388798308498
 62
7
  0
LINE
  6
BYLAYER
  8
0
 10
-59.9177424193597
 11
-60.6219592868296
 20
41.7388798308498
 21
41.445385854946
 62
7
  0
LINE
  6
BYLAYER
  8
0
 10
-60.6219592868296
 11
-60.9146098892393
 20
41.445385854946
 21
40.7361087465123
 62
7
  0
LINE
  6
BYLAYER
  8
0
 10
-60.9146098892393
 11
-60.9146098892393
 20
40.7361087465123
 21
39.7392412766329
 62
7
  0
LINE
  6
BYLAYER
  8
0
 10
-38.943043624179
 11
-38.943043624179
 20
39.7105665778378
 21
40.7133376621751
 62
7
  0
LINE
  6
BYLAYER
  8
0
 10
-38.943043624179
 11
-39.2356942265887
 20
40.7133376621751
 21
41.417554529645
 62
7
  0
LINE
  6
BYLAYER
  8
0
 10
-39.2356942265887
 11
-39.9407544675526
 20
41.417554529645
 21
41.7102051320545
 62
7
  0
LINE
  6
BYLAYER
  8
0
 10
-39.9407544675526
 11
-39.9407544675526
 20
41.7102051320545
 21
41.7102051320545
 62
7
  0
LINE
  6
BYLAYER
  8
0
 10
-39.9407544675526
 11
-40.6491882024923
 20
41.7102051320545
 21
41.417554529645
 62
7
  0
LINE
  6
BYLAYER
  8
0
 10
-40.6491882024923
 11
-40.937621937432
 20
41.417554529645
 21
40.7133376621751
 62
7
  0
LINE
  6
BYLAYER
  8
0
 10
-40.937621937432
 11
-40.937621937432
 20
40.7133376621751
 21
39.7105665778378
 62
7
  0
LINE
  6
BYLAYER
  8
0
 10
-75.9317183229742
 11
-73.90930868442
 20
54.1938195898858
 21
54.1938195898858
 62
7
  0
LINE
  6
BYLAYER
  8
0
 10
-75.8954532627332
 11
-75.8954532627332
 20
56.0416509151872
 21
50.1709280236208
 62
7
  0
LINE
  6
BYLAYER
  8
0
 10
-75.8954532627332
 11
-75.6028026603236
 20
50.1709280236208
 21
49.4658677826569
 62
7
  0
LINE
  6
BYLAYER
  8
0
 10
-75.6028026603236
 11
-74.8977424193597
 20
49.4658677826569
 21
49.1732171802473
 62
7
  0
LINE
  6
BYLAYER
  8
0
 10
-74.8977424193597
 11
-74.8977424193597
 20
49.1732171802473
 21
49.1732171802473
 62
7
  0
LINE
  6
BYLAYER
  8
0
 10
-74.8977424193597
 11
-74.1935255518898
 20
49.1732171802473
 21
49.4658677826569
 62
7
  0
LINE
  6
BYLAYER
  8
0
 10
-74.1935255518898
 11
-73.9000315759862
 20
49.4658677826569
 21
50.1709280236208
 62
7
  0
LINE
  6
BYLAYER
  8
0
 10
-73.9000315759862
 11
-73.9000315759862
 20
50.1709280236208
 21
56.0871930838617
 62
7
  0
LINE
  6
BYLAYER
  8
0
 10
-70.9170195277935
 11
-68.8903930217694
 20
54.1103256139823
 21
54.1103256139823
 62
7
  0
LINE
  6
BYLAYER
  8
0
 10
-70.8807544675526
 11
-70.8807544675526
 20
55.9590003127775
 21
50.0891207947051
 62
7
  0
LINE
  6
BYLAYER
  8
0
 10
-70.8807544675526
 11
-70.5872604916489
 20
50.0891207947051
 21
49.3840605537413
 62
7
  0
LINE
  6
BYLAYER
  8
0
 10
-70.5872604916489
 11
-69.883043624179
 20
49.3840605537413
 21
49.0914099513317
 62
7
  0
LINE
  6
BYLAYER
  8
0
 10
-69.883043624179
 11
-69.883043624179
 20
49.0914099513317
 21
49.0914099513317
 62
7
  0
LINE
  6
BYLAYER
  8
0
 10
-69.883043624179
 11
-69.1779833832151
 20
49.0914099513317
 21
49.3840605537413
 62
7
  0
LINE
  6
BYLAYER
  8
0
 10
-69.1779833832151
 11
-68.8853327808056
 20
49.3840605537413
 21
50.0891207947051
 62
7
  0
LINE
  6
BYLAYER
  8
0
 10
-68.8853327808056
 11
-68.8853327808056
 20
50.0891207947051
 21
56.005385854946
 62
7
  0
LINE
  6
BYLAYER
  8
0
 10
-65.8972604916489
 11
-63.8748508530946
 20
54.1103256139823
 21
54.1103256139823
 62
7
  0
LINE
  6
BYLAYER
  8
0
 10
-65.8652122988779
 11
-65.8652122988779
 20
55.9590003127775
 21
50.0891207947051
 62
7
  0
LINE
  6
BYLAYER
  8
0
 10
-65.8652122988779
 11
-65.5725616964681
 20
50.0891207947051
 21
49.3840605537413
 62
7
  0
LINE
  6
BYLAYER
  8
0
 10
-65.5725616964681
 11
-64.8632845880345
 20
49.3840605537413
 21
49.0914099513317
 62
7
  0
LINE
  6
BYLAYER
  8
0
 10
-64.8632845880345
 11
-64.8632845880345
 20
49.0914099513317
 21
49.0914099513317
 62
7
  0
LINE
  6
BYLAYER
  8
0
 10
-64.8632845880345
 11
-64.1632845880345
 20
49.0914099513317
 21
49.3840605537413
 62
7
  0
LINE
  6
BYLAYER
  8
0
 10
-64.1632845880345
 11
-63.8706339856248
 20
49.3840605537413
 21
50.0891207947051
 62
7
  0
LINE
  6
BYLAYER
  8
0
 10
-63.8706339856248
 11
-63.8706339856248
 20
50.0891207947051
 21
56.005385854946
 62
7
  0
LINE
  6
BYLAYER
  8
0
 10
-60.8825616964681
 11
-58.8601520579139
 20
54.1339400718135
 21
54.1339400718135
 62
7
  0
LINE
  6
BYLAYER
  8
0
 10
-60.8462966362273
 11
-60.8462966362273
 20
55.9826147706088
 21
50.1110485055485
 62
7
  0
LINE
  6
BYLAYER
  8
0
 10
-60.8462966362273
 11
-60.5578629012875
 20
50.1110485055485
 21
49.4076750115726
 62
7
  0
LINE
  6
BYLAYER
  8
0
 10
-60.5578629012875
 11
-59.8485857928538
 20
49.4076750115726
 21
49.114181035669
 62
7
  0
LINE
  6
BYLAYER
  8
0
 10
-59.8485857928538
 11
-59.8485857928538
 20
49.114181035669
 21
49.114181035669
 62
7
  0
LINE
  6
BYLAYER
  8
0
 10
-59.8485857928538
 11
-59.1443689253838
 20
49.114181035669
 21
49.4076750115726
 62
7
  0
LINE
  6
BYLAYER
  8
0
 10
-59.1443689253838
 11
-58.8508749494802
 20
49.4076750115726
 21
50.1110485055485
 62
7
  0
LINE
  6
BYLAYER
  8
0
 10
-58.8508749494802
 11
-58.8508749494802
 20
50.1110485055485
 21
56.0281569392835
 62
7
  0
LINE
  6
BYLAYER
  8
0
 10
-55.954730371167
 11
-53.9323207326128
 20
54.1339400718135
 21
54.1339400718135
 62
7
  0
LINE
  6
BYLAYER
  8
0
 10
-55.9184653109261
 11
-55.9184653109261
 20
55.9826147706088
 21
50.1110485055485
 62
7
  0
LINE
  6
BYLAYER
  8
0
 10
-55.9184653109261
 11
-55.6300315759862
 20
50.1110485055485
 21
49.4076750115726
 62
7
  0
LINE
  6
BYLAYER
  8
0
 10
-55.6300315759862
 11
-54.9207544675525
 20
49.4076750115726
 21
49.114181035669
 62
7
  0
LINE
  6
BYLAYER
  8
0
 10
-54.9207544675525
 11
-54.9207544675525
 20
49.114181035669
 21
49.114181035669
 62
7
  0
LINE
  6
BYLAYER
  8
0
 10
-54.9207544675525
 11
-54.2165376000826
 20
49.114181035669
 21
49.4076750115726
 62
7
  0
LINE
  6
BYLAYER
  8
0
 10
-54.2165376000826
 11
-53.9230436241791
 20
49.4076750115726
 21
50.1110485055485
 62
7
  0
LINE
  6
BYLAYER
  8
0
 10
-53.9230436241791
 11
-53.9230436241791
 20
50.1110485055485
 21
56.0281569392835
 62
7
  0
LINE
  6
BYLAYER
  8
0
 10
-75.9730436241791
 11
-73.9506339856248
 20
-19.4284695667406
 21
-19.4284695667406
 62
7
  0
LINE
  6
BYLAYER
  8
0
 10
-75.9409954314079
 11
-75.9409954314079
 20
-21.2763008920419
 21
-15.4055780004756
 62
7
  0
LINE
  6
BYLAYER
  8
0
 10
-75.9409954314079
 11
-75.6483448289982
 20
-15.4055780004756
 21
-14.7022045064997
 62
7
  0
LINE
  6
BYLAYER
  8
0
 10
-75.6483448289982
 11
-74.9390677205645
 20
-14.7022045064997
 21
-14.408710530596
 62
7
  0
LINE
  6
BYLAYER
  8
0
 10
-74.9390677205645
 11
-74.9390677205645
 20
-14.408710530596
 21
-14.408710530596
 62
7
  0
LINE
  6
BYLAYER
  8
0
 10
-74.9390677205645
 11
-74.2340074796007
 20
-14.408710530596
 21
-14.7022045064997
 62
7
  0
LINE
  6
BYLAYER
  8
0
 10
-74.2340074796007
 11
-73.9413568771911
 20
-14.7022045064997
 21
-15.4055780004756
 62
7
  0
LINE
  6
BYLAYER
  8
0
 10
-73.9413568771911
 11
-73.9413568771911
 20
-15.4055780004756
 21
-21.3226864342105
 62
7
  0
LINE
  6
BYLAYER
  8
0
 10
-71.003886997673
 11
-68.9772604916489
 20
-19.4284695667406
 21
-19.4284695667406
 62
7
  0
LINE
  6
BYLAYER
  8
0
 10
-70.9676219374321
 11
-70.9676219374321
 20
-21.2763008920419
 21
-15.4055780004756
 62
7
  0
LINE
  6
BYLAYER
  8
0
 10
-70.9676219374321
 11
-70.6741279615285
 20
-15.4055780004756
 21
-14.7022045064997
 62
7
  0
LINE
  6
BYLAYER
  8
0
 10
-70.6741279615285
 11
-69.9699110940586
 20
-14.7022045064997
 21
-14.408710530596
 62
7
  0
LINE
  6
BYLAYER
  8
0
 10
-69.9699110940586
 11
-69.9699110940586
 20
-14.408710530596
 21
-14.408710530596
 62
7
  0
LINE
  6
BYLAYER
  8
0
 10
-69.9699110940586
 11
-69.2656942265887
 20
-14.408710530596
 21
-14.7022045064997
 62
7
  0
LINE
  6
BYLAYER
  8
0
 10
-69.2656942265887
 11
-68.972200250685
 20
-14.7022045064997
 21
-15.4055780004756
 62
7
  0
LINE
  6
BYLAYER
  8
0
 10
-68.972200250685
 11
-68.972200250685
 20
-15.4055780004756
 21
-21.3226864342105
 62
7
  0
LINE
  6
BYLAYER
  8
0
 10
-65.9891882024923
 11
-63.9617183229742
 20
-19.4284695667406
 21
-19.4284695667406
 62
7
  0
LINE
  6
BYLAYER
  8
0
 10
-65.9529231422513
 11
-65.9529231422513
 20
-21.2763008920419
 21
-15.4055780004756
 62
7
  0
LINE
  6
BYLAYER
  8
0
 10
-65.9529231422513
 11
-65.6594291663477
 20
-15.4055780004756
 21
-14.7022045064997
 62
7
  0
LINE
  6
BYLAYER
  8
0
 10
-65.6594291663477
 11
-64.9552122988778
 20
-14.7022045064997
 21
-14.408710530596
 62
7
  0
LINE
  6
BYLAYER
  8
0
 10
-64.9552122988778
 11
-64.9552122988778
 20
-14.408710530596
 21
-14.408710530596
 62
7
  0
LINE
  6
BYLAYER
  8
0
 10
-64.9552122988778
 11
-64.250152057914
 20
-14.408710530596
 21
-14.7022045064997
 62
7
  0
LINE
  6
BYLAYER
  8
0
 10
-64.250152057914
 11
-63.9575014555043
 20
-14.7022045064997
 21
-15.4055780004756
 62
7
  0
LINE
  6
BYLAYER
  8
0
 10
-63.9575014555043
 11
-63.9575014555043
 20
-15.4055780004756
 21
-21.3226864342105
 62
7
  0
LINE
  6
BYLAYER
  8
0
 10
-60.9694291663477
 11
-58.9470195277934
 20
-19.4554575185479
 21
-19.4554575185479
 62
7
  0
LINE
  6
BYLAYER
  8
0
 10
-60.9373809735767
 11
-60.9373809735767
 20
-21.2999153498732
 21
-15.4342526992707
 62
7
  0
LINE
  6
BYLAYER
  8
0
 10
-60.9373809735767
 11
-60.6447303711669
 20
-15.4342526992707
 21
-14.724132217343
 62
7
  0
LINE
  6
BYLAYER
  8
0
 10
-60.6447303711669
 11
-59.9405135036971
 20
-14.724132217343
 21
-14.4356984824033
 62
7
  0
LINE
  6
BYLAYER
  8
0
 10
-59.9405135036971
 11
-59.9405135036971
 20
-14.4356984824033
 21
-14.4356984824033
 62
7
  0
LINE
  6
BYLAYER
  8
0
 10
-59.9405135036971
 11
-59.2354532627332
 20
-14.4356984824033
 21
-14.724132217343
 62
7
  0
LINE
  6
BYLAYER
  8
0
 10
-59.2354532627332
 11
-58.9385857928537
 20
-14.724132217343
 21
-15.4342526992707
 62
7
  0
LINE
  6
BYLAYER
  8
0
 10
-58.9385857928537
 11
-58.9385857928537
 20
-15.4342526992707
 21
-21.3454575185479
 62
7
  0
LINE
  6
BYLAYER
  8
0
 10
-56.0466580820103
 11
-54.0191882024922
 20
-19.4554575185479
 21
-19.4554575185479
 62
7
  0
LINE
  6
BYLAYER
  8
0
 10
-56.0095496482755
 11
-56.0095496482755
 20
-21.2999153498732
 21
-15.4342526992707
 62
7
  0
LINE
  6
BYLAYER
  8
0
 10
-56.0095496482755
 11
-55.7168990458657
 20
-15.4342526992707
 21
-14.724132217343
 62
7
  0
LINE
  6
BYLAYER
  8
0
 10
-55.7168990458657
 11
-55.0126821783959
 20
-14.724132217343
 21
-14.4356984824033
 62
7
  0
LINE
  6
BYLAYER
  8
0
 10
-55.0126821783959
 11
-55.0126821783959
 20
-14.4356984824033
 21
-14.4356984824033
 62
7
  0
LINE
  6
BYLAYER
  8
0
 10
-55.0126821783959
 11
-54.307621937432
 20
-14.4356984824033
 21
-14.724132217343
 62
7
  0
LINE
  6
BYLAYER
  8
0
 10
-54.307621937432
 11
-54.0149713350224
 20
-14.724132217343
 21
-15.4342526992707
 62
7
  0
LINE
  6
BYLAYER
  8
0
 10
-54.0149713350224
 11
-54.0149713350224
 20
-15.4342526992707
 21
-21.3454575185479
 62
7
  0
LINE
  6
BYLAYER
  8
0
 10
-68.8853327808056
 11
-68.8853327808056
 20
-4.94690330168032
 21
-5.94377077155997
 62
7
  0
LINE
  6
BYLAYER
  8
0
 10
-68.8853327808056
 11
-69.1779833832151
 20
-5.94377077155997
 21
-6.64883101252371
 62
7
  0
LINE
  6
BYLAYER
  8
0
 10
-69.1779833832151
 11
-69.883043624179
 20
-6.64883101252371
 21
-6.94654185589729
 62
7
  0
LINE
  6
BYLAYER
  8
0
 10
-69.883043624179
 11
-69.883043624179
 20
-6.94654185589729
 21
-6.94654185589729
 62
7
  0
LINE
  6
BYLAYER
  8
0
 10
-69.883043624179
 11
-70.5872604916489
 20
-6.94654185589729
 21
-6.64883101252371
 62
7
  0
LINE
  6
BYLAYER
  8
0
 10
-70.5872604916489
 11
-70.8807544675526
 20
-6.64883101252371
 21
-5.94377077155997
 62
7
  0
LINE
  6
BYLAYER
  8
0
 10
-70.8807544675526
 11
-70.8807544675526
 20
-5.94377077155997
 21
-4.94690330168032
 62
7
  0
LINE
  6
BYLAYER
  8
0
 10
-73.9413568771911
 11
-73.9413568771911
 20
-4.94184306071645
 21
-5.94377077155997
 62
7
  0
LINE
  6
BYLAYER
  8
0
 10
-73.9413568771911
 11
-74.2340074796007
 20
-5.94377077155997
 21
-6.64883101252371
 62
7
  0
LINE
  6
BYLAYER
  8
0
 10
-74.2340074796007
 11
-74.9390677205645
 20
-6.64883101252371
 21
-6.94148161493337
 62
7
  0
LINE
  6
BYLAYER
  8
0
 10
-74.9390677205645
 11
-74.9390677205645
 20
-6.94148161493337
 21
-6.94148161493337
 62
7
  0
LINE
  6
BYLAYER
  8
0
 10
-74.9390677205645
 11
-75.6483448289982
 20
-6.94148161493337
 21
-6.64883101252371
 62
7
  0
LINE
  6
BYLAYER
  8
0
 10
-75.6483448289982
 11
-75.9409954314079
 20
-6.64883101252371
 21
-5.94377077155997
 62
7
  0
LINE
  6
BYLAYER
  8
0
 10
-75.9409954314079
 11
-75.9409954314079
 20
-5.94377077155997
 21
-4.94184306071645
 62
7
  0
LINE
  6
BYLAYER
  8
0
 10
-24.0077424193598
 11
-24.0077424193598
 20
-4.98822860288527
 21
-5.98931294023464
 62
7
  0
LINE
  6
BYLAYER
  8
0
 10
-24.0077424193598
 11
-24.3012363952634
 20
-5.98931294023464
 21
-6.69437318119839
 62
7
  0
LINE
  6
BYLAYER
  8
0
 10
-24.3012363952634
 11
-25.0062966362272
 20
-6.69437318119839
 21
-6.98702378360804
 62
7
  0
LINE
  6
BYLAYER
  8
0
 10
-25.0062966362272
 11
-25.0062966362272
 20
-6.98702378360804
 21
-6.98702378360804
 62
7
  0
LINE
  6
BYLAYER
  8
0
 10
-25.0062966362272
 11
-25.710513503697
 20
-6.98702378360804
 21
-6.69437318119839
 62
7
  0
LINE
  6
BYLAYER
  8
0
 10
-25.710513503697
 11
-26.0031641061068
 20
-6.69437318119839
 21
-5.98931294023464
 62
7
  0
LINE
  6
BYLAYER
  8
0
 10
-26.0031641061068
 11
-26.0031641061068
 20
-5.98931294023464
 21
-4.98822860288527
 62
7
  0
LINE
  6
BYLAYER
  8
0
 10
-19.0799110940585
 11
-19.0799110940585
 20
-4.94184306071645
 21
-5.94377077155997
 62
7
  0
LINE
  6
BYLAYER
  8
0
 10
-19.0799110940585
 11
-19.3734050699622
 20
-5.94377077155997
 21
-6.64883101252371
 62
7
  0
LINE
  6
BYLAYER
  8
0
 10
-19.3734050699622
 11
-20.076778563938
 20
-6.64883101252371
 21
-6.94148161493337
 62
7
  0
LINE
  6
BYLAYER
  8
0
 10
-20.076778563938
 11
-20.076778563938
 20
-6.94148161493337
 21
-6.94148161493337
 62
7
  0
LINE
  6
BYLAYER
  8
0
 10
-20.076778563938
 11
-20.781838804902
 20
-6.94148161493337
 21
-6.64883101252371
 62
7
  0
LINE
  6
BYLAYER
  8
0
 10
-20.781838804902
 11
-21.0753327808055
 20
-6.64883101252371
 21
-5.94377077155997
 62
7
  0
LINE
  6
BYLAYER
  8
0
 10
-21.0753327808055
 11
-21.0753327808055
 20
-5.94377077155997
 21
-4.94184306071645
 62
7
  0
LINE
  6
BYLAYER
  8
0
 10
-3.94388699767306
 11
-3.94388699767306
 20
-4.85581896433092
 21
-5.8569033016804
 62
7
  0
LINE
  6
BYLAYER
  8
0
 10
-3.94388699767306
 11
-4.2365376000826
 20
-5.8569033016804
 21
-6.56196354264421
 62
7
  0
LINE
  6
BYLAYER
  8
0
 10
-4.2365376000826
 11
-4.94244121454044
 20
-6.56196354264421
 21
-6.8546141450538
 62
7
  0
LINE
  6
BYLAYER
  8
0
 10
-4.94244121454044
 11
-4.94244121454044
 20
-6.8546141450538
 21
-6.8546141450538
 62
7
  0
LINE
  6
BYLAYER
  8
0
 10
-4.94244121454044
 11
-5.65087494948027
 20
-6.8546141450538
 21
-6.56196354264421
 62
7
  0
LINE
  6
BYLAYER
  8
0
 10
-5.65087494948027
 11
-5.93846531092605
 20
-6.56196354264421
 21
-5.8569033016804
 62
7
  0
LINE
  6
BYLAYER
  8
0
 10
-5.93846531092605
 11
-5.93846531092605
 20
-5.8569033016804
 21
-4.85581896433092
 62
7
  0
LINE
  6
BYLAYER
  8
0
 10
0.897076857748644
 11
0.897076857748644
 20
-4.90136113300565
 21
-5.90244547035513
 62
7
  0
LINE
  6
BYLAYER
  8
0
 10
0.897076857748644
 11
0.59936601437515
 20
-5.90244547035513
 21
-6.60750571131888
 62
7
  0
LINE
  6
BYLAYER
  8
0
 10
0.59936601437515
 11
-0.105694226588625
 20
-6.60750571131888
 21
-6.90099968722262
 62
7
  0
LINE
  6
BYLAYER
  8
0
 10
-0.105694226588625
 11
-0.105694226588625
 20
-6.90099968722262
 21
-6.90099968722262
 62
7
  0
LINE
  6
BYLAYER
  8
0
 10
-0.105694226588625
 11
-0.809911094058506
 20
-6.90099968722262
 21
-6.60750571131888
 62
7
  0
LINE
  6
BYLAYER
  8
0
 10
-0.809911094058506
 11
-1.10256169646813
 20
-6.60750571131888
 21
-5.90244547035513
 62
7
  0
LINE
  6
BYLAYER
  8
0
 10
-1.10256169646813
 11
-1.10256169646813
 20
-5.90244547035513
 21
-4.90136113300565
 62
7
  0
LINE
  6
BYLAYER
  8
0
 10
-14.0196701302031
 11
-14.0196701302031
 20
-4.94690330168032
 21
-5.94377077155997
 62
7
  0
LINE
  6
BYLAYER
  8
0
 10
-14.0196701302031
 11
-14.3131641061068
 20
-5.94377077155997
 21
-6.64883101252371
 62
7
  0
LINE
  6
BYLAYER
  8
0
 10
-14.3131641061068
 11
-15.0165376000826
 20
-6.64883101252371
 21
-6.94148161493337
 62
7
  0
LINE
  6
BYLAYER
  8
0
 10
-15.0165376000826
 11
-15.0165376000826
 20
-6.94148161493337
 21
-6.94148161493337
 62
7
  0
LINE
  6
BYLAYER
  8
0
 10
-15.0165376000826
 11
-15.7266580820103
 20
-6.94148161493337
 21
-6.64883101252371
 62
7
  0
LINE
  6
BYLAYER
  8
0
 10
-15.7266580820103
 11
-16.0150918169501
 20
-6.64883101252371
 21
-5.94377077155997
 62
7
  0
LINE
  6
BYLAYER
  8
0
 10
-16.0150918169501
 11
-16.0150918169501
 20
-5.94377077155997
 21
-4.94690330168032
 62
7
  0
LINE
  6
BYLAYER
  8
0
 10
-9.0041279615284
 11
-9.0041279615284
 20
-4.94690330168032
 21
-5.94377077155997
 62
7
  0
LINE
  6
BYLAYER
  8
0
 10
-9.0041279615284
 11
-9.29677856393802
 20
-5.94377077155997
 21
-6.64883101252371
 62
7
  0
LINE
  6
BYLAYER
  8
0
 10
-9.29677856393802
 11
-10.001838804902
 20
-6.64883101252371
 21
-6.94148161493337
 62
7
  0
LINE
  6
BYLAYER
  8
0
 10
-10.001838804902
 11
-10.001838804902
 20
-6.94148161493337
 21
-6.94148161493337
 62
7
  0
LINE
  6
BYLAYER
  8
0
 10
-10.001838804902
 11
-10.7111159133356
 20
-6.94148161493337
 21
-6.64883101252371
 62
7
  0
LINE
  6
BYLAYER
  8
0
 10
-10.7111159133356
 11
-10.9987062747815
 20
-6.64883101252371
 21
-5.94377077155997
 62
7
  0
LINE
  6
BYLAYER
  8
0
 10
-10.9987062747815
 11
-10.9987062747815
 20
-5.94377077155997
 21
-4.94690330168032
 62
7
  0
LINE
  6
BYLAYER
  8
0
 10
15.8543057734114
 11
15.8543057734114
 20
-5.02449366312612
 21
-6.02220450649958
 62
7
  0
LINE
  6
BYLAYER
  8
0
 10
15.8543057734114
 11
15.5616551710016
 20
-6.02220450649958
 21
-6.72642137396946
 62
7
  0
LINE
  6
BYLAYER
  8
0
 10
15.5616551710016
 11
14.8574383035319
 20
-6.72642137396946
 21
-7.01907197637911
 62
7
  0
LINE
  6
BYLAYER
  8
0
 10
14.8574383035319
 11
14.8574383035319
 20
-7.01907197637911
 21
-7.01907197637911
 62
7
  0
LINE
  6
BYLAYER
  8
0
 10
14.8574383035319
 11
14.1473178216042
 20
-7.01907197637911
 21
-6.72642137396946
 62
7
  0
LINE
  6
BYLAYER
  8
0
 10
14.1473178216042
 11
13.8597274601583
 20
-6.72642137396946
 21
-6.02220450649958
 62
7
  0
LINE
  6
BYLAYER
  8
0
 10
13.8597274601583
 11
13.8597274601583
 20
-6.02220450649958
 21
-5.02449366312612
 62
7
  0
LINE
  6
BYLAYER
  8
0
 10
5.89322143606189
 11
5.89322143606189
 20
-4.98822860288527
 21
-5.9850960727648
 62
7
  0
LINE
  6
BYLAYER
  8
0
 10
5.89322143606189
 11
5.59972746015838
 20
-5.9850960727648
 21
-6.69015631372855
 62
7
  0
LINE
  6
BYLAYER
  8
0
 10
5.59972746015838
 11
4.90057083365234
 20
-6.69015631372855
 21
-6.98280691613826
 62
7
  0
LINE
  6
BYLAYER
  8
0
 10
4.90057083365234
 11
4.90057083365234
 20
-6.98280691613826
 21
-6.98280691613826
 62
7
  0
LINE
  6
BYLAYER
  8
0
 10
4.90057083365234
 11
4.19129372521861
 20
-6.98280691613826
 21
-6.69015631372855
 62
7
  0
LINE
  6
BYLAYER
  8
0
 10
4.19129372521861
 11
3.89779974931498
 20
-6.69015631372855
 21
-5.9850960727648
 62
7
  0
LINE
  6
BYLAYER
  8
0
 10
3.89779974931498
 11
3.89779974931498
 20
-5.9850960727648
 21
-4.98822860288527
 62
7
  0
LINE
  6
BYLAYER
  8
0
 10
99.7471973396765
 11
100.453100954134
 20
-2.81401173541531
 21
-2.52136113300566
 62
7
  0
LINE
  6
BYLAYER
  8
0
 10
100.453100954134
 11
100.745751556544
 20
-2.52136113300566
 21
-1.81714426553577
 62
7
  0
LINE
  6
BYLAYER
  8
0
 10
100.745751556544
 11
100.745751556544
 20
-1.81714426553577
 21
14.1428557344643
 62
7
  0
LINE
  6
BYLAYER
  8
0
 10
100.745751556544
 11
100.453100954134
 20
14.1428557344643
 21
14.852132842898
 62
7
  0
LINE
  6
BYLAYER
  8
0
 10
100.453100954134
 11
99.7471973396765
 20
14.852132842898
 21
15.1405665778377
 62
7
  0
LINE
  6
BYLAYER
  8
0
 10
99.7471973396765
 11
99.7471973396765
 20
15.1405665778377
 21
15.1405665778377
 62
7
  0
LINE
  6
BYLAYER
  8
0
 10
99.7471973396765
 11
99.0387636047367
 20
15.1405665778377
 21
14.852132842898
 62
7
  0
LINE
  6
BYLAYER
  8
0
 10
99.0387636047367
 11
98.746113002327
 20
14.852132842898
 21
14.1428557344643
 62
7
  0
LINE
  6
BYLAYER
  8
0
 10
98.746113002327
 11
98.746113002327
 20
14.1428557344643
 21
-1.81714426553577
 62
7
  0
LINE
  6
BYLAYER
  8
0
 10
98.746113002327
 11
99.0387636047367
 20
-1.81714426553577
 21
-2.52136113300566
 62
7
  0
LINE
  6
BYLAYER
  8
0
 10
99.0387636047367
 11
99.7471973396765
 20
-2.52136113300566
 21
-2.81401173541531
 62
7
  0
LINE
  6
BYLAYER
  8
0
 10
99.7471973396765
 11
99.7471973396765
 20
-2.81401173541531
 21
-2.81401173541531
 62
7
  0
LINE
  6
BYLAYER
  8
0
 10
99.7471973396765
 11
99.7471973396765
 20
-2.81401173541531
 21
-2.81401173541531
 62
7
  0
LINE
  6
BYLAYER
  8
0
 10
-64.8632845880345
 11
-64.1632845880345
 20
-2.80895149445149
 21
-2.5163008920419
 62
7
  0
LINE
  6
BYLAYER
  8
0
 10
-64.1632845880345
 11
-63.8706339856248
 20
-2.5163008920419
 21
-1.81208402457202
 62
7
  0
LINE
  6
BYLAYER
  8
0
 10
-63.8706339856248
 11
-63.8706339856248
 20
-1.81208402457202
 21
14.152132842898
 62
7
  0
LINE
  6
BYLAYER
  8
0
 10
-63.8706339856248
 11
-64.1632845880345
 20
14.152132842898
 21
14.8571930838618
 62
7
  0
LINE
  6
BYLAYER
  8
0
 10
-64.1632845880345
 11
-64.8632845880345
 20
14.8571930838618
 21
15.1498436862715
 62
7
  0
LINE
  6
BYLAYER
  8
0
 10
-64.8632845880345
 11
-64.8632845880345
 20
15.1498436862715
 21
15.1498436862715
 62
7
  0
LINE
  6
BYLAYER
  8
0
 10
-64.8632845880345
 11
-65.5725616964681
 20
15.1498436862715
 21
14.8571930838618
 62
7
  0
LINE
  6
BYLAYER
  8
0
 10
-65.5725616964681
 11
-65.8652122988779
 20
14.8571930838618
 21
14.152132842898
 62
7
  0
LINE
  6
BYLAYER
  8
0
 10
-65.8652122988779
 11
-65.8652122988779
 20
14.152132842898
 21
-1.81208402457202
 62
7
  0
LINE
  6
BYLAYER
  8
0
 10
-65.8652122988779
 11
-65.5725616964681
 20
-1.81208402457202
 21
-2.5163008920419
 62
7
  0
LINE
  6
BYLAYER
  8
0
 10
-65.5725616964681
 11
-64.8632845880345
 20
-2.5163008920419
 21
-2.80895149445149
 62
7
  0
LINE
  6
BYLAYER
  8
0
 10
-64.8632845880345
 11
-64.8632845880345
 20
-2.80895149445149
 21
-2.80895149445149
 62
7
  0
LINE
  6
BYLAYER
  8
0
 10
-64.8632845880345
 11
-64.8632845880345
 20
-2.80895149445149
 21
-2.80895149445149
 62
7
  0
LINE
  6
BYLAYER
  8
0
 10
-54.9393086844199
 11
-54.2342484434562
 20
19.2452653730185
 21
19.5379159754281
 62
7
  0
LINE
  6
BYLAYER
  8
0
 10
-54.2342484434562
 11
-53.9415978410465
 20
19.5379159754281
 21
20.2421328428978
 62
7
  0
LINE
  6
BYLAYER
  8
0
 10
-53.9415978410465
 11
-53.9415978410465
 20
20.2421328428978
 21
36.2063497103679
 62
7
  0
LINE
  6
BYLAYER
  8
0
 10
-53.9415978410465
 11
-54.2342484434562
 20
36.2063497103679
 21
36.9114099513316
 62
7
  0
LINE
  6
BYLAYER
  8
0
 10
-54.2342484434562
 11
-54.9393086844199
 20
36.9114099513316
 21
37.2040605537413
 62
7
  0
LINE
  6
BYLAYER
  8
0
 10
-54.9393086844199
 11
-54.9393086844199
 20
37.2040605537413
 21
37.2040605537413
 62
7
  0
LINE
  6
BYLAYER
  8
0
 10
-54.9393086844199
 11
-55.6435255518899
 20
37.2040605537413
 21
36.9114099513316
 62
7
  0
LINE
  6
BYLAYER
  8
0
 10
-55.6435255518899
 11
-55.9361761542995
 20
36.9114099513316
 21
36.2063497103679
 62
7
  0
LINE
  6
BYLAYER
  8
0
 10
-55.9361761542995
 11
-55.9361761542995
 20
36.2063497103679
 21
20.2421328428978
 62
7
  0
LINE
  6
BYLAYER
  8
0
 10
-55.9361761542995
 11
-55.6435255518899
 20
20.2421328428978
 21
19.5379159754281
 62
7
  0
LINE
  6
BYLAYER
  8
0
 10
-55.6435255518899
 11
-54.9393086844199
 20
19.5379159754281
 21
19.2452653730185
 62
7
  0
LINE
  6
BYLAYER
  8
0
 10
-54.9393086844199
 11
-54.9393086844199
 20
19.2452653730185
 21
19.2452653730185
 62
7
  0
LINE
  6
BYLAYER
  8
0
 10
-54.9393086844199
 11
-54.9393086844199
 20
19.2452653730185
 21
19.2452653730185
 62
7
  0
LINE
  6
BYLAYER
  8
0
 10
-69.850995431408
 11
-69.145935190444
 20
-2.80895149445149
 21
-2.5163008920419
 62
7
  0
LINE
  6
BYLAYER
  8
0
 10
-69.145935190444
 11
-68.8532845880344
 20
-2.5163008920419
 21
-1.81208402457202
 62
7
  0
LINE
  6
BYLAYER
  8
0
 10
-68.8532845880344
 11
-68.8532845880344
 20
-1.81208402457202
 21
14.152132842898
 62
7
  0
LINE
  6
BYLAYER
  8
0
 10
-68.8532845880344
 11
-69.145935190444
 20
14.152132842898
 21
14.8571930838618
 62
7
  0
LINE
  6
BYLAYER
  8
0
 10
-69.145935190444
 11
-69.850995431408
 20
14.8571930838618
 21
15.1498436862715
 62
7
  0
LINE
  6
BYLAYER
  8
0
 10
-69.850995431408
 11
-69.850995431408
 20
15.1498436862715
 21
15.1498436862715
 62
7
  0
LINE
  6
BYLAYER
  8
0
 10
-69.850995431408
 11
-70.5602725398417
 20
15.1498436862715
 21
14.8571930838618
 62
7
  0
LINE
  6
BYLAYER
  8
0
 10
-70.5602725398417
 11
-70.8487062747814
 20
14.8571930838618
 21
14.152132842898
 62
7
  0
LINE
  6
BYLAYER
  8
0
 10
-70.8487062747814
 11
-70.8487062747814
 20
14.152132842898
 21
-1.81208402457202
 62
7
  0
LINE
  6
BYLAYER
  8
0
 10
-70.8487062747814
 11
-70.5602725398417
 20
-1.81208402457202
 21
-2.5163008920419
 62
7
  0
LINE
  6
BYLAYER
  8
0
 10
-70.5602725398417
 11
-69.850995431408
 20
-2.5163008920419
 21
-2.80895149445149
 62
7
  0
LINE
  6
BYLAYER
  8
0
 10
-69.850995431408
 11
-69.850995431408
 20
-2.80895149445149
 21
-2.80895149445149
 62
7
  0
LINE
  6
BYLAYER
  8
0
 10
-69.850995431408
 11
-69.850995431408
 20
-2.80895149445149
 21
-2.80895149445149
 62
7
  0
LINE
  6
BYLAYER
  8
0
 10
-64.9324412145404
 11
-64.2273809735766
 20
19.3000846501268
 21
19.5927352525364
 62
7
  0
LINE
  6
BYLAYER
  8
0
 10
-64.2273809735766
 11
-63.9347303711669
 20
19.5927352525364
 21
20.2969521200063
 62
7
  0
LINE
  6
BYLAYER
  8
0
 10
-63.9347303711669
 11
-63.9347303711669
 20
20.2969521200063
 21
36.2611689874763
 62
7
  0
LINE
  6
BYLAYER
  8
0
 10
-63.9347303711669
 11
-64.2273809735766
 20
36.2611689874763
 21
36.9662292284402
 62
7
  0
LINE
  6
BYLAYER
  8
0
 10
-64.2273809735766
 11
-64.9324412145404
 20
36.9662292284402
 21
37.2588798308497
 62
7
  0
LINE
  6
BYLAYER
  8
0
 10
-64.9324412145404
 11
-64.9324412145404
 20
37.2588798308497
 21
37.2588798308497
 62
7
  0
LINE
  6
BYLAYER
  8
0
 10
-64.9324412145404
 11
-65.6366580820104
 20
37.2588798308497
 21
36.9662292284402
 62
7
  0
LINE
  6
BYLAYER
  8
0
 10
-65.6366580820104
 11
-65.92930868442
 20
36.9662292284402
 21
36.2611689874763
 62
7
  0
LINE
  6
BYLAYER
  8
0
 10
-65.92930868442
 11
-65.92930868442
 20
36.2611689874763
 21
20.2969521200063
 62
7
  0
LINE
  6
BYLAYER
  8
0
 10
-65.92930868442
 11
-65.6366580820104
 20
20.2969521200063
 21
19.5927352525364
 62
7
  0
LINE
  6
BYLAYER
  8
0
 10
-65.6366580820104
 11
-64.9324412145404
 20
19.5927352525364
 21
19.3000846501268
 62
7
  0
LINE
  6
BYLAYER
  8
0
 10
-64.9324412145404
 11
-64.9324412145404
 20
19.3000846501268
 21
19.3000846501268
 62
7
  0
LINE
  6
BYLAYER
  8
0
 10
-64.9324412145404
 11
-64.9324412145404
 20
19.3000846501268
 21
19.3000846501268
 62
7
  0
LINE
  6
BYLAYER
  8
0
 10
-74.8387062747815
 11
-74.1336460338175
 20
-2.80895149445149
 21
-2.5163008920419
 62
7
  0
LINE
  6
BYLAYER
  8
0
 10
-74.1336460338175
 11
-73.840995431408
 20
-2.5163008920419
 21
-1.81208402457202
 62
7
  0
LINE
  6
BYLAYER
  8
0
 10
-73.840995431408
 11
-73.840995431408
 20
-1.81208402457202
 21
14.152132842898
 62
7
  0
LINE
  6
BYLAYER
  8
0
 10
-73.840995431408
 11
-74.1336460338175
 20
14.152132842898
 21
14.8571930838618
 62
7
  0
LINE
  6
BYLAYER
  8
0
 10
-74.1336460338175
 11
-74.8387062747815
 20
14.8571930838618
 21
15.1498436862715
 62
7
  0
LINE
  6
BYLAYER
  8
0
 10
-74.8387062747815
 11
-74.8387062747815
 20
15.1498436862715
 21
15.1498436862715
 62
7
  0
LINE
  6
BYLAYER
  8
0
 10
-74.8387062747815
 11
-75.5429231422513
 20
15.1498436862715
 21
14.8571930838618
 62
7
  0
LINE
  6
BYLAYER
  8
0
 10
-75.5429231422513
 11
-75.835573744661
 20
14.8571930838618
 21
14.152132842898
 62
7
  0
LINE
  6
BYLAYER
  8
0
 10
-75.835573744661
 11
-75.835573744661
 20
14.152132842898
 21
-1.81208402457202
 62
7
  0
LINE
  6
BYLAYER
  8
0
 10
-75.835573744661
 11
-75.5429231422513
 20
-1.81208402457202
 21
-2.5163008920419
 62
7
  0
LINE
  6
BYLAYER
  8
0
 10
-75.5429231422513
 11
-74.8387062747815
 20
-2.5163008920419
 21
-2.80895149445149
 62
7
  0
LINE
  6
BYLAYER
  8
0
 10
-74.8387062747815
 11
-74.8387062747815
 20
-2.80895149445149
 21
-2.80895149445149
 62
7
  0
LINE
  6
BYLAYER
  8
0
 10
-74.8387062747815
 11
-74.8387062747815
 20
-2.80895149445149
 21
-2.80895149445149
 62
7
  0
LINE
  6
BYLAYER
  8
0
 10
-79.9352122988778
 11
-79.2309954314079
 20
-2.79124065107794
 21
-2.4985900486684
 62
7
  0
LINE
  6
BYLAYER
  8
0
 10
-79.2309954314079
 11
-78.9383448289983
 20
-2.4985900486684
 21
-1.79352980770449
 62
7
  0
LINE
  6
BYLAYER
  8
0
 10
-78.9383448289983
 11
-78.9383448289983
 20
-1.79352980770449
 21
14.1706870597654
 62
7
  0
LINE
  6
BYLAYER
  8
0
 10
-78.9383448289983
 11
-79.2309954314079
 20
14.1706870597654
 21
14.8791207947051
 62
7
  0
LINE
  6
BYLAYER
  8
0
 10
-79.2309954314079
 11
-79.9352122988778
 20
14.8791207947051
 21
15.167554529645
 62
7
  0
LINE
  6
BYLAYER
  8
0
 10
-79.9352122988778
 11
-79.9352122988778
 20
15.167554529645
 21
15.167554529645
 62
7
  0
LINE
  6
BYLAYER
  8
0
 10
-79.9352122988778
 11
-80.6401882024922
 20
15.167554529645
 21
14.8791207947051
 62
7
  0
LINE
  6
BYLAYER
  8
0
 10
-80.6401882024922
 11
-80.9330074796007
 20
14.8791207947051
 21
14.1706870597654
 62
7
  0
LINE
  6
BYLAYER
  8
0
 10
-80.9330074796007
 11
-80.9330074796007
 20
14.1706870597654
 21
-1.79352980770449
 62
7
  0
LINE
  6
BYLAYER
  8
0
 10
-80.9330074796007
 11
-80.6401882024922
 20
-1.79352980770449
 21
-2.4985900486684
 62
7
  0
LINE
  6
BYLAYER
  8
0
 10
-80.6401882024922
 11
-79.9352122988778
 20
-2.4985900486684
 21
-2.79124065107794
 62
7
  0
LINE
  6
BYLAYER
  8
0
 10
-79.9352122988778
 11
-79.9352122988778
 20
-2.79124065107794
 21
-2.79124065107794
 62
7
  0
LINE
  6
BYLAYER
  8
0
 10
-79.9352122988778
 11
-79.9352122988778
 20
-2.79124065107794
 21
-2.79124065107794
 62
7
  0
LINE
  6
BYLAYER
  8
0
 10
-79.8854532627332
 11
-79.1803930217694
 20
19.2494822404884
 21
19.5429762163919
 62
7
  0
LINE
  6
BYLAYER
  8
0
 10
-79.1803930217694
 11
-78.8877424193597
 20
19.5429762163919
 21
20.2463497103679
 62
7
  0
LINE
  6
BYLAYER
  8
0
 10
-78.8877424193597
 11
-78.8877424193597
 20
20.2463497103679
 21
36.2105665778377
 62
7
  0
LINE
  6
BYLAYER
  8
0
 10
-78.8877424193597
 11
-79.1803930217694
 20
36.2105665778377
 21
36.9164701922955
 62
7
  0
LINE
  6
BYLAYER
  8
0
 10
-79.1803930217694
 11
-79.8854532627332
 20
36.9164701922955
 21
37.2091207947052
 62
7
  0
LINE
  6
BYLAYER
  8
0
 10
-79.8854532627332
 11
-79.8854532627332
 20
37.2091207947052
 21
37.2091207947052
 62
7
  0
LINE
  6
BYLAYER
  8
0
 10
-79.8854532627332
 11
-80.5899231422513
 20
37.2091207947052
 21
36.9164701922955
 62
7
  0
LINE
  6
BYLAYER
  8
0
 10
-80.5899231422513
 11
-80.8827424193597
 20
36.9164701922955
 21
36.2105665778377
 62
7
  0
LINE
  6
BYLAYER
  8
0
 10
-80.8827424193597
 11
-80.8827424193597
 20
36.2105665778377
 21
20.2463497103679
 62
7
  0
LINE
  6
BYLAYER
  8
0
 10
-80.8827424193597
 11
-80.5899231422513
 20
20.2463497103679
 21
19.5429762163919
 62
7
  0
LINE
  6
BYLAYER
  8
0
 10
-80.5899231422513
 11
-79.8854532627332
 20
19.5429762163919
 21
19.2494822404884
 62
7
  0
LINE
  6
BYLAYER
  8
0
 10
-79.8854532627332
 11
-79.8854532627332
 20
19.2494822404884
 21
19.2494822404884
 62
7
  0
LINE
  6
BYLAYER
  8
0
 10
-79.8854532627332
 11
-79.8854532627332
 20
19.2494822404884
 21
19.2494822404884
 62
7
  0
LINE
  6
BYLAYER
  8
0
 10
103.577799749315
 11
104.149606978231
 20
-25.3902767956562
 21
-24.8142526992708
 62
7
  0
LINE
  6
BYLAYER
  8
0
 10
104.149606978231
 11
105.165028664978
 20
-24.8142526992708
 21
-25.7967828197528
 62
7
  0
LINE
  6
BYLAYER
  8
0
 10
105.165028664978
 11
106.158522640881
 20
-25.7967828197528
 21
-24.8319635426443
 62
7
  0
LINE
  6
BYLAYER
  8
0
 10
106.158522640881
 11
106.780088905941
 20
-24.8319635426443
 21
-25.4535298077045
 62
7
  0
LINE
  6
BYLAYER
  8
0
 10
106.780088905941
 11
105.783221436062
 20
-25.4535298077045
 21
-26.4200358318009
 62
7
  0
LINE
  6
BYLAYER
  8
0
 10
105.783221436062
 11
106.734546737267
 20
-26.4200358318009
 21
-27.3663008920419
 62
7
  0
LINE
  6
BYLAYER
  8
0
 10
106.734546737267
 11
106.158522640881
 20
-27.3663008920419
 21
-27.9431683619213
 62
7
  0
LINE
  6
BYLAYER
  8
0
 10
106.158522640881
 11
105.210570833652
 20
-27.9431683619213
 21
-26.9918430607165
 62
7
  0
LINE
  6
BYLAYER
  8
0
 10
105.210570833652
 11
104.245751556544
 20
-26.9918430607165
 21
-27.9895539040901
 62
7
  0
LINE
  6
BYLAYER
  8
0
 10
104.245751556544
 11
103.62334191799
 20
-27.9895539040901
 21
-27.3663008920419
 62
7
  0
LINE
  6
BYLAYER
  8
0
 10
103.62334191799
 11
104.589004568592
 20
-27.3663008920419
 21
-26.3694334221623
 62
7
  0
LINE
  6
BYLAYER
  8
0
 10
104.589004568592
 11
103.577799749315
 20
-26.3694334221623
 21
-25.3902767956562
 62
7
  0
LINE
  6
BYLAYER
  8
0
 10
103.577799749315
 11
103.577799749315
 20
-25.3902767956562
 21
-25.3902767956562
 62
7
  0
LINE
  6
BYLAYER
  8
0
 10
106.959727460158
 11
107.686715411966
 20
-28.1489514944515
 21
-26.382927398066
 62
7
  0
LINE
  6
BYLAYER
  8
0
 10
107.686715411966
 11
106.959727460158
 20
-26.382927398066
 21
-24.6219635426443
 62
7
  0
LINE
  6
BYLAYER
  8
0
 10
106.959727460158
 11
105.192859990279
 20
-24.6219635426443
 21
-23.8899153498732
 62
7
  0
LINE
  6
BYLAYER
  8
0
 10
105.192859990279
 11
103.431052761363
 20
-23.8899153498732
 21
-24.6219635426443
 62
7
  0
LINE
  6
BYLAYER
  8
0
 10
103.431052761363
 11
102.699004568592
 20
-24.6219635426443
 21
-26.382927398066
 62
7
  0
LINE
  6
BYLAYER
  8
0
 10
102.699004568592
 11
103.431052761363
 20
-26.382927398066
 21
-28.1489514944515
 62
7
  0
LINE
  6
BYLAYER
  8
0
 10
103.431052761363
 11
105.192859990279
 20
-28.1489514944515
 21
-28.8767828197526
 62
7
  0
LINE
  6
BYLAYER
  8
0
 10
105.192859990279
 11
106.959727460158
 20
-28.8767828197526
 21
-28.1489514944515
 62
7
  0
LINE
  6
BYLAYER
  8
0
 10
106.959727460158
 11
106.959727460158
 20
-28.1489514944515
 21
-28.1489514944515
 62
7
  0
LINE
  6
BYLAYER
  8
0
 10
105.192859990279
 11
106.552378062568
 20
-29.8787105305961
 21
-29.600397277584
 62
7
  0
LINE
  6
BYLAYER
  8
0
 10
106.552378062568
 11
107.658884086664
 20
-29.600397277584
 21
-28.8540117354154
 62
7
  0
LINE
  6
BYLAYER
  8
0
 10
107.658884086664
 11
108.409486496303
 20
-28.8540117354154
 21
-27.7424454703551
 62
7
  0
LINE
  6
BYLAYER
  8
0
 10
108.409486496303
 11
108.683582881845
 20
-27.7424454703551
 21
-26.3871442655358
 62
7
  0
LINE
  6
BYLAYER
  8
0
 10
108.683582881845
 11
107.658884086664
 20
-26.3871442655358
 21
-23.9169033016803
 62
7
  0
LINE
  6
BYLAYER
  8
0
 10
107.658884086664
 11
105.192859990279
 20
-23.9169033016803
 21
-22.8964213739696
 62
7
  0
LINE
  6
BYLAYER
  8
0
 10
105.192859990279
 11
103.834185291484
 20
-22.8964213739696
 21
-23.1663008920418
 62
7
  0
LINE
  6
BYLAYER
  8
0
 10
103.834185291484
 11
102.721775652929
 20
-23.1663008920418
 21
-23.9169033016803
 62
7
  0
LINE
  6
BYLAYER
  8
0
 10
102.721775652929
 11
101.976233484255
 20
-23.9169033016803
 21
-25.0242526992707
 62
7
  0
LINE
  6
BYLAYER
  8
0
 10
101.976233484255
 11
101.701293725219
 20
-25.0242526992707
 21
-26.3871442655358
 62
7
  0
LINE
  6
BYLAYER
  8
0
 10
101.701293725219
 11
101.976233484255
 20
-26.3871442655358
 21
-27.7424454703551
 62
7
  0
LINE
  6
BYLAYER
  8
0
 10
101.976233484255
 11
102.721775652929
 20
-27.7424454703551
 21
-28.8540117354154
 62
7
  0
LINE
  6
BYLAYER
  8
0
 10
102.721775652929
 11
103.834185291484
 20
-28.8540117354154
 21
-29.600397277584
 62
7
  0
LINE
  6
BYLAYER
  8
0
 10
103.834185291484
 11
105.192859990279
 20
-29.600397277584
 21
-29.8787105305961
 62
7
  0
LINE
  6
BYLAYER
  8
0
 10
105.192859990279
 11
105.192859990279
 20
-29.8787105305961
 21
-29.8787105305961
 62
7
  0
LINE
  6
BYLAYER
  8
0
 10
-88.0115255518898
 11
-87.4349954314079
 20
62.2514099513317
 21
62.8274340477172
 62
7
  0
LINE
  6
BYLAYER
  8
0
 10
-87.4349954314079
 11
-86.4282604916489
 20
62.8274340477172
 21
61.8440605537413
 62
7
  0
LINE
  6
BYLAYER
  8
0
 10
-86.4282604916489
 11
-85.430886997673
 20
61.8440605537413
 21
62.8088798308497
 62
7
  0
LINE
  6
BYLAYER
  8
0
 10
-85.430886997673
 11
-84.8085616964681
 20
62.8088798308497
 21
62.1864701922955
 62
7
  0
LINE
  6
BYLAYER
  8
0
 10
-84.8085616964681
 11
-85.801465310926
 20
62.1864701922955
 21
61.221650915187
 62
7
  0
LINE
  6
BYLAYER
  8
0
 10
-85.801465310926
 11
-84.854356877191
 20
61.221650915187
 21
60.2736991079581
 62
7
  0
LINE
  6
BYLAYER
  8
0
 10
-84.854356877191
 11
-85.430886997673
 20
60.2736991079581
 21
59.6976750115726
 62
7
  0
LINE
  6
BYLAYER
  8
0
 10
-85.430886997673
 11
-86.3780797687573
 20
59.6976750115726
 21
60.6490003127774
 62
7
  0
LINE
  6
BYLAYER
  8
0
 10
-86.3780797687573
 11
-87.3434894073115
 20
60.6490003127774
 21
59.6521328428979
 62
7
  0
LINE
  6
BYLAYER
  8
0
 10
-87.3434894073115
 11
-87.9657303711669
 20
59.6521328428979
 21
60.2736991079581
 62
7
  0
LINE
  6
BYLAYER
  8
0
 10
-87.9657303711669
 11
-87.0002363952633
 20
60.2736991079581
 21
61.2722533248256
 62
7
  0
LINE
  6
BYLAYER
  8
0
 10
-87.0002363952633
 11
-88.0115255518898
 20
61.2722533248256
 21
62.2514099513317
 62
7
  0
LINE
  6
BYLAYER
  8
0
 10
-88.0115255518898
 11
-88.0115255518898
 20
62.2514099513317
 21
62.2514099513317
 62
7
  0
LINE
  6
BYLAYER
  8
0
 10
-84.6301882024922
 11
-83.9026098892392
 20
59.4918918790424
 21
61.2579159754281
 62
7
  0
LINE
  6
BYLAYER
  8
0
 10
-83.9026098892392
 11
-84.6301882024922
 20
61.2579159754281
 21
63.0197232043437
 62
7
  0
LINE
  6
BYLAYER
  8
0
 10
-84.6301882024922
 11
-86.3962966362272
 20
63.0197232043437
 21
63.7517713971147
 62
7
  0
LINE
  6
BYLAYER
  8
0
 10
-86.3962966362272
 11
-88.1579351904441
 20
63.7517713971147
 21
63.0197232043437
 62
7
  0
LINE
  6
BYLAYER
  8
0
 10
-88.1579351904441
 11
-88.8899833832151
 20
63.0197232043437
 21
61.2579159754281
 62
7
  0
LINE
  6
BYLAYER
  8
0
 10
-88.8899833832151
 11
-88.1579351904441
 20
61.2579159754281
 21
59.4918918790424
 62
7
  0
LINE
  6
BYLAYER
  8
0
 10
-88.1579351904441
 11
-86.3962966362272
 20
59.4918918790424
 21
58.7640605537412
 62
7
  0
LINE
  6
BYLAYER
  8
0
 10
-86.3962966362272
 11
-84.6301882024922
 20
58.7640605537412
 21
59.4918918790424
 62
7
  0
LINE
  6
BYLAYER
  8
0
 10
-84.6301882024922
 11
-84.6301882024922
 20
59.4918918790424
 21
59.4918918790424
 62
7
  0
LINE
  6
BYLAYER
  8
0
 10
-86.3962966362272
 11
-85.0372845880344
 20
57.7629762163919
 21
58.0412894694039
 62
7
  0
LINE
  6
BYLAYER
  8
0
 10
-85.0372845880344
 11
-83.9300195277934
 20
58.0412894694039
 21
58.7876750115726
 62
7
  0
LINE
  6
BYLAYER
  8
0
 10
-83.9300195277934
 11
-83.1796701302031
 20
58.7876750115726
 21
59.8992412766328
 62
7
  0
LINE
  6
BYLAYER
  8
0
 10
-83.1796701302031
 11
-82.9050677205645
 20
59.8992412766328
 21
61.2536991079583
 62
7
  0
LINE
  6
BYLAYER
  8
0
 10
-82.9050677205645
 11
-83.9300195277934
 20
61.2536991079583
 21
63.7239400718136
 62
7
  0
LINE
  6
BYLAYER
  8
0
 10
-83.9300195277934
 11
-86.3962966362272
 20
63.7239400718136
 21
64.7435786260304
 62
7
  0
LINE
  6
BYLAYER
  8
0
 10
-86.3962966362272
 11
-87.7552243470706
 20
64.7435786260304
 21
64.4745424814521
 62
7
  0
LINE
  6
BYLAYER
  8
0
 10
-87.7552243470706
 11
-88.8672122988778
 20
64.4745424814521
 21
63.7239400718136
 62
7
  0
LINE
  6
BYLAYER
  8
0
 10
-88.8672122988778
 11
-89.6130074796007
 20
63.7239400718136
 21
62.6165906742232
 62
7
  0
LINE
  6
BYLAYER
  8
0
 10
-89.6130074796007
 11
-89.8875255518898
 20
62.6165906742232
 21
61.2536991079583
 62
7
  0
LINE
  6
BYLAYER
  8
0
 10
-89.8875255518898
 11
-89.6130074796007
 20
61.2536991079583
 21
59.8992412766328
 62
7
  0
LINE
  6
BYLAYER
  8
0
 10
-89.6130074796007
 11
-88.8672122988778
 20
59.8992412766328
 21
58.7876750115726
 62
7
  0
LINE
  6
BYLAYER
  8
0
 10
-88.8672122988778
 11
-87.7552243470706
 20
58.7876750115726
 21
58.0412894694039
 62
7
  0
LINE
  6
BYLAYER
  8
0
 10
-87.7552243470706
 11
-86.3962966362272
 20
58.0412894694039
 21
57.7629762163919
 62
7
  0
LINE
  6
BYLAYER
  8
0
 10
-86.3962966362272
 11
-86.3962966362272
 20
57.7629762163919
 21
57.7629762163919
 62
7
  0
LINE
  6
BYLAYER
  8
0
 10
9.89165517100174
 11
9.89165517100174
 20
-36.4772647474636
 21
-37.6706382414395
 62
7
  0
LINE
  6
BYLAYER
  8
0
 10
9.89165517100174
 11
22.9150286649776
 20
-37.6706382414395
 21
-37.6706382414395
 62
7
  0
LINE
  6
BYLAYER
  8
0
 10
22.9150286649776
 11
22.9150286649776
 20
-37.6706382414395
 21
-36.4899153498732
 62
7
  0
LINE
  6
BYLAYER
  8
0
 10
22.9150286649776
 11
9.89165517100174
 20
-36.4899153498732
 21
-36.4772647474636
 62
7
  0
LINE
  6
BYLAYER
  8
0
 10
9.89165517100174
 11
9.89165517100174
 20
-36.4772647474636
 21
-36.4772647474636
 62
7
  0
LINE
  6
BYLAYER
  8
0
 10
9.89165517100174
 11
9.89165517100174
 20
-36.4772647474636
 21
-37.6706382414395
 62
7
  0
LINE
  6
BYLAYER
  8
0
 10
9.89165517100174
 11
22.9150286649776
 20
-37.6706382414395
 21
-37.6706382414395
 62
7
  0
LINE
  6
BYLAYER
  8
0
 10
22.9150286649776
 11
22.9150286649776
 20
-37.6706382414395
 21
-36.4899153498732
 62
7
  0
LINE
  6
BYLAYER
  8
0
 10
22.9150286649776
 11
9.89165517100174
 20
-36.4899153498732
 21
-36.4772647474636
 62
7
  0
LINE
  6
BYLAYER
  8
0
 10
9.89165517100174
 11
9.89165517100174
 20
-36.4772647474636
 21
-36.4772647474636
 62
7
  0
LINE
  6
BYLAYER
  8
0
 10
-78.9476219374321
 11
98.6685226408812
 20
69.2918918790425
 21
69.2918918790425
 62
7
  0
LINE
  6
BYLAYER
  8
0
 10
-39.0391882024923
 11
98.6685226408812
 20
-34.6150960727647
 21
-34.637023783608
 62
7
  0
LINE
  6
BYLAYER
  8
0
 10
-88.0115255518898
 11
-87.4395496482754
 20
-25.3902767956562
 21
-24.8142526992708
 62
7
  0
LINE
  6
BYLAYER
  8
0
 10
-87.4395496482754
 11
-86.4282604916489
 20
-24.8142526992708
 21
-25.7967828197528
 62
7
  0
LINE
  6
BYLAYER
  8
0
 10
-86.4282604916489
 11
-85.430886997673
 20
-25.7967828197528
 21
-24.8319635426443
 62
7
  0
LINE
  6
BYLAYER
  8
0
 10
-85.430886997673
 11
-84.8085616964681
 20
-24.8319635426443
 21
-25.4535298077045
 62
7
  0
LINE
  6
BYLAYER
  8
0
 10
-84.8085616964681
 11
-85.801465310926
 20
-25.4535298077045
 21
-26.4200358318009
 62
7
  0
LINE
  6
BYLAYER
  8
0
 10
-85.801465310926
 11
-84.854356877191
 20
-26.4200358318009
 21
-27.3663008920419
 62
7
  0
LINE
  6
BYLAYER
  8
0
 10
-84.854356877191
 11
-85.430886997673
 20
-27.3663008920419
 21
-27.9431683619213
 62
7
  0
LINE
  6
BYLAYER
  8
0
 10
-85.430886997673
 11
-86.3780797687573
 20
-27.9431683619213
 21
-26.9918430607165
 62
7
  0
LINE
  6
BYLAYER
  8
0
 10
-86.3780797687573
 11
-87.3434894073115
 20
-26.9918430607165
 21
-27.9895539040901
 62
7
  0
LINE
  6
BYLAYER
  8
0
 10
-87.3434894073115
 11
-87.9657303711669
 20
-27.9895539040901
 21
-27.3663008920419
 62
7
  0
LINE
  6
BYLAYER
  8
0
 10
-87.9657303711669
 11
-87.0002363952633
 20
-27.3663008920419
 21
-26.3694334221623
 62
7
  0
LINE
  6
BYLAYER
  8
0
 10
-87.0002363952633
 11
-88.0115255518898
 20
-26.3694334221623
 21
-25.3902767956562
 62
7
  0
LINE
  6
BYLAYER
  8
0
 10
-88.0115255518898
 11
-88.0115255518898
 20
-25.3902767956562
 21
-25.3902767956562
 62
7
  0
LINE
  6
BYLAYER
  8
0
 10
-84.6301882024922
 11
-83.9026098892392
 20
-28.1489514944515
 21
-26.382927398066
 62
7
  0
LINE
  6
BYLAYER
  8
0
 10
-83.9026098892392
 11
-84.6301882024922
 20
-26.382927398066
 21
-24.6219635426443
 62
7
  0
LINE
  6
BYLAYER
  8
0
 10
-84.6301882024922
 11
-86.3962966362272
 20
-24.6219635426443
 21
-23.8932888438491
 62
7
  0
LINE
  6
BYLAYER
  8
0
 10
-86.3962966362272
 11
-88.1579351904441
 20
-23.8932888438491
 21
-24.6219635426443
 62
7
  0
LINE
  6
BYLAYER
  8
0
 10
-88.1579351904441
 11
-88.8899833832151
 20
-24.6219635426443
 21
-26.382927398066
 62
7
  0
LINE
  6
BYLAYER
  8
0
 10
-88.8899833832151
 11
-88.1579351904441
 20
-26.382927398066
 21
-28.1489514944515
 62
7
  0
LINE
  6
BYLAYER
  8
0
 10
-88.1579351904441
 11
-86.3962966362272
 20
-28.1489514944515
 21
-28.8767828197526
 62
7
  0
LINE
  6
BYLAYER
  8
0
 10
-86.3962966362272
 11
-84.6301882024922
 20
-28.8767828197526
 21
-28.1489514944515
 62
7
  0
LINE
  6
BYLAYER
  8
0
 10
-84.6301882024922
 11
-84.6301882024922
 20
-28.1489514944515
 21
-28.1489514944515
 62
7
  0
LINE
  6
BYLAYER
  8
0
 10
-86.3962966362272
 11
-85.0372845880344
 20
-29.8787105305961
 21
-29.600397277584
 62
7
  0
LINE
  6
BYLAYER
  8
0
 10
-85.0372845880344
 11
-83.9300195277934
 20
-29.600397277584
 21
-28.8540117354154
 62
7
  0
LINE
  6
BYLAYER
  8
0
 10
-83.9300195277934
 11
-83.1796701302031
 20
-28.8540117354154
 21
-27.7424454703551
 62
7
  0
LINE
  6
BYLAYER
  8
0
 10
-83.1796701302031
 11
-82.9050677205645
 20
-27.7424454703551
 21
-26.3871442655358
 62
7
  0
LINE
  6
BYLAYER
  8
0
 10
-82.9050677205645
 11
-83.9300195277934
 20
-26.3871442655358
 21
-23.9169033016803
 62
7
  0
LINE
  6
BYLAYER
  8
0
 10
-83.9300195277934
 11
-86.3962966362272
 20
-23.9169033016803
 21
-22.8964213739696
 62
7
  0
LINE
  6
BYLAYER
  8
0
 10
-86.3962966362272
 11
-87.7552243470706
 20
-22.8964213739696
 21
-23.1663008920418
 62
7
  0
LINE
  6
BYLAYER
  8
0
 10
-87.7552243470706
 11
-88.8672122988778
 20
-23.1663008920418
 21
-23.9169033016803
 62
7
  0
LINE
  6
BYLAYER
  8
0
 10
-88.8672122988778
 11
-89.6130074796007
 20
-23.9169033016803
 21
-25.0242526992707
 62
7
  0
LINE
  6
BYLAYER
  8
0
 10
-89.6130074796007
 11
-89.8875255518898
 20
-25.0242526992707
 21
-26.3871442655358
 62
7
  0
LINE
  6
BYLAYER
  8
0
 10
-89.8875255518898
 11
-89.6130074796007
 20
-26.3871442655358
 21
-27.7424454703551
 62
7
  0
LINE
  6
BYLAYER
  8
0
 10
-89.6130074796007
 11
-88.8672122988778
 20
-27.7424454703551
 21
-28.8540117354154
 62
7
  0
LINE
  6
BYLAYER
  8
0
 10
-88.8672122988778
 11
-87.7552243470706
 20
-28.8540117354154
 21
-29.600397277584
 62
7
  0
LINE
  6
BYLAYER
  8
0
 10
-87.7552243470706
 11
-86.3962966362272
 20
-29.600397277584
 21
-29.8787105305961
 62
7
  0
LINE
  6
BYLAYER
  8
0
 10
-86.3962966362272
 11
-86.3962966362272
 20
-29.8787105305961
 21
-29.8787105305961
 62
7
  0
LINE
  6
BYLAYER
  8
0
 10
103.692498544496
 11
104.269366014375
 20
62.6030966983197
 21
63.1757473007292
 62
7
  0
LINE
  6
BYLAYER
  8
0
 10
104.269366014375
 11
105.279727460158
 20
63.1757473007292
 21
62.1965906742232
 62
7
  0
LINE
  6
BYLAYER
  8
0
 10
105.279727460158
 11
106.278281677026
 20
62.1965906742232
 21
63.1614099513317
 62
7
  0
LINE
  6
BYLAYER
  8
0
 10
106.278281677026
 11
106.899847942086
 20
63.1614099513317
 21
62.5390003127774
 62
7
  0
LINE
  6
BYLAYER
  8
0
 10
106.899847942086
 11
105.902137098713
 20
62.5390003127774
 21
61.573337662175
 62
7
  0
LINE
  6
BYLAYER
  8
0
 10
105.902137098713
 11
106.849245532447
 20
61.573337662175
 21
60.6262292284401
 62
7
  0
LINE
  6
BYLAYER
  8
0
 10
106.849245532447
 11
106.278281677026
 20
60.6262292284401
 21
60.0502051320545
 62
7
  0
LINE
  6
BYLAYER
  8
0
 10
106.278281677026
 11
105.325269628833
 20
60.0502051320545
 21
60.9964701922956
 62
7
  0
LINE
  6
BYLAYER
  8
0
 10
105.325269628833
 11
104.364667219194
 20
60.9964701922956
 21
60.0046629633798
 62
7
  0
LINE
  6
BYLAYER
  8
0
 10
104.364667219194
 11
103.73804071317
 20
60.0046629633798
 21
60.6262292284401
 62
7
  0
LINE
  6
BYLAYER
  8
0
 10
103.73804071317
 11
104.703703363773
 20
60.6262292284401
 21
61.6188798308497
 62
7
  0
LINE
  6
BYLAYER
  8
0
 10
104.703703363773
 11
103.692498544496
 20
61.6188798308497
 21
62.6030966983197
 62
7
  0
LINE
  6
BYLAYER
  8
0
 10
103.692498544496
 11
103.692498544496
 20
62.6030966983197
 21
62.6030966983197
 62
7
  0
LINE
  6
BYLAYER
  8
0
 10
107.073582881845
 11
107.800570833652
 20
59.8444219995243
 21
61.6062292284402
 62
7
  0
LINE
  6
BYLAYER
  8
0
 10
107.800570833652
 11
107.073582881845
 20
61.6062292284402
 21
63.3671930838618
 62
7
  0
LINE
  6
BYLAYER
  8
0
 10
107.073582881845
 11
105.306715411966
 20
63.3671930838618
 21
64.0992412766328
 62
7
  0
LINE
  6
BYLAYER
  8
0
 10
105.306715411966
 11
103.546594930038
 20
64.0992412766328
 21
63.3671930838618
 62
7
  0
LINE
  6
BYLAYER
  8
0
 10
103.546594930038
 11
102.814546737267
 20
63.3671930838618
 21
61.6062292284402
 62
7
  0
LINE
  6
BYLAYER
  8
0
 10
102.814546737267
 11
103.546594930038
 20
61.6062292284402
 21
59.8444219995243
 62
7
  0
LINE
  6
BYLAYER
  8
0
 10
103.546594930038
 11
105.306715411966
 20
59.8444219995243
 21
59.1165906742233
 62
7
  0
LINE
  6
BYLAYER
  8
0
 10
105.306715411966
 11
107.073582881845
 20
59.1165906742233
 21
59.8444219995243
 62
7
  0
LINE
  6
BYLAYER
  8
0
 10
107.073582881845
 11
107.073582881845
 20
59.8444219995243
 21
59.8444219995243
 62
7
  0
LINE
  6
BYLAYER
  8
0
 10
105.311775652929
 11
106.667076857749
 20
58.1138195898859
 21
58.3896027224159
 62
7
  0
LINE
  6
BYLAYER
  8
0
 10
106.667076857749
 11
107.778643122809
 20
58.3896027224159
 21
59.1393617585605
 62
7
  0
LINE
  6
BYLAYER
  8
0
 10
107.778643122809
 11
108.524185291484
 20
59.1393617585605
 21
60.246711156151
 62
7
  0
LINE
  6
BYLAYER
  8
0
 10
108.524185291484
 11
108.80334191799
 20
60.246711156151
 21
61.6062292284402
 62
7
  0
LINE
  6
BYLAYER
  8
0
 10
108.80334191799
 11
108.524185291484
 20
61.6062292284402
 21
62.9649039272352
 62
7
  0
LINE
  6
BYLAYER
  8
0
 10
108.524185291484
 11
107.778643122809
 20
62.9649039272352
 21
64.0764701922955
 62
7
  0
LINE
  6
BYLAYER
  8
0
 10
107.778643122809
 11
106.667076857749
 20
64.0764701922955
 21
64.8220123609702
 62
7
  0
LINE
  6
BYLAYER
  8
0
 10
106.667076857749
 11
105.311775652929
 20
64.8220123609702
 21
65.0961087465125
 62
7
  0
LINE
  6
BYLAYER
  8
0
 10
105.311775652929
 11
103.94804071317
 20
65.0961087465125
 21
64.8220123609702
 62
7
  0
LINE
  6
BYLAYER
  8
0
 10
103.94804071317
 11
102.841534689074
 20
64.8220123609702
 21
64.0764701922955
 62
7
  0
LINE
  6
BYLAYER
  8
0
 10
102.841534689074
 11
102.090088905942
 20
64.0764701922955
 21
62.9649039272352
 62
7
  0
LINE
  6
BYLAYER
  8
0
 10
102.090088905942
 11
101.821052761363
 20
62.9649039272352
 21
61.6062292284402
 62
7
  0
LINE
  6
BYLAYER
  8
0
 10
101.821052761363
 11
102.841534689074
 20
61.6062292284402
 21
59.1393617585605
 62
7
  0
LINE
  6
BYLAYER
  8
0
 10
102.841534689074
 11
105.311775652929
 20
59.1393617585605
 21
58.1138195898859
 62
7
  0
LINE
  6
BYLAYER
  8
0
 10
105.311775652929
 11
105.311775652929
 20
58.1138195898859
 21
58.1138195898859
 62
7
  0
LINE
  6
BYLAYER
  8
0
 10
-78.9240074796007
 11
-78.9240074796007
 20
71.2788798308497
 21
59.3544219995245
 62
7
  0
LINE
  6
BYLAYER
  8
0
 10
-78.9240074796007
 11
98.6685226408812
 20
59.3544219995245
 21
59.3544219995245
 62
7
  0
LINE
  6
BYLAYER
  8
0
 10
98.6685226408812
 11
98.6685226408812
 20
59.3544219995245
 21
71.1000846501268
 62
7
  0
LINE
  6
BYLAYER
  8
0
 10
-51.0454532627332
 11
-49.0179833832151
 20
-19.4048551089093
 21
-19.4048551089093
 62
7
  0
LINE
  6
BYLAYER
  8
0
 10
-51.0083448289982
 11
-51.0083448289982
 20
-21.2543731811985
 21
-15.3836502896322
 62
7
  0
LINE
  6
BYLAYER
  8
0
 10
-51.0083448289982
 11
-50.7156942265887
 20
-15.3836502896322
 21
-14.6735298077045
 62
7
  0
LINE
  6
BYLAYER
  8
0
 10
-50.7156942265887
 11
-50.0114773591187
 20
-14.6735298077045
 21
-14.3859394462588
 62
7
  0
LINE
  6
BYLAYER
  8
0
 10
-50.0114773591187
 11
-50.0114773591187
 20
-14.3859394462588
 21
-14.3859394462588
 62
7
  0
LINE
  6
BYLAYER
  8
0
 10
-50.0114773591187
 11
-49.306417118155
 20
-14.3859394462588
 21
-14.6735298077045
 62
7
  0
LINE
  6
BYLAYER
  8
0
 10
-49.306417118155
 11
-49.0137665157452
 20
-14.6735298077045
 21
-15.3836502896322
 62
7
  0
LINE
  6
BYLAYER
  8
0
 10
-49.0137665157452
 11
-49.0137665157452
 20
-15.3836502896322
 21
-21.2956984824033
 62
7
  0
LINE
  6
BYLAYER
  8
0
 10
-46.0720797687573
 11
-44.0488267567091
 20
-19.4048551089093
 21
-19.4048551089093
 62
7
  0
LINE
  6
BYLAYER
  8
0
 10
-46.0349713350224
 11
-46.0349713350224
 20
-21.2543731811985
 21
-15.3836502896322
 62
7
  0
LINE
  6
BYLAYER
  8
0
 10
-46.0349713350224
 11
-45.7473809735767
 20
-15.3836502896322
 21
-14.6735298077045
 62
7
  0
LINE
  6
BYLAYER
  8
0
 10
-45.7473809735767
 11
-45.0372604916489
 20
-14.6735298077045
 21
-14.3859394462588
 62
7
  0
LINE
  6
BYLAYER
  8
0
 10
-45.0372604916489
 11
-45.0372604916489
 20
-14.3859394462588
 21
-14.3859394462588
 62
7
  0
LINE
  6
BYLAYER
  8
0
 10
-45.0372604916489
 11
-44.333043624179
 20
-14.3859394462588
 21
-14.6735298077045
 62
7
  0
LINE
  6
BYLAYER
  8
0
 10
-44.333043624179
 11
-44.0403930217694
 20
-14.6735298077045
 21
-15.3836502896322
 62
7
  0
LINE
  6
BYLAYER
  8
0
 10
-44.0403930217694
 11
-44.0403930217694
 20
-15.3836502896322
 21
-21.2956984824033
 62
7
  0
LINE
  6
BYLAYER
  8
0
 10
-41.1029231422513
 11
-39.0754532627333
 20
-19.4048551089093
 21
-19.4048551089093
 62
7
  0
LINE
  6
BYLAYER
  8
0
 10
-41.0649713350224
 11
-41.0649713350224
 20
-21.2543731811985
 21
-15.3836502896322
 62
7
  0
LINE
  6
BYLAYER
  8
0
 10
-41.0649713350224
 11
-40.7723207326128
 20
-15.3836502896322
 21
-14.6735298077045
 62
7
  0
LINE
  6
BYLAYER
  8
0
 10
-40.7723207326128
 11
-40.0681038651429
 20
-14.6735298077045
 21
-14.3859394462588
 62
7
  0
LINE
  6
BYLAYER
  8
0
 10
-40.0681038651429
 11
-40.0681038651429
 20
-14.3859394462588
 21
-14.3859394462588
 62
7
  0
LINE
  6
BYLAYER
  8
0
 10
-40.0681038651429
 11
-39.363043624179
 20
-14.3859394462588
 21
-14.6735298077045
 62
7
  0
LINE
  6
BYLAYER
  8
0
 10
-39.363043624179
 11
-39.0703930217693
 20
-14.6735298077045
 21
-15.3836502896322
 62
7
  0
LINE
  6
BYLAYER
  8
0
 10
-39.0703930217693
 11
-39.0703930217693
 20
-15.3836502896322
 21
-21.2956984824033
 62
7
  0
LINE
  6
BYLAYER
  8
0
 10
-36.0696701302032
 11
-34.046417118155
 20
-19.4925659522829
 21
-19.4925659522829
 62
7
  0
LINE
  6
BYLAYER
  8
0
 10
-36.0334050699621
 11
-36.0334050699621
 20
-21.341240651078
 21
-15.4705177595118
 62
7
  0
LINE
  6
BYLAYER
  8
0
 10
-36.0334050699621
 11
-35.7441279615284
 20
-15.4705177595118
 21
-14.7654575185478
 62
7
  0
LINE
  6
BYLAYER
  8
0
 10
-35.7441279615284
 11
-35.0348508530946
 20
-14.7654575185478
 21
-14.4719635426443
 62
7
  0
LINE
  6
BYLAYER
  8
0
 10
-35.0348508530946
 11
-35.0348508530946
 20
-14.4719635426443
 21
-14.4719635426443
 62
7
  0
LINE
  6
BYLAYER
  8
0
 10
-35.0348508530946
 11
-34.3297906121308
 20
-14.4719635426443
 21
-14.7654575185478
 62
7
  0
LINE
  6
BYLAYER
  8
0
 10
-34.3297906121308
 11
-34.0371400097212
 20
-14.7654575185478
 21
-15.4705177595118
 62
7
  0
LINE
  6
BYLAYER
  8
0
 10
-34.0371400097212
 11
-34.0371400097212
 20
-15.4705177595118
 21
-21.3867828197527
 62
7
  0
LINE
  6
BYLAYER
  8
0
 10
-31.0549713350224
 11
-29.0317183229742
 20
-19.4925659522829
 21
-19.4925659522829
 62
7
  0
LINE
  6
BYLAYER
  8
0
 10
-31.0178629012875
 11
-31.0178629012875
 20
-21.341240651078
 21
-15.4705177595118
 62
7
  0
LINE
  6
BYLAYER
  8
0
 10
-31.0178629012875
 11
-30.7243689253838
 20
-15.4705177595118
 21
-14.7654575185478
 62
7
  0
LINE
  6
BYLAYER
  8
0
 10
-30.7243689253838
 11
-30.0209954314079
 20
-14.7654575185478
 21
-14.4719635426443
 62
7
  0
LINE
  6
BYLAYER
  8
0
 10
-30.0209954314079
 11
-30.0209954314079
 20
-14.4719635426443
 21
-14.4719635426443
 62
7
  0
LINE
  6
BYLAYER
  8
0
 10
-30.0209954314079
 11
-29.3150918169502
 20
-14.4719635426443
 21
-14.7654575185478
 62
7
  0
LINE
  6
BYLAYER
  8
0
 10
-29.3150918169502
 11
-29.0224412145405
 20
-14.7654575185478
 21
-15.4705177595118
 62
7
  0
LINE
  6
BYLAYER
  8
0
 10
-29.0224412145405
 11
-29.0224412145405
 20
-15.4705177595118
 21
-21.3867828197527
 62
7
  0
LINE
  6
BYLAYER
  8
0
 10
-26.0394291663477
 11
-24.0178629012874
 20
-19.51955390409
 21
-19.51955390409
 62
7
  0
LINE
  6
BYLAYER
  8
0
 10
-26.0031641061068
 11
-26.0031641061068
 20
-21.3631683619213
 21
-15.4975057113189
 62
7
  0
LINE
  6
BYLAYER
  8
0
 10
-26.0031641061068
 11
-25.710513503697
 20
-15.4975057113189
 21
-14.7882286028852
 62
7
  0
LINE
  6
BYLAYER
  8
0
 10
-25.710513503697
 11
-25.0062966362272
 20
-14.7882286028852
 21
-14.5006382414393
 62
7
  0
LINE
  6
BYLAYER
  8
0
 10
-25.0062966362272
 11
-25.0062966362272
 20
-14.5006382414393
 21
-14.5006382414393
 62
7
  0
LINE
  6
BYLAYER
  8
0
 10
-25.0062966362272
 11
-24.3012363952634
 20
-14.5006382414393
 21
-14.7882286028852
 62
7
  0
LINE
  6
BYLAYER
  8
0
 10
-24.3012363952634
 11
-24.0077424193598
 20
-14.7882286028852
 21
-15.4975057113189
 62
7
  0
LINE
  6
BYLAYER
  8
0
 10
-24.0077424193598
 11
-24.0077424193598
 20
-15.4975057113189
 21
-21.4087105305961
 62
7
  0
LINE
  6
BYLAYER
  8
0
 10
-21.1115978410464
 11
-19.0900315759862
 20
-19.51955390409
 21
-19.51955390409
 62
7
  0
LINE
  6
BYLAYER
  8
0
 10
-21.0753327808055
 11
-21.0753327808055
 20
-21.3631683619213
 21
-15.4975057113189
 62
7
  0
LINE
  6
BYLAYER
  8
0
 10
-21.0753327808055
 11
-20.781838804902
 20
-15.4975057113189
 21
-14.7882286028852
 62
7
  0
LINE
  6
BYLAYER
  8
0
 10
-20.781838804902
 11
-20.076778563938
 20
-14.7882286028852
 21
-14.5006382414393
 62
7
  0
LINE
  6
BYLAYER
  8
0
 10
-20.076778563938
 11
-20.076778563938
 20
-14.5006382414393
 21
-14.5006382414393
 62
7
  0
LINE
  6
BYLAYER
  8
0
 10
-20.076778563938
 11
-19.3734050699622
 20
-14.5006382414393
 21
-14.7882286028852
 62
7
  0
LINE
  6
BYLAYER
  8
0
 10
-19.3734050699622
 11
-19.0799110940585
 20
-14.7882286028852
 21
-15.4975057113189
 62
7
  0
LINE
  6
BYLAYER
  8
0
 10
-19.0799110940585
 11
-19.0799110940585
 20
-15.4975057113189
 21
-21.4087105305961
 62
7
  0
LINE
  6
BYLAYER
  8
0
 10
-16.1373809735767
 11
-14.1158147085164
 20
-19.51955390409
 21
-19.51955390409
 62
7
  0
LINE
  6
BYLAYER
  8
0
 10
-16.1061761542995
 11
-16.1061761542995
 20
-21.3631683619213
 21
-15.4975057113189
 62
7
  0
LINE
  6
BYLAYER
  8
0
 10
-16.1061761542995
 11
-15.8135255518898
 20
-15.4975057113189
 21
-14.7882286028852
 62
7
  0
LINE
  6
BYLAYER
  8
0
 10
-15.8135255518898
 11
-15.1034050699621
 20
-14.7882286028852
 21
-14.5006382414393
 62
7
  0
LINE
  6
BYLAYER
  8
0
 10
-15.1034050699621
 11
-15.1034050699621
 20
-14.5006382414393
 21
-14.5006382414393
 62
7
  0
LINE
  6
BYLAYER
  8
0
 10
-15.1034050699621
 11
-14.3991882024922
 20
-14.5006382414393
 21
-14.7882286028852
 62
7
  0
LINE
  6
BYLAYER
  8
0
 10
-14.3991882024922
 11
-14.1065376000826
 20
-14.7882286028852
 21
-15.4975057113189
 62
7
  0
LINE
  6
BYLAYER
  8
0
 10
-14.1065376000826
 11
-14.1065376000826
 20
-15.4975057113189
 21
-21.4087105305961
 62
7
  0
LINE
  6
BYLAYER
  8
0
 10
-11.1235255518899
 11
-9.10027253984164
 20
-19.51955390409
 21
-19.51955390409
 62
7
  0
LINE
  6
BYLAYER
  8
0
 10
-11.087260491649
 11
-11.087260491649
 20
-21.3631683619213
 21
-15.4975057113189
 62
7
  0
LINE
  6
BYLAYER
  8
0
 10
-11.087260491649
 11
-10.7988267567092
 20
-15.4975057113189
 21
-14.7882286028852
 62
7
  0
LINE
  6
BYLAYER
  8
0
 10
-10.7988267567092
 11
-10.0887062747814
 20
-14.7882286028852
 21
-14.5006382414393
 62
7
  0
LINE
  6
BYLAYER
  8
0
 10
-10.0887062747814
 11
-10.0887062747814
 20
-14.5006382414393
 21
-14.5006382414393
 62
7
  0
LINE
  6
BYLAYER
  8
0
 10
-10.0887062747814
 11
-9.38533278080548
 20
-14.5006382414393
 21
-14.7882286028852
 62
7
  0
LINE
  6
BYLAYER
  8
0
 10
-9.38533278080548
 11
-9.09183880490197
 20
-14.7882286028852
 21
-15.4975057113189
 62
7
  0
LINE
  6
BYLAYER
  8
0
 10
-9.09183880490197
 11
-9.09183880490197
 20
-15.4975057113189
 21
-21.4087105305961
 62
7
  0
LINE
  6
BYLAYER
  8
0
 10
-6.15436892538388
 11
-4.12689904586573
 20
-19.51955390409
 21
-19.51955390409
 62
7
  0
LINE
  6
BYLAYER
  8
0
 10
-6.11810386514291
 11
-6.11810386514291
 20
-21.3631683619213
 21
-15.4975057113189
 62
7
  0
LINE
  6
BYLAYER
  8
0
 10
-6.11810386514291
 11
-5.82545326273329
 20
-15.4975057113189
 21
-14.7882286028852
 62
7
  0
LINE
  6
BYLAYER
  8
0
 10
-5.82545326273329
 11
-5.12039302176943
 20
-14.7882286028852
 21
-14.5006382414393
 62
7
  0
LINE
  6
BYLAYER
  8
0
 10
-5.12039302176943
 11
-5.12039302176943
 20
-14.5006382414393
 21
-14.5006382414393
 62
7
  0
LINE
  6
BYLAYER
  8
0
 10
-5.12039302176943
 11
-4.41448940731159
 20
-14.5006382414393
 21
-14.7882286028852
 62
7
  0
LINE
  6
BYLAYER
  8
0
 10
-4.41448940731159
 11
-4.12183880490194
 20
-14.7882286028852
 21
-15.4975057113189
 62
7
  0
LINE
  6
BYLAYER
  8
0
 10
-4.12183880490194
 11
-4.12183880490194
 20
-15.4975057113189
 21
-21.4087105305961
 62
7
  0
LINE
  6
BYLAYER
  8
0
 10
-1.15738097357665
 11
0.864185291483679
 20
-19.4689514944514
 21
-19.4689514944514
 62
7
  0
LINE
  6
BYLAYER
  8
0
 10
-1.12533278080549
 11
-1.12533278080549
 20
-21.3176261932467
 21
-15.4469033016804
 62
7
  0
LINE
  6
BYLAYER
  8
0
 10
-1.12533278080549
 11
-0.832682178395842
 20
-15.4469033016804
 21
-14.7426864342105
 62
7
  0
LINE
  6
BYLAYER
  8
0
 10
-0.832682178395842
 11
-0.123405069962203
 20
-14.7426864342105
 21
-14.4500358318009
 62
7
  0
LINE
  6
BYLAYER
  8
0
 10
-0.123405069962203
 11
-0.123405069962203
 20
-14.4500358318009
 21
-14.4500358318009
 62
7
  0
LINE
  6
BYLAYER
  8
0
 10
-0.123405069962203
 11
0.580811797507678
 20
-14.4500358318009
 21
-14.7426864342105
 62
7
  0
LINE
  6
BYLAYER
  8
0
 10
0.580811797507678
 11
0.873462399917301
 20
-14.7426864342105
 21
-15.4469033016804
 62
7
  0
LINE
  6
BYLAYER
  8
0
 10
0.873462399917301
 11
0.873462399917301
 20
-15.4469033016804
 21
-21.3631683619213
 62
7
  0
LINE
  6
BYLAYER
  8
0
 10
3.91719733967643
 11
5.93876360473668
 20
-19.4647346269815
 21
-19.4647346269815
 62
7
  0
LINE
  6
BYLAYER
  8
0
 10
3.94840215895356
 11
3.94840215895356
 20
-21.3134093257768
 21
-15.4435298077045
 62
7
  0
LINE
  6
BYLAYER
  8
0
 10
3.94840215895356
 11
4.24105276136309
 20
-15.4435298077045
 21
-14.7384695667406
 62
7
  0
LINE
  6
BYLAYER
  8
0
 10
4.24105276136309
 11
4.95117324329082
 20
-14.7384695667406
 21
-14.444975590837
 62
7
  0
LINE
  6
BYLAYER
  8
0
 10
4.95117324329082
 11
4.95117324329082
 20
-14.444975590837
 21
-14.444975590837
 62
7
  0
LINE
  6
BYLAYER
  8
0
 10
4.95117324329082
 11
5.65539011076079
 20
-14.444975590837
 21
-14.7384695667406
 62
7
  0
LINE
  6
BYLAYER
  8
0
 10
5.65539011076079
 11
5.94804071317041
 20
-14.7384695667406
 21
-15.4435298077045
 62
7
  0
LINE
  6
BYLAYER
  8
0
 10
5.94804071317041
 11
5.94804071317041
 20
-15.4435298077045
 21
-21.3589514944514
 62
7
  0
LINE
  6
BYLAYER
  8
0
 10
-50.8759351904441
 11
-48.8535255518898
 20
54.1980364573557
 21
54.1980364573557
 62
7
  0
LINE
  6
BYLAYER
  8
0
 10
-50.8396701302031
 11
-50.8396701302031
 20
56.0416509151872
 21
50.1759882645846
 62
7
  0
LINE
  6
BYLAYER
  8
0
 10
-50.8396701302031
 11
-50.5461761542995
 20
50.1759882645846
 21
49.4709280236208
 62
7
  0
LINE
  6
BYLAYER
  8
0
 10
-50.5461761542995
 11
-49.8419592868297
 20
49.4709280236208
 21
49.1774340477172
 62
7
  0
LINE
  6
BYLAYER
  8
0
 10
-49.8419592868297
 11
-49.8419592868297
 20
49.1774340477172
 21
49.1774340477172
 62
7
  0
LINE
  6
BYLAYER
  8
0
 10
-49.8419592868297
 11
-49.1368990458657
 20
49.1774340477172
 21
49.4709280236208
 62
7
  0
LINE
  6
BYLAYER
  8
0
 10
-49.1368990458657
 11
-48.8442484434561
 20
49.4709280236208
 21
50.1759882645846
 62
7
  0
LINE
  6
BYLAYER
  8
0
 10
-48.8442484434561
 11
-48.8442484434561
 20
50.1759882645846
 21
56.0871930838617
 62
7
  0
LINE
  6
BYLAYER
  8
0
 10
-45.9852122988778
 11
-43.9619592868296
 20
54.225024409163
 21
54.225024409163
 62
7
  0
LINE
  6
BYLAYER
  8
0
 10
-45.9472604916489
 11
-45.9472604916489
 20
56.0686388669943
 21
50.202976216392
 62
7
  0
LINE
  6
BYLAYER
  8
0
 10
-45.9472604916489
 11
-45.6546098892392
 20
50.202976216392
 21
49.4987593489221
 62
7
  0
LINE
  6
BYLAYER
  8
0
 10
-45.6546098892392
 11
-44.9503930217694
 20
49.4987593489221
 21
49.2061087465124
 62
7
  0
LINE
  6
BYLAYER
  8
0
 10
-44.9503930217694
 11
-44.9503930217694
 20
49.2061087465124
 21
49.2061087465124
 62
7
  0
LINE
  6
BYLAYER
  8
0
 10
-44.9503930217694
 11
-44.2453327808055
 20
49.2061087465124
 21
49.4987593489221
 62
7
  0
LINE
  6
BYLAYER
  8
0
 10
-44.2453327808055
 11
-43.9526821783959
 20
49.4987593489221
 21
50.202976216392
 62
7
  0
LINE
  6
BYLAYER
  8
0
 10
-43.9526821783959
 11
-43.9526821783959
 20
50.202976216392
 21
56.1141810356689
 62
7
  0
LINE
  6
BYLAYER
  8
0
 10
-41.011838804902
 11
-38.9885857928538
 20
54.225024409163
 21
54.225024409163
 62
7
  0
LINE
  6
BYLAYER
  8
0
 10
-40.973886997673
 11
-40.973886997673
 20
56.0686388669943
 21
50.202976216392
 62
7
  0
LINE
  6
BYLAYER
  8
0
 10
-40.973886997673
 11
-40.6854532627332
 20
50.202976216392
 21
49.4987593489221
 62
7
  0
LINE
  6
BYLAYER
  8
0
 10
-40.6854532627332
 11
-39.9770195277934
 20
49.4987593489221
 21
49.2061087465124
 62
7
  0
LINE
  6
BYLAYER
  8
0
 10
-39.9770195277934
 11
-39.9770195277934
 20
49.2061087465124
 21
49.2061087465124
 62
7
  0
LINE
  6
BYLAYER
  8
0
 10
-39.9770195277934
 11
-39.2719592868297
 20
49.2061087465124
 21
49.4987593489221
 62
7
  0
LINE
  6
BYLAYER
  8
0
 10
-39.2719592868297
 11
-38.97930868442
 20
49.4987593489221
 21
50.202976216392
 62
7
  0
LINE
  6
BYLAYER
  8
0
 10
-38.97930868442
 11
-38.97930868442
 20
50.202976216392
 21
56.1141810356689
 62
7
  0
LINE
  6
BYLAYER
  8
0
 10
-36.0418388049019
 11
-34.0194291663477
 20
54.225024409163
 21
54.225024409163
 62
7
  0
LINE
  6
BYLAYER
  8
0
 10
-36.0047303711669
 11
-36.0047303711669
 20
56.0686388669943
 21
50.202976216392
 62
7
  0
LINE
  6
BYLAYER
  8
0
 10
-36.0047303711669
 11
-35.7120797687574
 20
50.202976216392
 21
49.4987593489221
 62
7
  0
LINE
  6
BYLAYER
  8
0
 10
-35.7120797687574
 11
-35.0078629012875
 20
49.4987593489221
 21
49.2061087465124
 62
7
  0
LINE
  6
BYLAYER
  8
0
 10
-35.0078629012875
 11
-35.0078629012875
 20
49.2061087465124
 21
49.2061087465124
 62
7
  0
LINE
  6
BYLAYER
  8
0
 10
-35.0078629012875
 11
-34.3028026603237
 20
49.2061087465124
 21
49.4987593489221
 62
7
  0
LINE
  6
BYLAYER
  8
0
 10
-34.3028026603237
 11
-34.010152057914
 20
49.4987593489221
 21
50.202976216392
 62
7
  0
LINE
  6
BYLAYER
  8
0
 10
-34.010152057914
 11
-34.010152057914
 20
50.202976216392
 21
56.1141810356689
 62
7
  0
LINE
  6
BYLAYER
  8
0
 10
-31.0271400097212
 11
-29.000513503697
 20
54.225024409163
 21
54.225024409163
 62
7
  0
LINE
  6
BYLAYER
  8
0
 10
-30.9908749494802
 11
-30.9908749494802
 20
56.0686388669943
 21
50.202976216392
 62
7
  0
LINE
  6
BYLAYER
  8
0
 10
-30.9908749494802
 11
-30.6973809735766
 20
50.202976216392
 21
49.4987593489221
 62
7
  0
LINE
  6
BYLAYER
  8
0
 10
-30.6973809735766
 11
-29.9923207326127
 20
49.4987593489221
 21
49.2061087465124
 62
7
  0
LINE
  6
BYLAYER
  8
0
 10
-29.9923207326127
 11
-29.9923207326127
 20
49.2061087465124
 21
49.2061087465124
 62
7
  0
LINE
  6
BYLAYER
  8
0
 10
-29.9923207326127
 11
-29.2889472386369
 20
49.2061087465124
 21
49.4987593489221
 62
7
  0
LINE
  6
BYLAYER
  8
0
 10
-29.2889472386369
 11
-28.9954532627332
 20
49.4987593489221
 21
50.202976216392
 62
7
  0
LINE
  6
BYLAYER
  8
0
 10
-28.9954532627332
 11
-28.9954532627332
 20
50.202976216392
 21
56.1141810356689
 62
7
  0
LINE
  6
BYLAYER
  8
0
 10
-25.993886997673
 11
-23.9714773591187
 20
54.225024409163
 21
54.225024409163
 62
7
  0
LINE
  6
BYLAYER
  8
0
 10
-25.957621937432
 11
-25.957621937432
 20
56.0686388669943
 21
50.202976216392
 62
7
  0
LINE
  6
BYLAYER
  8
0
 10
-25.957621937432
 11
-25.6691882024923
 20
50.202976216392
 21
49.4987593489221
 62
7
  0
LINE
  6
BYLAYER
  8
0
 10
-25.6691882024923
 11
-24.9590677205646
 20
49.4987593489221
 21
49.2061087465124
 62
7
  0
LINE
  6
BYLAYER
  8
0
 10
-24.9590677205646
 11
-24.9590677205646
 20
49.2061087465124
 21
49.2061087465124
 62
7
  0
LINE
  6
BYLAYER
  8
0
 10
-24.9590677205646
 11
-24.2548508530947
 20
49.2061087465124
 21
49.4987593489221
 62
7
  0
LINE
  6
BYLAYER
  8
0
 10
-24.2548508530947
 11
-23.962200250685
 20
49.4987593489221
 21
50.202976216392
 62
7
  0
LINE
  6
BYLAYER
  8
0
 10
-23.962200250685
 11
-23.962200250685
 20
50.202976216392
 21
56.1141810356689
 62
7
  0
LINE
  6
BYLAYER
  8
0
 10
-21.0660556723717
 11
-19.0436460338176
 20
54.225024409163
 21
54.225024409163
 62
7
  0
LINE
  6
BYLAYER
  8
0
 10
-21.0289472386369
 11
-21.0289472386369
 20
56.0686388669943
 21
50.202976216392
 62
7
  0
LINE
  6
BYLAYER
  8
0
 10
-21.0289472386369
 11
-20.741356877191
 20
50.202976216392
 21
49.4987593489221
 62
7
  0
LINE
  6
BYLAYER
  8
0
 10
-20.741356877191
 11
-20.0312363952634
 20
49.4987593489221
 21
49.2061087465124
 62
7
  0
LINE
  6
BYLAYER
  8
0
 10
-20.0312363952634
 11
-20.0312363952634
 20
49.2061087465124
 21
49.2061087465124
 62
7
  0
LINE
  6
BYLAYER
  8
0
 10
-20.0312363952634
 11
-19.3270195277935
 20
49.2061087465124
 21
49.4987593489221
 62
7
  0
LINE
  6
BYLAYER
  8
0
 10
-19.3270195277935
 11
-19.0343689253839
 20
49.4987593489221
 21
50.202976216392
 62
7
  0
LINE
  6
BYLAYER
  8
0
 10
-19.0343689253839
 11
-19.0343689253839
 20
50.202976216392
 21
56.1141810356689
 62
7
  0
LINE
  6
BYLAYER
  8
0
 10
-16.0968990458658
 11
-14.0736460338175
 20
54.225024409163
 21
54.225024409163
 62
7
  0
LINE
  6
BYLAYER
  8
0
 10
-16.0606339856248
 11
-16.0606339856248
 20
56.0686388669943
 21
50.202976216392
 62
7
  0
LINE
  6
BYLAYER
  8
0
 10
-16.0606339856248
 11
-15.7679833832152
 20
50.202976216392
 21
49.4987593489221
 62
7
  0
LINE
  6
BYLAYER
  8
0
 10
-15.7679833832152
 11
-15.0620797687574
 20
49.4987593489221
 21
49.2061087465124
 62
7
  0
LINE
  6
BYLAYER
  8
0
 10
-15.0620797687574
 11
-15.0620797687574
 20
49.2061087465124
 21
49.2061087465124
 62
7
  0
LINE
  6
BYLAYER
  8
0
 10
-15.0620797687574
 11
-14.3587062747814
 20
49.2061087465124
 21
49.4987593489221
 62
7
  0
LINE
  6
BYLAYER
  8
0
 10
-14.3587062747814
 11
-14.0660556723717
 20
49.4987593489221
 21
50.202976216392
 62
7
  0
LINE
  6
BYLAYER
  8
0
 10
-14.0660556723717
 11
-14.0660556723717
 20
50.202976216392
 21
56.1141810356689
 62
7
  0
LINE
  6
BYLAYER
  8
0
 10
-11.0822002506851
 11
-9.05473037116703
 20
54.225024409163
 21
54.225024409163
 62
7
  0
LINE
  6
BYLAYER
  8
0
 10
-11.0459351904441
 11
-11.0459351904441
 20
56.0686388669943
 21
50.202976216392
 62
7
  0
LINE
  6
BYLAYER
  8
0
 10
-11.0459351904441
 11
-10.7532845880344
 20
50.202976216392
 21
49.4987593489221
 62
7
  0
LINE
  6
BYLAYER
  8
0
 10
-10.7532845880344
 11
-10.0482243470706
 20
49.4987593489221
 21
49.2061087465124
 62
7
  0
LINE
  6
BYLAYER
  8
0
 10
-10.0482243470706
 11
-10.0482243470706
 20
49.2061087465124
 21
49.2061087465124
 62
7
  0
LINE
  6
BYLAYER
  8
0
 10
-10.0482243470706
 11
-9.3431641061067
 20
49.2061087465124
 21
49.4987593489221
 62
7
  0
LINE
  6
BYLAYER
  8
0
 10
-9.3431641061067
 11
-9.04967013020315
 20
49.4987593489221
 21
50.202976216392
 62
7
  0
LINE
  6
BYLAYER
  8
0
 10
-9.04967013020315
 11
-9.04967013020315
 20
50.202976216392
 21
56.1141810356689
 62
7
  0
LINE
  6
BYLAYER
  8
0
 10
-6.13075446755248
 11
-4.10918820249223
 20
54.2705665778377
 21
54.2705665778377
 62
7
  0
LINE
  6
BYLAYER
  8
0
 10
-6.0944894073116
 11
-6.0944894073116
 20
56.1192412766329
 21
50.2485183850667
 62
7
  0
LINE
  6
BYLAYER
  8
0
 10
-6.0944894073116
 11
-5.80183880490186
 20
50.2485183850667
 21
49.5443015175968
 62
7
  0
LINE
  6
BYLAYER
  8
0
 10
-5.80183880490186
 11
-5.09677856393803
 20
49.5443015175968
 21
49.2516509151872
 62
7
  0
LINE
  6
BYLAYER
  8
0
 10
-5.09677856393803
 11
-5.09677856393803
 20
49.2516509151872
 21
49.2516509151872
 62
7
  0
LINE
  6
BYLAYER
  8
0
 10
-5.09677856393803
 11
-4.39256169646815
 20
49.2516509151872
 21
49.5443015175968
 62
7
  0
LINE
  6
BYLAYER
  8
0
 10
-4.39256169646815
 11
-4.09991109405858
 20
49.5443015175968
 21
50.2485183850667
 62
7
  0
LINE
  6
BYLAYER
  8
0
 10
-4.09991109405858
 11
-4.09991109405858
 20
50.2485183850667
 21
56.1647834453076
 62
7
  0
LINE
  6
BYLAYER
  8
0
 10
-1.13967013020319
 11
0.887799749314993
 20
54.225024409163
 21
54.225024409163
 62
7
  0
LINE
  6
BYLAYER
  8
0
 10
-1.10256169646813
 11
-1.10256169646813
 20
56.0736991079582
 21
50.202976216392
 62
7
  0
LINE
  6
BYLAYER
  8
0
 10
-1.10256169646813
 11
-0.809911094058506
 20
50.202976216392
 21
49.4987593489221
 62
7
  0
LINE
  6
BYLAYER
  8
0
 10
-0.809911094058506
 11
-0.105694226588625
 20
49.4987593489221
 21
49.2061087465124
 62
7
  0
LINE
  6
BYLAYER
  8
0
 10
-0.105694226588625
 11
-0.105694226588625
 20
49.2061087465124
 21
49.2061087465124
 62
7
  0
LINE
  6
BYLAYER
  8
0
 10
-0.105694226588625
 11
0.59936601437515
 20
49.2061087465124
 21
49.4987593489221
 62
7
  0
LINE
  6
BYLAYER
  8
0
 10
0.59936601437515
 11
0.897076857748644
 20
49.4987593489221
 21
50.202976216392
 62
7
  0
LINE
  6
BYLAYER
  8
0
 10
0.897076857748644
 11
0.897076857748644
 20
50.202976216392
 21
56.1141810356689
 62
7
  0
LINE
  6
BYLAYER
  8
0
 10
3.88093227943547
 11
5.9024985444956
 20
54.225024409163
 21
54.225024409163
 62
7
  0
LINE
  6
BYLAYER
  8
0
 10
3.91719733967643
 11
3.91719733967643
 20
56.0736991079582
 21
50.202976216392
 62
7
  0
LINE
  6
BYLAYER
  8
0
 10
3.91719733967643
 11
4.20478770112213
 20
50.202976216392
 21
49.4987593489221
 62
7
  0
LINE
  6
BYLAYER
  8
0
 10
4.20478770112213
 11
4.91406480955597
 20
49.4987593489221
 21
49.2061087465124
 62
7
  0
LINE
  6
BYLAYER
  8
0
 10
4.91406480955597
 11
4.91406480955597
 20
49.2061087465124
 21
49.2061087465124
 62
7
  0
LINE
  6
BYLAYER
  8
0
 10
4.91406480955597
 11
5.61912505051971
 20
49.2061087465124
 21
49.4987593489221
 62
7
  0
LINE
  6
BYLAYER
  8
0
 10
5.61912505051971
 11
5.91177565292936
 20
49.4987593489221
 21
50.202976216392
 62
7
  0
LINE
  6
BYLAYER
  8
0
 10
5.91177565292936
 11
5.91177565292936
 20
50.202976216392
 21
56.1141810356689
 62
7
  0
LINE
  6
BYLAYER
  8
0
 10
-48.953886997673
 11
-48.953886997673
 20
-4.94690330168032
 21
-5.94377077155997
 62
7
  0
LINE
  6
BYLAYER
  8
0
 10
-48.953886997673
 11
-49.2473809735767
 20
-5.94377077155997
 21
-6.64883101252371
 62
7
  0
LINE
  6
BYLAYER
  8
0
 10
-49.2473809735767
 11
-49.9515978410465
 20
-6.64883101252371
 21
-6.94148161493337
 62
7
  0
LINE
  6
BYLAYER
  8
0
 10
-49.9515978410465
 11
-49.9515978410465
 20
-6.94148161493337
 21
-6.94148161493337
 62
7
  0
LINE
  6
BYLAYER
  8
0
 10
-49.9515978410465
 11
-50.6566580820104
 20
-6.94148161493337
 21
-6.64883101252371
 62
7
  0
LINE
  6
BYLAYER
  8
0
 10
-50.6566580820104
 11
-50.9493086844199
 20
-6.64883101252371
 21
-5.94377077155997
 62
7
  0
LINE
  6
BYLAYER
  8
0
 10
-50.9493086844199
 11
-50.9493086844199
 20
-5.94377077155997
 21
-4.94690330168032
 62
7
  0
LINE
  6
BYLAYER
  8
0
 10
-58.8508749494802
 11
-58.8508749494802
 20
-4.94184306071645
 21
-5.94377077155997
 62
7
  0
LINE
  6
BYLAYER
  8
0
 10
-58.8508749494802
 11
-59.1443689253838
 20
-5.94377077155997
 21
-6.64883101252371
 62
7
  0
LINE
  6
BYLAYER
  8
0
 10
-59.1443689253838
 11
-59.8485857928538
 20
-6.64883101252371
 21
-6.94148161493337
 62
7
  0
LINE
  6
BYLAYER
  8
0
 10
-59.8485857928538
 11
-59.8485857928538
 20
-6.94148161493337
 21
-6.94148161493337
 62
7
  0
LINE
  6
BYLAYER
  8
0
 10
-59.8485857928538
 11
-60.5578629012875
 20
-6.94148161493337
 21
-6.64883101252371
 62
7
  0
LINE
  6
BYLAYER
  8
0
 10
-60.5578629012875
 11
-60.8462966362273
 20
-6.64883101252371
 21
-5.94377077155997
 62
7
  0
LINE
  6
BYLAYER
  8
0
 10
-60.8462966362273
 11
-60.8462966362273
 20
-5.94377077155997
 21
-4.94184306071645
 62
7
  0
LINE
  6
BYLAYER
  8
0
 10
-53.8825616964682
 11
-53.8825616964682
 20
-4.94184306071645
 21
-5.94377077155997
 62
7
  0
LINE
  6
BYLAYER
  8
0
 10
-53.8825616964682
 11
-54.1752122988778
 20
-5.94377077155997
 21
-6.64883101252371
 62
7
  0
LINE
  6
BYLAYER
  8
0
 10
-54.1752122988778
 11
-54.8794291663476
 20
-6.64883101252371
 21
-6.94148161493337
 62
7
  0
LINE
  6
BYLAYER
  8
0
 10
-54.8794291663476
 11
-54.8794291663476
 20
-6.94148161493337
 21
-6.94148161493337
 62
7
  0
LINE
  6
BYLAYER
  8
0
 10
-54.8794291663476
 11
-55.5844894073115
 20
-6.94148161493337
 21
-6.64883101252371
 62
7
  0
LINE
  6
BYLAYER
  8
0
 10
-55.5844894073115
 11
-55.8771400097211
 20
-6.64883101252371
 21
-5.94377077155997
 62
7
  0
LINE
  6
BYLAYER
  8
0
 10
-55.8771400097211
 11
-55.8771400097211
 20
-5.94377077155997
 21
-4.94184306071645
 62
7
  0
LINE
  6
BYLAYER
  8
0
 10
-38.9649713350224
 11
-38.9649713350224
 20
-4.94690330168032
 21
-5.94377077155997
 62
7
  0
LINE
  6
BYLAYER
  8
0
 10
-38.9649713350224
 11
-39.257621937432
 20
-5.94377077155997
 21
-6.64883101252371
 62
7
  0
LINE
  6
BYLAYER
  8
0
 10
-39.257621937432
 11
-39.9635255518898
 20
-6.64883101252371
 21
-6.94148161493337
 62
7
  0
LINE
  6
BYLAYER
  8
0
 10
-39.9635255518898
 11
-39.9635255518898
 20
-6.94148161493337
 21
-6.94148161493337
 62
7
  0
LINE
  6
BYLAYER
  8
0
 10
-39.9635255518898
 11
-40.6728026603237
 20
-6.94148161493337
 21
-6.64883101252371
 62
7
  0
LINE
  6
BYLAYER
  8
0
 10
-40.6728026603237
 11
-40.9612363952633
 20
-6.64883101252371
 21
-5.94377077155997
 62
7
  0
LINE
  6
BYLAYER
  8
0
 10
-40.9612363952633
 11
-40.9612363952633
 20
-5.94377077155997
 21
-4.94690330168032
 62
7
  0
LINE
  6
BYLAYER
  8
0
 10
-33.9502725398416
 11
-33.9502725398416
 20
-4.90136113300565
 21
-5.90244547035513
 62
7
  0
LINE
  6
BYLAYER
  8
0
 10
-33.9502725398416
 11
-34.2437665157452
 20
-5.90244547035513
 21
-6.60750571131888
 62
7
  0
LINE
  6
BYLAYER
  8
0
 10
-34.2437665157452
 11
-34.9488267567092
 20
-6.60750571131888
 21
-6.90099968722262
 62
7
  0
LINE
  6
BYLAYER
  8
0
 10
-34.9488267567092
 11
-34.9488267567092
 20
-6.90099968722262
 21
-6.90099968722262
 62
7
  0
LINE
  6
BYLAYER
  8
0
 10
-34.9488267567092
 11
-35.6522002506851
 20
-6.90099968722262
 21
-6.60750571131888
 62
7
  0
LINE
  6
BYLAYER
  8
0
 10
-35.6522002506851
 11
-35.9456942265887
 20
-6.60750571131888
 21
-5.90244547035513
 62
7
  0
LINE
  6
BYLAYER
  8
0
 10
-35.9456942265887
 11
-35.9456942265887
 20
-5.90244547035513
 21
-4.90136113300565
 62
7
  0
LINE
  6
BYLAYER
  8
0
 10
-63.9119592868296
 11
-63.9119592868296
 20
-4.98822860288527
 21
-5.98931294023464
 62
7
  0
LINE
  6
BYLAYER
  8
0
 10
-63.9119592868296
 11
-64.2046098892393
 20
-5.98931294023464
 21
-6.69437318119839
 62
7
  0
LINE
  6
BYLAYER
  8
0
 10
-64.2046098892393
 11
-64.9096701302032
 20
-6.69437318119839
 21
-6.98702378360804
 62
7
  0
LINE
  6
BYLAYER
  8
0
 10
-64.9096701302032
 11
-64.9096701302032
 20
-6.98702378360804
 21
-6.98702378360804
 62
7
  0
LINE
  6
BYLAYER
  8
0
 10
-64.9096701302032
 11
-65.613886997673
 20
-6.98702378360804
 21
-6.69437318119839
 62
7
  0
LINE
  6
BYLAYER
  8
0
 10
-65.613886997673
 11
-65.9065376000826
 20
-6.69437318119839
 21
-5.98931294023464
 62
7
  0
LINE
  6
BYLAYER
  8
0
 10
-65.9065376000826
 11
-65.9065376000826
 20
-5.98931294023464
 21
-4.98822860288527
 62
7
  0
LINE
  6
BYLAYER
  8
0
 10
-43.9400315759862
 11
-43.9400315759862
 20
-4.94690330168032
 21
-5.94377077155997
 62
7
  0
LINE
  6
BYLAYER
  8
0
 10
-43.9400315759862
 11
-44.2326821783959
 20
-5.94377077155997
 21
-6.64883101252371
 62
7
  0
LINE
  6
BYLAYER
  8
0
 10
-44.2326821783959
 11
-44.9368990458657
 20
-6.64883101252371
 21
-6.94654185589729
 62
7
  0
LINE
  6
BYLAYER
  8
0
 10
-44.9368990458657
 11
-44.9368990458657
 20
-6.94654185589729
 21
-6.94654185589729
 62
7
  0
LINE
  6
BYLAYER
  8
0
 10
-44.9368990458657
 11
-45.6419592868297
 20
-6.94654185589729
 21
-6.64883101252371
 62
7
  0
LINE
  6
BYLAYER
  8
0
 10
-45.6419592868297
 11
-45.9346098892392
 20
-6.64883101252371
 21
-5.94377077155997
 62
7
  0
LINE
  6
BYLAYER
  8
0
 10
-45.9346098892392
 11
-45.9346098892392
 20
-5.94377077155997
 21
-4.94690330168032
 62
7
  0
LINE
  6
BYLAYER
  8
0
 10
10.9669563758209
 11
10.9669563758209
 20
-5.00172257878882
 21
-6.00365028963216
 62
7
  0
LINE
  6
BYLAYER
  8
0
 10
10.9669563758209
 11
10.6743057734113
 20
-6.00365028963216
 21
-6.70871053059597
 62
7
  0
LINE
  6
BYLAYER
  8
0
 10
10.6743057734113
 11
9.97008890594149
 20
-6.70871053059597
 21
-7.00136113300567
 62
7
  0
LINE
  6
BYLAYER
  8
0
 10
9.97008890594149
 11
9.97008890594149
 20
-7.00136113300567
 21
-7.00136113300567
 62
7
  0
LINE
  6
BYLAYER
  8
0
 10
9.97008890594149
 11
9.26502866497755
 20
-7.00136113300567
 21
-6.70871053059597
 62
7
  0
LINE
  6
BYLAYER
  8
0
 10
9.26502866497755
 11
8.9723780625679
 20
-6.70871053059597
 21
-6.00365028963216
 62
7
  0
LINE
  6
BYLAYER
  8
0
 10
8.9723780625679
 11
8.9723780625679
 20
-6.00365028963216
 21
-5.00172257878882
 62
7
  0
LINE
  6
BYLAYER
  8
0
 10
-28.9768990458658
 11
-28.9768990458658
 20
-4.94184306071645
 21
-5.94377077155997
 62
7
  0
LINE
  6
BYLAYER
  8
0
 10
-28.9768990458658
 11
-29.2746098892392
 20
-5.94377077155997
 21
-6.64883101252371
 62
7
  0
LINE
  6
BYLAYER
  8
0
 10
-29.2746098892392
 11
-29.9796701302032
 20
-6.64883101252371
 21
-6.94148161493337
 62
7
  0
LINE
  6
BYLAYER
  8
0
 10
-29.9796701302032
 11
-29.9796701302032
 20
-6.94148161493337
 21
-6.94148161493337
 62
7
  0
LINE
  6
BYLAYER
  8
0
 10
-29.9796701302032
 11
-30.683886997673
 20
-6.94148161493337
 21
-6.64883101252371
 62
7
  0
LINE
  6
BYLAYER
  8
0
 10
-30.683886997673
 11
-30.9714773591188
 20
-6.64883101252371
 21
-5.94377077155997
 62
7
  0
LINE
  6
BYLAYER
  8
0
 10
-30.9714773591188
 11
-30.9714773591188
 20
-5.94377077155997
 21
-4.94184306071645
 62
7
  0
LINE
  6
BYLAYER
  8
0
 10
-34.0152122988778
 11
-34.0152122988778
 20
39.6523738067533
 21
40.6543015175968
 62
7
  0
LINE
  6
BYLAYER
  8
0
 10
-34.0152122988778
 11
-34.3078629012875
 20
40.6543015175968
 21
41.3593617585605
 62
7
  0
LINE
  6
BYLAYER
  8
0
 10
-34.3078629012875
 11
-35.0120797687574
 20
41.3593617585605
 21
41.6520123609703
 62
7
  0
LINE
  6
BYLAYER
  8
0
 10
-35.0120797687574
 11
-35.0120797687574
 20
41.6520123609703
 21
41.6520123609703
 62
7
  0
LINE
  6
BYLAYER
  8
0
 10
-35.0120797687574
 11
-35.721356877191
 20
41.6520123609703
 21
41.3593617585605
 62
7
  0
LINE
  6
BYLAYER
  8
0
 10
-35.721356877191
 11
-36.0097906121308
 20
41.3593617585605
 21
40.6543015175968
 62
7
  0
LINE
  6
BYLAYER
  8
0
 10
-36.0097906121308
 11
-36.0097906121308
 20
40.6543015175968
 21
39.6523738067533
 62
7
  0
LINE
  6
BYLAYER
  8
0
 10
-29.000513503697
 11
-29.000513503697
 20
39.6700846501268
 21
40.6728557344641
 62
7
  0
LINE
  6
BYLAYER
  8
0
 10
-29.000513503697
 11
-29.2931641061067
 20
40.6728557344641
 21
41.3762292284401
 62
7
  0
LINE
  6
BYLAYER
  8
0
 10
-29.2931641061067
 11
-29.9973809735767
 20
41.3762292284401
 21
41.6697232043438
 62
7
  0
LINE
  6
BYLAYER
  8
0
 10
-29.9973809735767
 11
-29.9973809735767
 20
41.6697232043438
 21
41.6697232043438
 62
7
  0
LINE
  6
BYLAYER
  8
0
 10
-29.9973809735767
 11
-30.7075014555043
 20
41.6697232043438
 21
41.3762292284401
 62
7
  0
LINE
  6
BYLAYER
  8
0
 10
-30.7075014555043
 11
-30.9950918169501
 20
41.3762292284401
 21
40.6728557344641
 62
7
  0
LINE
  6
BYLAYER
  8
0
 10
-30.9950918169501
 11
-30.9950918169501
 20
40.6728557344641
 21
39.6700846501268
 62
7
  0
LINE
  6
BYLAYER
  8
0
 10
-24.0726821783959
 11
-24.0726821783959
 20
39.6936991079581
 21
40.6947834453075
 62
7
  0
LINE
  6
BYLAYER
  8
0
 10
-24.0726821783959
 11
-24.3653327808056
 20
40.6947834453075
 21
41.3998436862714
 62
7
  0
LINE
  6
BYLAYER
  8
0
 10
-24.3653327808056
 11
-25.0695496482754
 20
41.3998436862714
 21
41.6924942886811
 62
7
  0
LINE
  6
BYLAYER
  8
0
 10
-25.0695496482754
 11
-25.0695496482754
 20
41.6924942886811
 21
41.6924942886811
 62
7
  0
LINE
  6
BYLAYER
  8
0
 10
-25.0695496482754
 11
-25.7788267567092
 20
41.6924942886811
 21
41.3998436862714
 62
7
  0
LINE
  6
BYLAYER
  8
0
 10
-25.7788267567092
 11
-26.0672604916489
 20
41.3998436862714
 21
40.6947834453075
 62
7
  0
LINE
  6
BYLAYER
  8
0
 10
-26.0672604916489
 11
-26.0672604916489
 20
40.6947834453075
 21
39.6936991079581
 62
7
  0
LINE
  6
BYLAYER
  8
0
 10
-19.0107544675526
 11
-19.0107544675526
 20
39.6936991079581
 21
40.6947834453075
 62
7
  0
LINE
  6
BYLAYER
  8
0
 10
-19.0107544675526
 11
-19.308465310926
 20
40.6947834453075
 21
41.3998436862714
 62
7
  0
LINE
  6
BYLAYER
  8
0
 10
-19.308465310926
 11
-20.0135255518898
 20
41.3998436862714
 21
41.6924942886811
 62
7
  0
LINE
  6
BYLAYER
  8
0
 10
-20.0135255518898
 11
-20.0135255518898
 20
41.6924942886811
 21
41.6924942886811
 62
7
  0
LINE
  6
BYLAYER
  8
0
 10
-20.0135255518898
 11
-20.7177424193597
 20
41.6924942886811
 21
41.3998436862714
 62
7
  0
LINE
  6
BYLAYER
  8
0
 10
-20.7177424193597
 11
-21.0103930217694
 20
41.3998436862714
 21
40.6947834453075
 62
7
  0
LINE
  6
BYLAYER
  8
0
 10
-21.0103930217694
 11
-21.0103930217694
 20
40.6947834453075
 21
39.6936991079581
 62
7
  0
LINE
  6
BYLAYER
  8
0
 10
-13.9968990458658
 11
-13.9968990458658
 20
39.697915975428
 21
40.6947834453075
 62
7
  0
LINE
  6
BYLAYER
  8
0
 10
-13.9968990458658
 11
-14.2895496482754
 20
40.6947834453075
 21
41.4049039272352
 62
7
  0
LINE
  6
BYLAYER
  8
0
 10
-14.2895496482754
 11
-14.9946098892392
 20
41.4049039272352
 21
41.6924942886811
 62
7
  0
LINE
  6
BYLAYER
  8
0
 10
-14.9946098892392
 11
-14.9946098892392
 20
41.6924942886811
 21
41.6924942886811
 62
7
  0
LINE
  6
BYLAYER
  8
0
 10
-14.9946098892392
 11
-15.7030436241791
 20
41.6924942886811
 21
41.4049039272352
 62
7
  0
LINE
  6
BYLAYER
  8
0
 10
-15.7030436241791
 11
-15.9914773591188
 20
41.4049039272352
 21
40.6947834453075
 62
7
  0
LINE
  6
BYLAYER
  8
0
 10
-15.9914773591188
 11
-15.9914773591188
 20
40.6947834453075
 21
39.697915975428
 62
7
  0
LINE
  6
BYLAYER
  8
0
 10
-9.06906772056452
 11
-9.06906772056452
 20
39.697915975428
 21
40.6947834453075
 62
7
  0
LINE
  6
BYLAYER
  8
0
 10
-9.06906772056452
 11
-9.36593519044403
 20
40.6947834453075
 21
41.4049039272352
 62
7
  0
LINE
  6
BYLAYER
  8
0
 10
-9.36593519044403
 11
-10.070995431408
 20
41.4049039272352
 21
41.6924942886811
 62
7
  0
LINE
  6
BYLAYER
  8
0
 10
-10.070995431408
 11
-10.070995431408
 20
41.6924942886811
 21
41.6924942886811
 62
7
  0
LINE
  6
BYLAYER
  8
0
 10
-10.070995431408
 11
-10.7752122988779
 20
41.6924942886811
 21
41.4049039272352
 62
7
  0
LINE
  6
BYLAYER
  8
0
 10
-10.7752122988779
 11
-11.0636460338175
 20
41.4049039272352
 21
40.6947834453075
 62
7
  0
LINE
  6
BYLAYER
  8
0
 10
-11.0636460338175
 11
-11.0636460338175
 20
40.6947834453075
 21
39.697915975428
 62
7
  0
LINE
  6
BYLAYER
  8
0
 10
-9.06906772056452
 11
-9.06906772056452
 20
39.697915975428
 21
40.6947834453075
 62
7
  0
LINE
  6
BYLAYER
  8
0
 10
-9.06906772056452
 11
-9.36593519044403
 20
40.6947834453075
 21
41.4049039272352
 62
7
  0
LINE
  6
BYLAYER
  8
0
 10
-9.36593519044403
 11
-10.070995431408
 20
41.4049039272352
 21
41.6924942886811
 62
7
  0
LINE
  6
BYLAYER
  8
0
 10
-10.070995431408
 11
-10.070995431408
 20
41.6924942886811
 21
41.6924942886811
 62
7
  0
LINE
  6
BYLAYER
  8
0
 10
-10.070995431408
 11
-10.7752122988779
 20
41.6924942886811
 21
41.4049039272352
 62
7
  0
LINE
  6
BYLAYER
  8
0
 10
-10.7752122988779
 11
-11.0636460338175
 20
41.4049039272352
 21
40.6947834453075
 62
7
  0
LINE
  6
BYLAYER
  8
0
 10
-11.0636460338175
 11
-11.0636460338175
 20
40.6947834453075
 21
39.697915975428
 62
7
  0
LINE
  6
BYLAYER
  8
0
 10
5.88816119509811
 11
5.88816119509811
 20
39.6936991079581
 21
40.6947834453075
 62
7
  0
LINE
  6
BYLAYER
  8
0
 10
5.88816119509811
 11
5.59551059268848
 20
40.6947834453075
 21
41.3998436862714
 62
7
  0
LINE
  6
BYLAYER
  8
0
 10
5.59551059268848
 11
4.89129372521863
 20
41.3998436862714
 21
41.6924942886811
 62
7
  0
LINE
  6
BYLAYER
  8
0
 10
4.89129372521863
 11
4.89129372521863
 20
41.6924942886811
 21
41.6924942886811
 62
7
  0
LINE
  6
BYLAYER
  8
0
 10
4.89129372521863
 11
4.18201661678476
 20
41.6924942886811
 21
41.3998436862714
 62
7
  0
LINE
  6
BYLAYER
  8
0
 10
4.18201661678476
 11
3.89358288184512
 20
41.3998436862714
 21
40.6947834453075
 62
7
  0
LINE
  6
BYLAYER
  8
0
 10
3.89358288184512
 11
3.89358288184512
 20
40.6947834453075
 21
39.6936991079581
 62
7
  0
LINE
  6
BYLAYER
  8
0
 10
109.691414207146
 11
110.394787701122
 20
-2.81401173541531
 21
-2.52136113300566
 62
7
  0
LINE
  6
BYLAYER
  8
0
 10
110.394787701122
 11
110.688281677026
 20
-2.52136113300566
 21
-1.81714426553577
 62
7
  0
LINE
  6
BYLAYER
  8
0
 10
110.688281677026
 11
110.688281677026
 20
-1.81714426553577
 21
14.1428557344643
 62
7
  0
LINE
  6
BYLAYER
  8
0
 10
110.688281677026
 11
110.394787701122
 20
14.1428557344643
 21
14.852132842898
 62
7
  0
LINE
  6
BYLAYER
  8
0
 10
110.394787701122
 11
109.691414207146
 20
14.852132842898
 21
15.1405665778377
 62
7
  0
LINE
  6
BYLAYER
  8
0
 10
109.691414207146
 11
109.691414207146
 20
15.1405665778377
 21
15.1405665778377
 62
7
  0
LINE
  6
BYLAYER
  8
0
 10
109.691414207146
 11
108.981293725219
 20
15.1405665778377
 21
14.852132842898
 62
7
  0
LINE
  6
BYLAYER
  8
0
 10
108.981293725219
 11
108.692859990279
 20
14.852132842898
 21
14.1428557344643
 62
7
  0
LINE
  6
BYLAYER
  8
0
 10
108.692859990279
 11
108.692859990279
 20
14.1428557344643
 21
-1.81714426553577
 62
7
  0
LINE
  6
BYLAYER
  8
0
 10
108.692859990279
 11
108.981293725219
 20
-1.81714426553577
 21
-2.52136113300566
 62
7
  0
LINE
  6
BYLAYER
  8
0
 10
108.981293725219
 11
109.691414207146
 20
-2.52136113300566
 21
-2.81401173541531
 62
7
  0
LINE
  6
BYLAYER
  8
0
 10
109.691414207146
 11
109.691414207146
 20
-2.81401173541531
 21
-2.81401173541531
 62
7
  0
LINE
  6
BYLAYER
  8
0
 10
109.691414207146
 11
109.691414207146
 20
-2.81401173541531
 21
-2.81401173541531
 62
7
  0
LINE
  6
BYLAYER
  8
0
 10
-84.8498026603236
 11
-84.1450797687573
 20
-2.85112016915031
 21
-2.55340932577678
 62
7
  0
LINE
  6
BYLAYER
  8
0
 10
-84.1450797687573
 11
-83.8522604916489
 20
-2.55340932577678
 21
-1.84834908481287
 62
7
  0
LINE
  6
BYLAYER
  8
0
 10
-83.8522604916489
 11
-83.8522604916489
 20
-1.84834908481287
 21
14.1108075416932
 62
7
  0
LINE
  6
BYLAYER
  8
0
 10
-83.8522604916489
 11
-84.1450797687573
 20
14.1108075416932
 21
14.8200846501268
 62
7
  0
LINE
  6
BYLAYER
  8
0
 10
-84.1450797687573
 11
-84.8498026603236
 20
14.8200846501268
 21
15.1076750115726
 62
7
  0
LINE
  6
BYLAYER
  8
0
 10
-84.8498026603236
 11
-84.8498026603236
 20
15.1076750115726
 21
15.1076750115726
 62
7
  0
LINE
  6
BYLAYER
  8
0
 10
-84.8498026603236
 11
-85.554356877191
 20
15.1076750115726
 21
14.8200846501268
 62
7
  0
LINE
  6
BYLAYER
  8
0
 10
-85.554356877191
 11
-85.8471761542995
 20
14.8200846501268
 21
14.1108075416932
 62
7
  0
LINE
  6
BYLAYER
  8
0
 10
-85.8471761542995
 11
-85.8471761542995
 20
14.1108075416932
 21
-1.84834908481287
 62
7
  0
LINE
  6
BYLAYER
  8
0
 10
-85.8471761542995
 11
-85.554356877191
 20
-1.84834908481287
 21
-2.55340932577678
 62
7
  0
LINE
  6
BYLAYER
  8
0
 10
-85.554356877191
 11
-84.8498026603236
 20
-2.55340932577678
 21
-2.85112016915031
 62
7
  0
LINE
  6
BYLAYER
  8
0
 10
-84.8498026603236
 11
-84.8498026603236
 20
-2.85112016915031
 21
-2.85112016915031
 62
7
  0
LINE
  6
BYLAYER
  8
0
 10
-84.8498026603236
 11
-84.8498026603236
 20
-2.85112016915031
 21
-2.85112016915031
 62
7
  0
LINE
  6
BYLAYER
  8
0
 10
104.763582881845
 11
105.466956375821
 20
-2.81401173541531
 21
-2.52136113300566
 62
7
  0
LINE
  6
BYLAYER
  8
0
 10
105.466956375821
 11
105.760450351725
 20
-2.52136113300566
 21
-1.81714426553577
 62
7
  0
LINE
  6
BYLAYER
  8
0
 10
105.760450351725
 11
105.760450351725
 20
-1.81714426553577
 21
14.1428557344643
 62
7
  0
LINE
  6
BYLAYER
  8
0
 10
105.760450351725
 11
105.466956375821
 20
14.1428557344643
 21
14.852132842898
 62
7
  0
LINE
  6
BYLAYER
  8
0
 10
105.466956375821
 11
104.763582881845
 20
14.852132842898
 21
15.1405665778377
 62
7
  0
LINE
  6
BYLAYER
  8
0
 10
104.763582881845
 11
104.763582881845
 20
15.1405665778377
 21
15.1405665778377
 62
7
  0
LINE
  6
BYLAYER
  8
0
 10
104.763582881845
 11
104.053462399917
 20
15.1405665778377
 21
14.852132842898
 62
7
  0
LINE
  6
BYLAYER
  8
0
 10
104.053462399917
 11
103.765028664978
 20
14.852132842898
 21
14.1428557344643
 62
7
  0
LINE
  6
BYLAYER
  8
0
 10
103.765028664978
 11
103.765028664978
 20
14.1428557344643
 21
-1.81714426553577
 62
7
  0
LINE
  6
BYLAYER
  8
0
 10
103.765028664978
 11
104.053462399917
 20
-1.81714426553577
 21
-2.52136113300566
 62
7
  0
LINE
  6
BYLAYER
  8
0
 10
104.053462399917
 11
104.763582881845
 20
-2.52136113300566
 21
-2.81401173541531
 62
7
  0
LINE
  6
BYLAYER
  8
0
 10
104.763582881845
 11
104.763582881845
 20
-2.81401173541531
 21
-2.81401173541531
 62
7
  0
LINE
  6
BYLAYER
  8
0
 10
104.763582881845
 11
104.763582881845
 20
-2.81401173541531
 21
-2.81401173541531
 62
7
  0
LINE
  6
BYLAYER
  8
0
 10
94.8193660143751
 11
95.524426255339
 20
-2.91015631372858
 21
-2.61666233782495
 62
7
  0
LINE
  6
BYLAYER
  8
0
 10
95.524426255339
 11
95.8179202312427
 20
-2.61666233782495
 21
-1.9132888438491
 62
7
  0
LINE
  6
BYLAYER
  8
0
 10
95.8179202312427
 11
95.8179202312427
 20
-1.9132888438491
 21
14.0509280236208
 62
7
  0
LINE
  6
BYLAYER
  8
0
 10
95.8179202312427
 11
95.524426255339
 20
14.0509280236208
 21
14.7610485055484
 62
7
  0
LINE
  6
BYLAYER
  8
0
 10
95.524426255339
 11
94.8193660143751
 20
14.7610485055484
 21
15.0494822404883
 62
7
  0
LINE
  6
BYLAYER
  8
0
 10
94.8193660143751
 11
94.8193660143751
 20
15.0494822404883
 21
15.0494822404883
 62
7
  0
LINE
  6
BYLAYER
  8
0
 10
94.8193660143751
 11
94.1109322794354
 20
15.0494822404883
 21
14.7610485055484
 62
7
  0
LINE
  6
BYLAYER
  8
0
 10
94.1109322794354
 11
93.8224985444957
 20
14.7610485055484
 21
14.0509280236208
 62
7
  0
LINE
  6
BYLAYER
  8
0
 10
93.8224985444957
 11
93.8224985444957
 20
14.0509280236208
 21
-1.9132888438491
 62
7
  0
LINE
  6
BYLAYER
  8
0
 10
93.8224985444957
 11
94.1109322794354
 20
-1.9132888438491
 21
-2.61666233782495
 62
7
  0
LINE
  6
BYLAYER
  8
0
 10
94.1109322794354
 11
94.8193660143751
 20
-2.61666233782495
 21
-2.91015631372858
 62
7
  0
LINE
  6
BYLAYER
  8
0
 10
94.8193660143751
 11
94.8193660143751
 20
-2.91015631372858
 21
-2.91015631372858
 62
7
  0
LINE
  6
BYLAYER
  8
0
 10
94.8193660143751
 11
94.8193660143751
 20
-2.91015631372858
 21
-2.91015631372858
 62
7
  0
LINE
  6
BYLAYER
  8
0
 10
89.8004503517246
 11
90.5055105926884
 20
-2.91015631372858
 21
-2.61666233782495
 62
7
  0
LINE
  6
BYLAYER
  8
0
 10
90.5055105926884
 11
90.8032214360619
 20
-2.61666233782495
 21
-1.9132888438491
 62
7
  0
LINE
  6
BYLAYER
  8
0
 10
90.8032214360619
 11
90.8032214360619
 20
-1.9132888438491
 21
14.0509280236208
 62
7
  0
LINE
  6
BYLAYER
  8
0
 10
90.8032214360619
 11
90.5055105926884
 20
14.0509280236208
 21
14.7610485055484
 62
7
  0
LINE
  6
BYLAYER
  8
0
 10
90.5055105926884
 11
89.8004503517246
 20
14.7610485055484
 21
15.0494822404883
 62
7
  0
LINE
  6
BYLAYER
  8
0
 10
89.8004503517246
 11
89.8004503517246
 20
15.0494822404883
 21
15.0494822404883
 62
7
  0
LINE
  6
BYLAYER
  8
0
 10
89.8004503517246
 11
89.0962334842548
 20
15.0494822404883
 21
14.7610485055484
 62
7
  0
LINE
  6
BYLAYER
  8
0
 10
89.0962334842548
 11
88.8035828818451
 20
14.7610485055484
 21
14.0509280236208
 62
7
  0
LINE
  6
BYLAYER
  8
0
 10
88.8035828818451
 11
88.8035828818451
 20
14.0509280236208
 21
-1.9132888438491
 62
7
  0
LINE
  6
BYLAYER
  8
0
 10
88.8035828818451
 11
89.0962334842548
 20
-1.9132888438491
 21
-2.61666233782495
 62
7
  0
LINE
  6
BYLAYER
  8
0
 10
89.0962334842548
 11
89.8004503517246
 20
-2.61666233782495
 21
-2.91015631372858
 62
7
  0
LINE
  6
BYLAYER
  8
0
 10
89.8004503517246
 11
89.8004503517246
 20
-2.91015631372858
 21
-2.91015631372858
 62
7
  0
LINE
  6
BYLAYER
  8
0
 10
89.8004503517246
 11
89.8004503517246
 20
-2.91015631372858
 21
-2.91015631372858
 62
7
  0
LINE
  6
BYLAYER
  8
0
 10
-84.8406098892392
 11
-84.1359713350224
 20
19.2452653730185
 21
19.5379159754281
 62
7
  0
LINE
  6
BYLAYER
  8
0
 10
-84.1359713350224
 11
-83.8431520579139
 20
19.5379159754281
 21
20.2421328428978
 62
7
  0
LINE
  6
BYLAYER
  8
0
 10
-83.8431520579139
 11
-83.8431520579139
 20
20.2421328428978
 21
36.2063497103679
 62
7
  0
LINE
  6
BYLAYER
  8
0
 10
-83.8431520579139
 11
-84.1359713350224
 20
36.2063497103679
 21
36.9114099513316
 62
7
  0
LINE
  6
BYLAYER
  8
0
 10
-84.1359713350224
 11
-84.8406098892392
 20
36.9114099513316
 21
37.2040605537413
 62
7
  0
LINE
  6
BYLAYER
  8
0
 10
-84.8406098892392
 11
-84.8406098892392
 20
37.2040605537413
 21
37.2040605537413
 62
7
  0
LINE
  6
BYLAYER
  8
0
 10
-84.8406098892392
 11
-85.5498026603236
 20
37.2040605537413
 21
36.9114099513316
 62
7
  0
LINE
  6
BYLAYER
  8
0
 10
-85.5498026603236
 11
-85.8380677205645
 20
36.9114099513316
 21
36.2063497103679
 62
7
  0
LINE
  6
BYLAYER
  8
0
 10
-85.8380677205645
 11
-85.8380677205645
 20
36.2063497103679
 21
20.2421328428978
 62
7
  0
LINE
  6
BYLAYER
  8
0
 10
-85.8380677205645
 11
-85.5498026603236
 20
20.2421328428978
 21
19.5379159754281
 62
7
  0
LINE
  6
BYLAYER
  8
0
 10
-85.5498026603236
 11
-84.8406098892392
 20
19.5379159754281
 21
19.2452653730185
 62
7
  0
LINE
  6
BYLAYER
  8
0
 10
-84.8406098892392
 11
-84.8406098892392
 20
19.2452653730185
 21
19.2452653730185
 62
7
  0
LINE
  6
BYLAYER
  8
0
 10
-84.8406098892392
 11
-84.8406098892392
 20
19.2452653730185
 21
19.2452653730185
 62
7
  0
LINE
  6
BYLAYER
  8
0
 10
-94.8748990458657
 11
-94.2616821783959
 20
55.2640605537412
 21
56.0644219995244
 62
7
  0
LINE
  6
BYLAYER
  8
0
 10
-94.2616821783959
 11
113.845872038472
 20
56.0644219995244
 21
56.0467111561509
 62
7
  0
LINE
  6
BYLAYER
  8
0
 10
113.845872038472
 11
114.459004568592
 20
56.0467111561509
 21
55.625024409163
 62
7
  0
LINE
  6
BYLAYER
  8
0
 10
114.459004568592
 11
114.573703363773
 20
55.625024409163
 21
55.1586388669942
 62
7
  0
LINE
  6
BYLAYER
  8
0
 10
-94.7971400097212
 11
-94.6643930217693
 20
-20.7095539040899
 21
-20.9887105305961
 62
7
  0
LINE
  6
BYLAYER
  8
0
 10
-94.6643930217693
 11
-94.1382966362272
 20
-20.9887105305961
 21
-21.2670237836081
 62
7
  0
LINE
  6
BYLAYER
  8
0
 10
-94.1382966362272
 11
-91.6993448289983
 20
-21.2670237836081
 21
-21.2763008920419
 62
7
  0
LINE
  6
BYLAYER
  8
0
 10
-91.6993448289983
 11
-85.0190677205645
 20
-21.2763008920419
 21
-21.2813611330056
 62
7
  0
LINE
  6
BYLAYER
  8
0
 10
-85.0190677205645
 11
-74.7054532627333
 20
-21.2813611330056
 21
-21.2864213739695
 62
7
  0
LINE
  6
BYLAYER
  8
0
 10
-74.7054532627333
 11
-61.3725616964681
 20
-21.2864213739695
 21
-21.2813611330056
 62
7
  0
LINE
  6
BYLAYER
  8
0
 10
-61.3725616964681
 11
-45.6132845880345
 20
-21.2813611330056
 21
-21.2763008920419
 62
7
  0
LINE
  6
BYLAYER
  8
0
 10
-45.6132845880345
 11
-28.0483448289983
 20
-21.2763008920419
 21
-21.2670237836081
 62
7
  0
LINE
  6
BYLAYER
  8
0
 10
-28.0483448289983
 11
-9.27991109405851
 20
-21.2670237836081
 21
-21.2577466751744
 62
7
  0
LINE
  6
BYLAYER
  8
0
 10
-9.27991109405851
 11
10.093221436062
 20
-21.2577466751744
 21
-21.2450960727647
 62
7
  0
LINE
  6
BYLAYER
  8
0
 10
10.093221436062
 11
29.4579202312426
 20
-21.2450960727647
 21
-21.2307587233672
 62
7
  0
LINE
  6
BYLAYER
  8
0
 10
29.4579202312426
 11
48.203582881845
 20
-21.2307587233672
 21
-21.2172647474635
 62
7
  0
LINE
  6
BYLAYER
  8
0
 10
48.203582881845
 11
65.7331009541342
 20
-21.2172647474635
 21
-21.2037707715599
 62
7
  0
LINE
  6
BYLAYER
  8
0
 10
65.7331009541342
 11
81.4367154119655
 20
-21.2037707715599
 21
-21.1902767956562
 62
7
  0
LINE
  6
BYLAYER
  8
0
 10
81.4367154119655
 11
94.7063539661825
 20
-21.1902767956562
 21
-21.1809996872226
 62
7
  0
LINE
  6
BYLAYER
  8
0
 10
94.7063539661825
 11
104.93225758064
 20
-21.1809996872226
 21
-21.1708792052949
 62
7
  0
LINE
  6
BYLAYER
  8
0
 10
104.93225758064
 11
111.51647444811
 20
-21.1708792052949
 21
-21.166662337825
 62
7
  0
LINE
  6
BYLAYER
  8
0
 10
111.51647444811
 11
113.845872038472
 20
-21.166662337825
 21
-21.166662337825
 62
7
  0
LINE
  6
BYLAYER
  8
0
 10
113.845872038472
 11
114.432016616785
 20
-21.166662337825
 21
-20.7778671571021
 62
7
  0
LINE
  6
BYLAYER
  8
0
 10
114.432016616785
 11
114.659727460158
 20
-20.7778671571021
 21
-20.325818964331
 62
7
  0
LINE
  6
BYLAYER
  8
0
 10
-52.9438869976729
 11
-13.1687062747814
 20
37.2040605537413
 21
37.2040605537413
 62
7
  0
LINE
  6
BYLAYER
  8
0
 10
-13.1687062747814
 11
-13.1687062747814
 20
37.2040605537413
 21
-2.92365028963229
 62
7
  0
LINE
  6
BYLAYER
  8
0
 10
-13.1687062747814
 11
-52.9438869976729
 20
-2.92365028963229
 21
-2.92365028963229
 62
7
  0
LINE
  6
BYLAYER
  8
0
 10
-52.9438869976729
 11
-52.9438869976729
 20
-2.92365028963229
 21
37.2040605537413
 62
7
  0
LINE
  6
BYLAYER
  8
0
 10
-52.9438869976729
 11
-52.9438869976729
 20
37.2040605537413
 21
37.2040605537413
 62
7
  0
LINE
  6
BYLAYER
  8
0
 10
113.716835893893
 11
114.459004568592
 20
39.5056268188015
 21
39.2635786260305
 62
7
  0
LINE
  6
BYLAYER
  8
0
 10
114.459004568592
 11
114.659727460158
 20
39.2635786260305
 21
38.6816509151872
 62
7
  0
LINE
  6
BYLAYER
  8
0
 10
114.659727460158
 11
114.659727460158
 20
38.6816509151872
 21
-4.14569848240325
 62
7
  0
LINE
  6
BYLAYER
  8
0
 10
114.659727460158
 11
114.372137098713
 20
-4.14569848240325
 21
-4.5530478799937
 62
7
  0
LINE
  6
BYLAYER
  8
0
 10
114.372137098713
 11
113.671293725219
 20
-4.5530478799937
 21
-4.80015631372862
 62
7
  0
LINE
  6
BYLAYER
  8
0
 10
113.671293725219
 11
-94.0650074796007
 20
-4.80015631372862
 21
-4.75039727758406
 62
7
  0
LINE
  6
BYLAYER
  8
0
 10
-94.0650074796007
 11
-94.8565135036971
 20
-4.75039727758406
 21
-4.08581896433105
 62
7
  0
LINE
  6
BYLAYER
  8
0
 10
-94.8565135036971
 11
-94.8428508530946
 20
-4.08581896433105
 21
38.7406870597655
 62
7
  0
LINE
  6
BYLAYER
  8
0
 10
-94.8428508530946
 11
-94.0650074796007
 20
38.7406870597655
 21
39.2635786260305
 62
7
  0
LINE
  6
BYLAYER
  8
0
 10
-94.0650074796007
 11
113.716835893893
 20
39.2635786260305
 21
39.5056268188015
 62
7
  0
LINE
  6
BYLAYER
  8
0
 10
113.716835893893
 11
113.716835893893
 20
39.5056268188015
 21
39.5056268188015
 62
7
  0
LINE
  6
BYLAYER
  8
0
 10
-94.0375135036971
 11
-93.8682484434561
 20
71.2190003127774
 21
71.2282774212112
 62
7
  0
LINE
  6
BYLAYER
  8
0
 10
-93.8682484434561
 11
-94.5729713350224
 20
71.2282774212112
 21
70.9406870597654
 62
7
  0
LINE
  6
BYLAYER
  8
0
 10
-94.5729713350224
 11
-94.8657906121308
 20
70.9406870597654
 21
70.2305665778376
 62
7
  0
LINE
  6
BYLAYER
  8
0
 10
-94.8657906121308
 11
-94.8657906121308
 20
70.2305665778376
 21
-35.5250960727647
 62
7
  0
LINE
  6
BYLAYER
  8
0
 10
-94.8657906121308
 11
-94.4721882024922
 20
-35.5250960727647
 21
-36.3625659522827
 62
7
  0
LINE
  6
BYLAYER
  8
0
 10
-94.4721882024922
 11
-94.0375135036971
 20
-36.3625659522827
 21
-36.4856984824033
 62
7
  0
LINE
  6
BYLAYER
  8
0
 10
-94.0375135036971
 11
113.584426255339
 20
-36.4856984824033
 21
-36.4772647474636
 62
7
  0
LINE
  6
BYLAYER
  8
0
 10
113.584426255339
 11
114.285269628833
 20
-36.4772647474636
 21
-36.1846141450539
 62
7
  0
LINE
  6
BYLAYER
  8
0
 10
114.285269628833
 11
114.659727460158
 20
-36.1846141450539
 21
-35.47955390409
 62
7
  0
LINE
  6
BYLAYER
  8
0
 10
114.659727460158
 11
114.838522640881
 20
-35.47955390409
 21
70.0146629633798
 62
7
  0
LINE
  6
BYLAYER
  8
0
 10
114.838522640881
 11
114.408402158954
 20
70.0146629633798
 21
70.8352653730183
 62
7
  0
LINE
  6
BYLAYER
  8
0
 10
114.408402158954
 11
113.570932279436
 20
70.8352653730183
 21
71.2367111561509
 62
7
  0
LINE
  6
BYLAYER
  8
0
 10
113.570932279436
 11
-94.0375135036971
 20
71.2367111561509
 21
71.2190003127774
 62
7
  0
LINE
  6
BYLAYER
  8
0
 10
-94.0375135036971
 11
-94.0375135036971
 20
71.2190003127774
 21
71.2190003127774
 62
7
  0
ENDSEC
  0
EOF
