  0
SECTION
  2
HEADER
  9
$CECOLOR
 62
256
  9
$CELTYPE
  6
CONTINUOUS
  9
$CLAYER
  8
0
  9
$TEXTSTYLE
  7
STANDARD
  9
$DWGCODEPAGE
  3
ANSI_1252
  9
$LTSCALE
 40
1
  0
ENDSEC
  0
SECTION
  2
TABLES
  0
TABLE
  2
LTYPE
 70
5
  0
LTYPE
  2
CONTINUOUS
  3
CONTINUOUS
 70
0
 72
65
 73
0
 40
0
  0
LTYPE
  2
DASHED
  3
DASHED
 70
0
 72
65
 73
2
 40
0.75
 49
0.5
 49
-0.25
  0
LTYPE
  2
DOT
  3
DOT
 70
0
 72
65
 73
2
 40
0.25
 49
0
 49
-0.25
  0
LTYPE
  2
DASHDOT
  3
DASHDOT
 70
0
 72
65
 73
4
 40
1
 49
0.5
 49
-0.25
 49
0
 49
-0.25
  0
LTYPE
  2
DIVIDE
  3
DIVIDE
 70
0
 72
65
 73
6
 40
1.25
 49
0.5
 49
-0.25
 49
0
 49
-0.25
 49
0
 49
-0.25
  0
ENDTAB
  0
TABLE
  2
LAYER
 70
1
  0
LAYER
  2
0
  6
CONTINUOUS
 70
0
 62
7
  0
ENDTAB
  0
TABLE
  2
STYLE
 70
3
  0
STYLE
  2
STANDARD
 70
0
 40
0
 41
1
 50
0
 71
0
 42
1
  3
TXT.SHX
  0
STYLE
  2
ANNOTATIVE
 70
0
 40
0
 41
1
 50
0
 71
0
 42
1
  3
ROMANS.SHX
  0
STYLE
  2
ATTRIBUTI_SCATOLA
 70
0
 40
0
 41
1
 50
0
 71
0
 42
1
  3
ROMANS.SHX
  0
ENDTAB
  0
ENDSEC
  0
SECTION
  2
BLOCKS
  0
BLOCK
  2
*MODEL_SPACE
 10
0
 20
0
 70
1
  0
ENDBLK
  0
BLOCK
  2
*PAPER_SPACE
 10
0
 20
0
 70
1
  0
ENDBLK
  0
ENDSEC
  0
SECTION
  2
ENTITIES
  0
LINE
  6
BYLAYER
  8
0
 10
-0.715498114143927
 11
-0.715498114143927
 20
128.479934677419
 21
125.84751780397
 62
7
  0
LINE
  6
BYLAYER
  8
0
 10
4.18242347394542
 11
-0.715498114143927
 20
127.163726240695
 21
128.479934677419
 62
7
  0
LINE
  6
BYLAYER
  8
0
 10
-0.715498114143927
 11
4.18242347394542
 20
125.84751780397
 21
127.163726240695
 62
7
  0
LINE
  6
BYLAYER
  8
0
 10
-0.715498114143927
 11
-0.307422679900739
 20
125.84751780397
 21
125.956778349876
 62
7
  0
LINE
  6
BYLAYER
  8
0
 10
-0.307422679900739
 11
3.77434803970223
 20
125.956778349876
 21
127.054465694789
 62
7
  0
LINE
  6
BYLAYER
  8
0
 10
3.77434803970223
 11
4.18242347394542
 20
127.054465694789
 21
127.163726240695
 62
7
  0
LINE
  6
BYLAYER
  8
0
 10
4.18242347394542
 11
3.77434803970223
 20
127.163726240695
 21
127.272986786601
 62
7
  0
LINE
  6
BYLAYER
  8
0
 10
3.77434803970223
 11
-0.307422679900739
 20
127.272986786601
 21
128.368133188586
 62
7
  0
LINE
  6
BYLAYER
  8
0
 10
-0.307422679900739
 11
-0.715498114143927
 20
128.368133188586
 21
128.477393734491
 62
7
  0
LINE
  6
BYLAYER
  8
0
 10
-0.715498114143927
 11
-0.715498114143927
 20
128.477393734491
 21
125.84751780397
 62
7
  0
LINE
  6
BYLAYER
  8
0
 10
-92.7875306699752
 11
-92.7875306699752
 20
125.811944602978
 21
128.444361476427
 62
7
  0
LINE
  6
BYLAYER
  8
0
 10
-97.6855030769231
 11
-92.786158560794
 20
127.128153039702
 21
125.811944602978
 62
7
  0
LINE
  6
BYLAYER
  8
0
 10
-92.7875306699752
 11
-97.6855030769231
 20
128.444361476427
 21
127.128153039702
 62
7
  0
LINE
  6
BYLAYER
  8
0
 10
-95.7541831761786
 11
4.22104580645166
 20
127.163726240695
 21
127.163726240695
 62
7
  0
LINE
  6
BYLAYER
  8
0
 10
-92.7875306699752
 11
-93.1956061042183
 20
128.444361476427
 21
128.335100930521
 62
7
  0
LINE
  6
BYLAYER
  8
0
 10
-93.1956061042183
 11
-97.2774784615384
 20
128.335100930521
 21
127.237413585608
 62
7
  0
LINE
  6
BYLAYER
  8
0
 10
-97.2774784615384
 11
-97.6855030769231
 20
127.237413585608
 21
127.128153039702
 62
7
  0
LINE
  6
BYLAYER
  8
0
 10
-97.6855030769231
 11
-97.2774784615384
 20
127.128153039702
 21
127.018892493797
 62
7
  0
LINE
  6
BYLAYER
  8
0
 10
-97.2774784615384
 11
-93.1956061042183
 20
127.018892493797
 21
125.921205148883
 62
7
  0
LINE
  6
BYLAYER
  8
0
 10
-93.1956061042183
 11
-92.7875306699752
 20
125.921205148883
 21
125.811944602978
 62
7
  0
LINE
  6
BYLAYER
  8
0
 10
-92.7875306699752
 11
-92.7875306699752
 20
125.811944602978
 21
128.444361476427
 62
7
  0
LINE
  6
BYLAYER
  8
0
 10
4.74092272952858
 11
4.74092272952858
 20
110.614819044665
 21
128.164857754342
 62
7
  0
LINE
  6
BYLAYER
  8
0
 10
-97.6855030769231
 11
-97.6855030769231
 20
110.614819044665
 21
128.164857754342
 62
7
  0
LINE
  6
BYLAYER
  8
0
 10
49.3161763275434
 11
49.2704393548387
 20
111.162392245658
 21
111.162392245658
 62
7
  0
LINE
  6
BYLAYER
  8
0
 10
98.5964939454095
 11
51.2793088337469
 20
112.461068176179
 21
112.461068176179
 62
7
  0
LINE
  6
BYLAYER
  8
0
 10
51.2793088337469
 11
51.0269932009926
 20
112.461068176179
 21
112.447092990074
 62
7
  0
LINE
  6
BYLAYER
  8
0
 10
51.0269932009926
 11
50.7817922084367
 20
112.447092990074
 21
112.404151054591
 62
7
  0
LINE
  6
BYLAYER
  8
0
 10
50.7817922084367
 11
50.540402630273
 20
112.404151054591
 21
112.334021029777
 62
7
  0
LINE
  6
BYLAYER
  8
0
 10
50.540402630273
 11
50.3117177667494
 20
112.334021029777
 21
112.238989764268
 62
7
  0
LINE
  6
BYLAYER
  8
0
 10
50.3117177667494
 11
50.0921802977668
 20
112.238989764268
 21
112.114737655087
 62
7
  0
LINE
  6
BYLAYER
  8
0
 10
50.0921802977668
 11
49.890937617866
 20
112.114737655087
 21
111.970158002481
 62
7
  0
LINE
  6
BYLAYER
  8
0
 10
49.890937617866
 11
49.7077356327544
 20
111.970158002481
 21
111.801693486352
 62
7
  0
LINE
  6
BYLAYER
  8
0
 10
49.7077356327544
 11
49.542320248139
 20
111.801693486352
 21
111.614425992556
 62
7
  0
LINE
  6
BYLAYER
  8
0
 10
49.542320248139
 11
49.4015520099256
 20
111.614425992556
 21
111.408863709677
 62
7
  0
LINE
  6
BYLAYER
  8
0
 10
49.4015520099256
 11
49.2818735980149
 20
111.408863709677
 21
111.191104900744
 62
7
  0
LINE
  6
BYLAYER
  8
0
 10
49.2818735980149
 11
49.1893832754343
 20
111.191104900744
 21
110.958354528536
 62
7
  0
LINE
  6
BYLAYER
  8
0
 10
49.1893832754343
 11
49.1258597022333
 20
110.958354528536
 21
110.718235421836
 62
7
  0
LINE
  6
BYLAYER
  8
0
 10
49.1258597022333
 11
49.0859668982631
 20
110.718235421836
 21
110.47023939206
 62
7
  0
LINE
  6
BYLAYER
  8
0
 10
49.0859668982631
 11
49.0763113151365
 20
110.47023939206
 21
110.25908703474
 62
7
  0
LINE
  6
BYLAYER
  8
0
 10
49.0763113151365
 11
49.0763113151365
 20
110.25908703474
 21
-96.2171730148883
 62
7
  0
LINE
  6
BYLAYER
  8
0
 10
49.0763113151365
 11
51.2793088337469
 20
-96.2171730148883
 21
-96.2171730148883
 62
7
  0
LINE
  6
BYLAYER
  8
0
 10
51.2793088337469
 11
77.9444721091812
 20
-96.2171730148883
 21
-96.2171730148883
 62
7
  0
LINE
  6
BYLAYER
  8
0
 10
77.9444721091812
 11
78.0273068486352
 20
-96.2171730148883
 21
-96.2156484491315
 62
7
  0
LINE
  6
BYLAYER
  8
0
 10
78.0273068486352
 11
78.8459986600496
 20
-96.2156484491315
 21
-96.077675248139
 62
7
  0
LINE
  6
BYLAYER
  8
0
 10
78.8459986600496
 11
78.9260383622829
 20
-96.077675248139
 21
-96.0515035359802
 62
7
  0
LINE
  6
BYLAYER
  8
0
 10
78.9260383622829
 11
78.9646606947891
 20
-96.0515035359802
 21
-96.0377824441688
 62
7
  0
LINE
  6
BYLAYER
  8
0
 10
78.9646606947891
 11
79.3435152853598
 20
-96.0377824441688
 21
-95.8698261166253
 62
7
  0
LINE
  6
BYLAYER
  8
0
 10
79.3435152853598
 11
79.3811212406948
 20
-95.8698261166253
 21
-95.8505149503722
 62
7
  0
LINE
  6
BYLAYER
  8
0
 10
79.3811212406948
 11
79.4166944416873
 20
-95.8505149503722
 21
-95.8296792183623
 62
7
  0
LINE
  6
BYLAYER
  8
0
 10
79.4166944416873
 11
79.7653118114144
 20
-95.8296792183623
 21
-95.5994697890819
 62
7
  0
LINE
  6
BYLAYER
  8
0
 10
79.7653118114144
 11
79.7998686352357
 20
-95.5994697890819
 21
-95.5748226426799
 62
7
  0
LINE
  6
BYLAYER
  8
0
 10
79.7998686352357
 11
79.8484006451613
 20
-95.5748226426799
 21
-95.5346757444169
 62
7
  0
LINE
  6
BYLAYER
  8
0
 10
79.8484006451613
 11
80.2867133002482
 20
-95.5346757444169
 21
-95.0910271091812
 62
7
  0
LINE
  6
BYLAYER
  8
0
 10
80.2867133002482
 11
80.3266061042184
 20
-95.0910271091812
 21
-95.0412246277916
 62
7
  0
LINE
  6
BYLAYER
  8
0
 10
80.3266061042184
 11
80.3639579652606
 20
-95.0412246277916
 21
-94.991422146402
 62
7
  0
LINE
  6
BYLAYER
  8
0
 10
80.3639579652606
 11
80.6780185111663
 20
-94.991422146402
 21
-94.4524881513647
 62
7
  0
LINE
  6
BYLAYER
  8
0
 10
80.6780185111663
 11
80.7044443176179
 20
-94.4524881513647
 21
-94.3960792183623
 62
7
  0
LINE
  6
BYLAYER
  8
0
 10
80.7044443176179
 11
80.7926150372208
 20
-94.3960792183623
 21
-94.1633288461538
 62
7
  0
LINE
  6
BYLAYER
  8
0
 10
80.7926150372208
 11
80.8104016377171
 20
-94.1633288461538
 21
-94.1066658188585
 62
7
  0
LINE
  6
BYLAYER
  8
0
 10
80.8104016377171
 11
80.9275391066998
 20
-94.1066658188585
 21
-93.533175
 62
7
  0
LINE
  6
BYLAYER
  8
0
 10
80.9275391066998
 11
80.9331291811414
 20
-93.533175
 21
-93.4749874069479
 62
7
  0
LINE
  6
BYLAYER
  8
0
 10
80.9331291811414
 11
98.2753187593052
 20
-93.4749874069479
 21
104.757437406948
 62
7
  0
LINE
  6
BYLAYER
  8
0
 10
98.2753187593052
 11
98.4049068486353
 20
104.757437406948
 21
106.218733684864
 62
7
  0
LINE
  6
BYLAYER
  8
0
 10
98.4049068486353
 11
98.4353981637717
 20
106.218733684864
 21
106.581072146402
 62
7
  0
LINE
  6
BYLAYER
  8
0
 10
98.4353981637717
 11
98.5952234739455
 20
106.581072146402
 21
110.213604156328
 62
7
  0
LINE
  6
BYLAYER
  8
0
 10
98.5952234739455
 11
98.5964939454095
 20
110.213604156328
 21
110.576450806452
 62
7
  0
LINE
  6
BYLAYER
  8
0
 10
98.5964939454095
 11
98.5964939454095
 20
110.576450806452
 21
112.461068176179
 62
7
  0
LINE
  6
BYLAYER
  8
0
 10
98.5964939454095
 11
98.5964939454095
 20
112.461068176179
 21
112.461068176179
 62
7
  0
LINE
  6
BYLAYER
  8
0
 10
98.5964939454095
 11
51.2793088337469
 20
112.461068176179
 21
112.461068176179
 62
7
  0
LINE
  6
BYLAYER
  8
0
 10
51.2793088337469
 11
51.0269932009926
 20
112.461068176179
 21
112.447092990074
 62
7
  0
LINE
  6
BYLAYER
  8
0
 10
51.0269932009926
 11
50.7817922084367
 20
112.447092990074
 21
112.404151054591
 62
7
  0
LINE
  6
BYLAYER
  8
0
 10
50.7817922084367
 11
50.540402630273
 20
112.404151054591
 21
112.334021029777
 62
7
  0
LINE
  6
BYLAYER
  8
0
 10
50.540402630273
 11
50.3117177667494
 20
112.334021029777
 21
112.238989764268
 62
7
  0
LINE
  6
BYLAYER
  8
0
 10
50.3117177667494
 11
50.0921802977668
 20
112.238989764268
 21
112.114737655087
 62
7
  0
LINE
  6
BYLAYER
  8
0
 10
50.0921802977668
 11
49.890937617866
 20
112.114737655087
 21
111.970158002481
 62
7
  0
LINE
  6
BYLAYER
  8
0
 10
49.890937617866
 11
49.7077356327544
 20
111.970158002481
 21
111.801693486352
 62
7
  0
LINE
  6
BYLAYER
  8
0
 10
49.7077356327544
 11
49.542320248139
 20
111.801693486352
 21
111.614425992556
 62
7
  0
LINE
  6
BYLAYER
  8
0
 10
49.542320248139
 11
49.4015520099256
 20
111.614425992556
 21
111.408863709677
 62
7
  0
LINE
  6
BYLAYER
  8
0
 10
49.4015520099256
 11
49.2818735980149
 20
111.408863709677
 21
111.191104900744
 62
7
  0
LINE
  6
BYLAYER
  8
0
 10
49.2818735980149
 11
49.1893832754343
 20
111.191104900744
 21
110.958354528536
 62
7
  0
LINE
  6
BYLAYER
  8
0
 10
49.1893832754343
 11
49.1258597022333
 20
110.958354528536
 21
110.718235421836
 62
7
  0
LINE
  6
BYLAYER
  8
0
 10
49.1258597022333
 11
49.0859668982631
 20
110.718235421836
 21
110.47023939206
 62
7
  0
LINE
  6
BYLAYER
  8
0
 10
49.0859668982631
 11
49.0763113151365
 20
110.47023939206
 21
110.25908703474
 62
7
  0
LINE
  6
BYLAYER
  8
0
 10
49.0763113151365
 11
49.0763113151365
 20
110.25908703474
 21
-96.2171730148883
 62
7
  0
LINE
  6
BYLAYER
  8
0
 10
49.0763113151365
 11
51.2793088337469
 20
-96.2171730148883
 21
-96.2171730148883
 62
7
  0
LINE
  6
BYLAYER
  8
0
 10
51.2793088337469
 11
77.9444721091812
 20
-96.2171730148883
 21
-96.2171730148883
 62
7
  0
LINE
  6
BYLAYER
  8
0
 10
77.9444721091812
 11
78.0273068486352
 20
-96.2171730148883
 21
-96.2156484491315
 62
7
  0
LINE
  6
BYLAYER
  8
0
 10
78.0273068486352
 11
78.8459986600496
 20
-96.2156484491315
 21
-96.077675248139
 62
7
  0
LINE
  6
BYLAYER
  8
0
 10
78.8459986600496
 11
78.9260383622829
 20
-96.077675248139
 21
-96.0515035359802
 62
7
  0
LINE
  6
BYLAYER
  8
0
 10
78.9260383622829
 11
78.9646606947891
 20
-96.0515035359802
 21
-96.0377824441688
 62
7
  0
LINE
  6
BYLAYER
  8
0
 10
78.9646606947891
 11
79.3435152853598
 20
-96.0377824441688
 21
-95.8698261166253
 62
7
  0
LINE
  6
BYLAYER
  8
0
 10
79.3435152853598
 11
79.3811212406948
 20
-95.8698261166253
 21
-95.8505149503722
 62
7
  0
LINE
  6
BYLAYER
  8
0
 10
79.3811212406948
 11
79.4166944416873
 20
-95.8505149503722
 21
-95.8296792183623
 62
7
  0
LINE
  6
BYLAYER
  8
0
 10
79.4166944416873
 11
79.7653118114144
 20
-95.8296792183623
 21
-95.5994697890819
 62
7
  0
LINE
  6
BYLAYER
  8
0
 10
79.7653118114144
 11
79.7998686352357
 20
-95.5994697890819
 21
-95.5748226426799
 62
7
  0
LINE
  6
BYLAYER
  8
0
 10
79.7998686352357
 11
79.8484006451613
 20
-95.5748226426799
 21
-95.5346757444169
 62
7
  0
LINE
  6
BYLAYER
  8
0
 10
79.8484006451613
 11
80.2867133002482
 20
-95.5346757444169
 21
-95.0910271091812
 62
7
  0
LINE
  6
BYLAYER
  8
0
 10
80.2867133002482
 11
80.3266061042184
 20
-95.0910271091812
 21
-95.0412246277916
 62
7
  0
LINE
  6
BYLAYER
  8
0
 10
80.3266061042184
 11
80.3639579652606
 20
-95.0412246277916
 21
-94.991422146402
 62
7
  0
LINE
  6
BYLAYER
  8
0
 10
80.3639579652606
 11
80.6780185111663
 20
-94.991422146402
 21
-94.4524881513647
 62
7
  0
LINE
  6
BYLAYER
  8
0
 10
80.6780185111663
 11
80.7044443176179
 20
-94.4524881513647
 21
-94.3960792183623
 62
7
  0
LINE
  6
BYLAYER
  8
0
 10
80.7044443176179
 11
80.7926150372208
 20
-94.3960792183623
 21
-94.1633288461538
 62
7
  0
LINE
  6
BYLAYER
  8
0
 10
80.7926150372208
 11
80.8104016377171
 20
-94.1633288461538
 21
-94.1066658188585
 62
7
  0
LINE
  6
BYLAYER
  8
0
 10
80.8104016377171
 11
80.9275391066998
 20
-94.1066658188585
 21
-93.533175
 62
7
  0
LINE
  6
BYLAYER
  8
0
 10
80.9275391066998
 11
80.9331291811414
 20
-93.533175
 21
-93.4749874069479
 62
7
  0
LINE
  6
BYLAYER
  8
0
 10
80.9331291811414
 11
98.2753187593052
 20
-93.4749874069479
 21
104.757437406948
 62
7
  0
LINE
  6
BYLAYER
  8
0
 10
98.2753187593052
 11
98.4049068486353
 20
104.757437406948
 21
106.218733684864
 62
7
  0
LINE
  6
BYLAYER
  8
0
 10
98.4049068486353
 11
98.4353981637717
 20
106.218733684864
 21
106.581072146402
 62
7
  0
LINE
  6
BYLAYER
  8
0
 10
98.4353981637717
 11
98.5952234739455
 20
106.581072146402
 21
110.213604156328
 62
7
  0
LINE
  6
BYLAYER
  8
0
 10
98.5952234739455
 11
98.5964939454095
 20
110.213604156328
 21
110.576450806452
 62
7
  0
LINE
  6
BYLAYER
  8
0
 10
98.5964939454095
 11
98.5964939454095
 20
110.576450806452
 21
112.461068176179
 62
7
  0
LINE
  6
BYLAYER
  8
0
 10
98.5964939454095
 11
98.5964939454095
 20
112.461068176179
 21
112.461068176179
 62
7
  0
LINE
  6
BYLAYER
  8
0
 10
-29.6070355831265
 11
-31.1069541935484
 20
-96.2171730148883
 21
-92.0927144540943
 62
7
  0
LINE
  6
BYLAYER
  8
0
 10
-29.6070355831265
 11
-14.6083576674938
 20
-96.2171730148883
 21
-96.2171730148883
 62
7
  0
LINE
  6
BYLAYER
  8
0
 10
-78.6215705707196
 11
-74.6236509677419
 20
-96.2171730148883
 21
-96.2171730148883
 62
7
  0
LINE
  6
BYLAYER
  8
0
 10
-74.6236509677419
 11
-73.1239864516129
 20
-96.2171730148883
 21
-92.0927144540943
 62
7
  0
LINE
  6
BYLAYER
  8
0
 10
-73.1239864516129
 11
-73.1239864516129
 20
-75.8090816997519
 21
-92.0927144540943
 62
7
  0
LINE
  6
BYLAYER
  8
0
 10
-47.1148946401985
 11
-47.1329353349876
 20
-75.8090816997519
 21
-75.0701754962779
 62
7
  0
LINE
  6
BYLAYER
  8
0
 10
-47.1329353349876
 11
-47.4678316129032
 20
-75.0701754962779
 21
-72.8603174317618
 62
7
  0
LINE
  6
BYLAYER
  8
0
 10
-47.4678316129032
 11
-48.3276866997519
 20
-72.8603174317618
 21
-70.3043829404466
 62
7
  0
LINE
  6
BYLAYER
  8
0
 10
-48.3276866997519
 11
-49.6250921588089
 20
-70.3043829404466
 21
-68.1428027915633
 62
7
  0
LINE
  6
BYLAYER
  8
0
 10
-49.6250921588089
 11
-51.2863606451613
 20
-68.1428027915633
 21
-66.3730360421836
 62
7
  0
LINE
  6
BYLAYER
  8
0
 10
-51.2863606451613
 11
-53.2380589081886
 20
-66.3730360421836
 21
-64.9971154466501
 62
7
  0
LINE
  6
BYLAYER
  8
0
 10
-53.2380589081886
 11
-55.4095487344913
 20
-64.9971154466501
 21
-64.0142787220844
 62
7
  0
LINE
  6
BYLAYER
  8
0
 10
-55.4095487344913
 11
-57.7253641191067
 20
-64.0142787220844
 21
-63.4255422456576
 62
7
  0
LINE
  6
BYLAYER
  8
0
 10
-57.7253641191067
 11
-60.1158832258065
 20
-63.4255422456576
 21
-63.2283650744417
 62
7
  0
LINE
  6
BYLAYER
  8
0
 10
-60.1158832258065
 11
-62.5048777667494
 20
-63.2283650744417
 21
-63.4255422456576
 62
7
  0
LINE
  6
BYLAYER
  8
0
 10
-62.5048777667494
 11
-64.8224718114144
 20
-63.4255422456576
 21
-64.0155491935484
 62
7
  0
LINE
  6
BYLAYER
  8
0
 10
-64.8224718114144
 11
-66.9934534491315
 20
-64.0155491935484
 21
-64.9983859181142
 62
7
  0
LINE
  6
BYLAYER
  8
0
 10
-66.9934534491315
 11
-68.9469303722084
 20
-64.9983859181142
 21
-66.3745606079404
 62
7
  0
LINE
  6
BYLAYER
  8
0
 10
-68.9469303722084
 11
-70.6094693300248
 20
-66.3745606079404
 21
-68.1428027915633
 62
7
  0
LINE
  6
BYLAYER
  8
0
 10
-70.6094693300248
 11
-71.9081452605459
 20
-68.1428027915633
 21
-70.3043829404466
 62
7
  0
LINE
  6
BYLAYER
  8
0
 10
-71.9081452605459
 11
-72.7710494789082
 20
-70.3043829404466
 21
-72.8603174317618
 62
7
  0
LINE
  6
BYLAYER
  8
0
 10
-72.7710494789082
 11
-73.1072162282879
 20
-72.8603174317618
 21
-75.0701754962779
 62
7
  0
LINE
  6
BYLAYER
  8
0
 10
-73.1072162282879
 11
-73.1239864516129
 20
-75.0701754962779
 21
-75.8090816997519
 62
7
  0
LINE
  6
BYLAYER
  8
0
 10
-47.1148946401985
 11
-47.1148946401985
 20
-92.0927144540943
 21
-75.8078112282879
 62
7
  0
LINE
  6
BYLAYER
  8
0
 10
-45.6149760297767
 11
-47.1148946401985
 20
-96.2171730148883
 21
-92.0927144540943
 62
7
  0
LINE
  6
BYLAYER
  8
0
 10
-45.6149760297767
 11
-37.6110058064516
 20
-96.2171730148883
 21
-96.2171730148883
 62
7
  0
LINE
  6
BYLAYER
  8
0
 10
-37.6110058064516
 11
-36.1110871960298
 20
-96.2171730148883
 21
-92.0927144540943
 62
7
  0
LINE
  6
BYLAYER
  8
0
 10
-36.1110871960298
 11
-36.1110871960298
 20
-82.3090678039702
 21
-92.0927144540943
 62
7
  0
LINE
  6
BYLAYER
  8
0
 10
-31.1069541935484
 11
-31.1082246650124
 20
-82.3090678039702
 21
-82.2663799627792
 62
7
  0
LINE
  6
BYLAYER
  8
0
 10
-31.1082246650124
 11
-31.1486256575682
 20
-82.2663799627792
 21
-81.8555094913151
 62
7
  0
LINE
  6
BYLAYER
  8
0
 10
-31.1486256575682
 11
-31.1552321091811
 20
-81.8555094913151
 21
-81.8153625930521
 62
7
  0
LINE
  6
BYLAYER
  8
0
 10
-31.1552321091811
 11
-31.2187556823821
 20
-81.8153625930521
 21
-81.5714320719603
 62
7
  0
LINE
  6
BYLAYER
  8
0
 10
-31.2187556823821
 11
-31.3041313647642
 20
-81.5714320719603
 21
-81.338427605459
 62
7
  0
LINE
  6
BYLAYER
  8
0
 10
-31.3041313647642
 11
-31.4131378163771
 20
-81.338427605459
 21
-81.1122836848635
 62
7
  0
LINE
  6
BYLAYER
  8
0
 10
-31.4131378163771
 11
-31.544250471464
 20
-81.1122836848635
 21
-80.9016395161291
 62
7
  0
LINE
  6
BYLAYER
  8
0
 10
-31.544250471464
 11
-31.6954365756824
 20
-80.9016395161291
 21
-80.7001427419355
 62
7
  0
LINE
  6
BYLAYER
  8
0
 10
-31.6954365756824
 11
-31.8654256575682
 20
-80.7001427419355
 21
-80.5169407568238
 62
7
  0
LINE
  6
BYLAYER
  8
0
 10
-31.8654256575682
 11
-32.0526931513647
 20
-80.5169407568238
 21
-80.3543204094293
 62
7
  0
LINE
  6
BYLAYER
  8
0
 10
-32.0526931513647
 11
-32.2567308684863
 20
-80.3543204094293
 21
-80.2054211538461
 62
7
  0
LINE
  6
BYLAYER
  8
0
 10
-32.2567308684863
 11
-32.4719487344913
 20
-80.2054211538461
 21
-80.0824395161291
 62
7
  0
LINE
  6
BYLAYER
  8
0
 10
-32.4719487344913
 11
-32.7021581637717
 20
-80.0824395161291
 21
-79.9790231389578
 62
7
  0
LINE
  6
BYLAYER
  8
0
 10
-32.7021581637717
 11
-32.937703573201
 20
-79.9790231389578
 21
-79.9033030397023
 62
7
  0
LINE
  6
BYLAYER
  8
0
 10
-32.937703573201
 11
-33.1816340942928
 20
-79.9033030397023
 21
-79.8453695409429
 62
7
  0
LINE
  6
BYLAYER
  8
0
 10
-33.1816340942928
 11
-33.2233055583127
 20
-79.8453695409429
 21
-79.8385089950372
 62
7
  0
LINE
  6
BYLAYER
  8
0
 10
-33.2233055583127
 11
-33.6379874441687
 20
-79.8385089950372
 21
-79.8097963399504
 62
7
  0
LINE
  6
BYLAYER
  8
0
 10
-33.6379874441687
 11
-33.6796589081886
 20
-79.8097963399504
 21
-79.8110668114144
 62
7
  0
LINE
  6
BYLAYER
  8
0
 10
-33.6796589081886
 11
-33.7223467493796
 20
-79.8110668114144
 21
-79.8125913771712
 62
7
  0
LINE
  6
BYLAYER
  8
0
 10
-33.7223467493796
 11
-34.1332172208436
 20
-79.8125913771712
 21
-79.864680707196
 62
7
  0
LINE
  6
BYLAYER
  8
0
 10
-34.1332172208436
 11
-34.1728559305211
 20
-79.864680707196
 21
-79.8743362903226
 62
7
  0
LINE
  6
BYLAYER
  8
0
 10
-34.1728559305211
 11
-34.4129750372208
 20
-79.8743362903226
 21
-79.9406549007444
 62
7
  0
LINE
  6
BYLAYER
  8
0
 10
-34.4129750372208
 11
-34.4528678411911
 20
-79.9406549007444
 21
-79.9543759925558
 62
7
  0
LINE
  6
BYLAYER
  8
0
 10
-34.4528678411911
 11
-34.8319765260546
 20
-79.9543759925558
 21
-80.1294469602977
 62
7
  0
LINE
  6
BYLAYER
  8
0
 10
-34.8319765260546
 11
-34.8678038213399
 20
-80.1294469602977
 21
-80.1502826923077
 62
7
  0
LINE
  6
BYLAYER
  8
0
 10
-34.8678038213399
 11
-35.0771775186104
 20
-80.1502826923077
 21
-80.2864772332506
 62
7
  0
LINE
  6
BYLAYER
  8
0
 10
-35.0771775186104
 11
-35.2702891811414
 20
-80.2864772332506
 21
-80.4424911290323
 62
7
  0
LINE
  6
BYLAYER
  8
0
 10
-35.2702891811414
 11
-35.4509502233251
 20
-80.4424911290323
 21
-80.6188325682382
 62
7
  0
LINE
  6
BYLAYER
  8
0
 10
-35.4509502233251
 11
-35.6092509677419
 20
-80.6188325682382
 21
-80.8091491935484
 62
7
  0
LINE
  6
BYLAYER
  8
0
 10
-35.6092509677419
 11
-35.6344063027295
 20
-80.8091491935484
 21
-80.8424355459057
 62
7
  0
LINE
  6
BYLAYER
  8
0
 10
-35.6344063027295
 11
-35.8493700744417
 20
-80.8424355459057
 21
-81.1976593672456
 62
7
  0
LINE
  6
BYLAYER
  8
0
 10
-35.8493700744417
 11
-35.8674107692307
 20
-81.1976593672456
 21
-81.2365357940447
 62
7
  0
LINE
  6
BYLAYER
  8
0
 10
-35.8674107692307
 11
-35.885197369727
 20
-81.2365357940447
 21
-81.273633560794
 62
7
  0
LINE
  6
BYLAYER
  8
0
 10
-35.885197369727
 11
-36.0272360794045
 20
-81.273633560794
 21
-81.665192866005
 62
7
  0
LINE
  6
BYLAYER
  8
0
 10
-36.0272360794045
 11
-36.0366375682382
 20
-81.665192866005
 21
-81.7050856699752
 62
7
  0
LINE
  6
BYLAYER
  8
0
 10
-36.0366375682382
 11
-36.0490881885856
 20
-81.7050856699752
 21
-81.7548881513648
 62
7
  0
LINE
  6
BYLAYER
  8
0
 10
-36.0490881885856
 11
-36.1110871960298
 20
-81.7548881513648
 21
-82.2577407568238
 62
7
  0
LINE
  6
BYLAYER
  8
0
 10
-36.1110871960298
 11
-36.1110871960298
 20
-82.2577407568238
 21
-82.3090678039702
 62
7
  0
LINE
  6
BYLAYER
  8
0
 10
-31.1069541935484
 11
-31.1069541935484
 20
-92.0927144540943
 21
-82.3090678039702
 62
7
  0
LINE
  6
BYLAYER
  8
0
 10
-78.6215705707196
 11
-14.6083576674938
 20
-48.1981794665013
 21
-48.1981794665013
 62
7
  0
LINE
  6
BYLAYER
  8
0
 10
-78.6256360794044
 11
-78.6256360794044
 20
93.1857292183623
 21
-71.207434057072
 62
7
  0
LINE
  6
BYLAYER
  8
0
 10
-78.6256360794044
 11
-80.6273909181141
 20
-71.207434057072
 21
-71.207434057072
 62
7
  0
LINE
  6
BYLAYER
  8
0
 10
-80.6273909181141
 11
-80.6273909181141
 20
-71.207434057072
 21
-76.2075015508685
 62
7
  0
LINE
  6
BYLAYER
  8
0
 10
-80.6273909181141
 11
-78.6256360794044
 20
-76.2075015508685
 21
-76.2075015508685
 62
7
  0
LINE
  6
BYLAYER
  8
0
 10
-78.6256360794044
 11
-78.6256360794044
 20
-76.2075015508685
 21
-96.2171730148883
 62
7
  0
LINE
  6
BYLAYER
  8
0
 10
-14.6002266501241
 11
-12.5999963771712
 20
-71.207434057072
 21
-71.207434057072
 62
7
  0
LINE
  6
BYLAYER
  8
0
 10
-12.5999963771712
 11
-12.5999963771712
 20
-71.207434057072
 21
-76.2075015508685
 62
7
  0
LINE
  6
BYLAYER
  8
0
 10
-12.5999963771712
 11
-14.6017512158809
 20
-76.2075015508685
 21
-76.2075015508685
 62
7
  0
LINE
  6
BYLAYER
  8
0
 10
-14.6002266501241
 11
-14.6002266501241
 20
-71.207434057072
 21
93.1857292183623
 62
7
  0
LINE
  6
BYLAYER
  8
0
 10
-14.6002266501241
 11
-14.6002266501241
 20
-96.2171730148883
 21
-76.2075015508685
 62
7
  0
LINE
  6
BYLAYER
  8
0
 10
-78.5555060545906
 11
-14.6718812406948
 20
93.2563674317618
 21
93.2563674317618
 62
7
  0
LINE
  6
BYLAYER
  8
0
 10
-94.6940763771712
 11
-78.6256360794044
 20
109.250332692308
 21
93.1844587468983
 62
7
  0
LINE
  6
BYLAYER
  8
0
 10
1.46386863523576
 11
-14.6017512158809
 20
109.250332692308
 21
93.1844587468983
 62
7
  0
LINE
  6
BYLAYER
  8
0
 10
-97.6938119602978
 11
-97.7172394540943
 20
106.218733684864
 21
106.09880117866
 62
7
  0
LINE
  6
BYLAYER
  8
0
 10
-97.7172394540943
 11
-97.8316581141439
 20
106.09880117866
 21
105.094112344913
 62
7
  0
LINE
  6
BYLAYER
  8
0
 10
-97.8316581141439
 11
-97.8316581141439
 20
105.094112344913
 21
104.757437406948
 62
7
  0
LINE
  6
BYLAYER
  8
0
 10
-90.1310764764268
 11
-90.8051886352357
 20
112.461068176179
 21
112.41406073201
 62
7
  0
LINE
  6
BYLAYER
  8
0
 10
-90.8051886352357
 11
-92.8027000992556
 20
112.41406073201
 21
111.898503411911
 62
7
  0
LINE
  6
BYLAYER
  8
0
 10
-92.8027000992556
 11
-94.9877077419355
 20
111.898503411911
 21
110.642515322581
 62
7
  0
LINE
  6
BYLAYER
  8
0
 10
-94.9877077419355
 11
-96.6350772704714
 20
110.642515322581
 21
108.734521277916
 62
7
  0
LINE
  6
BYLAYER
  8
0
 10
-96.6350772704714
 11
-97.520113101737
 20
108.734521277916
 21
106.872264205955
 62
7
  0
LINE
  6
BYLAYER
  8
0
 10
-97.520113101737
 11
-97.6938119602978
 20
106.872264205955
 21
106.218733684864
 62
7
  0
LINE
  6
BYLAYER
  8
0
 10
1.95045920595537
 11
1.68721751861042
 20
110.576450806452
 21
110.799799689826
 62
7
  0
LINE
  6
BYLAYER
  8
0
 10
1.68721751861042
 11
0.824313300248136
 20
110.799799689826
 21
111.378626488834
 62
7
  0
LINE
  6
BYLAYER
  8
0
 10
0.824313300248136
 11
-0.406773548387108
 20
111.378626488834
 21
111.96456792804
 62
7
  0
LINE
  6
BYLAYER
  8
0
 10
-0.406773548387108
 11
-1.72044104218359
 20
111.96456792804
 21
112.328685049628
 62
7
  0
LINE
  6
BYLAYER
  8
0
 10
-1.72044104218359
 11
-2.75308024813897
 20
112.328685049628
 21
112.458273138958
 62
7
  0
LINE
  6
BYLAYER
  8
0
 10
-2.75308024813897
 11
-3.09610754342431
 20
112.458273138958
 21
112.461068176179
 62
7
  0
LINE
  6
BYLAYER
  8
0
 10
4.60422
 11
4.59329394540946
 20
104.757437406948
 21
105.322797208437
 62
7
  0
LINE
  6
BYLAYER
  8
0
 10
4.59329394540946
 11
3.89148550868488
 20
105.322797208437
 21
107.947591253102
 62
7
  0
LINE
  6
BYLAYER
  8
0
 10
3.89148550868488
 11
2.36971478908191
 20
107.947591253102
 21
110.198358498759
 62
7
  0
LINE
  6
BYLAYER
  8
0
 10
2.36971478908191
 11
1.95045920595537
 20
110.198358498759
 21
110.576450806452
 62
7
  0
LINE
  6
BYLAYER
  8
0
 10
-78.6256360794044
 11
-95.6328531513647
 20
-96.2171730148883
 21
-96.2171730148883
 62
7
  0
LINE
  6
BYLAYER
  8
0
 10
-97.8316581141439
 11
-97.8316581141439
 20
104.757437406948
 21
-93.4749874069479
 62
7
  0
LINE
  6
BYLAYER
  8
0
 10
-97.8316581141439
 11
-97.8316581141439
 20
-93.4749874069479
 21
-96.2171730148883
 62
7
  0
LINE
  6
BYLAYER
  8
0
 10
-97.8316581141439
 11
-96.6309355334987
 20
-96.2171730148883
 21
-96.2171730148883
 62
7
  0
LINE
  6
BYLAYER
  8
0
 10
-96.6309355334987
 11
-96.6309355334987
 20
-96.2171730148883
 21
-93.4749874069479
 62
7
  0
LINE
  6
BYLAYER
  8
0
 10
-96.6309355334987
 11
-96.6309355334987
 20
-93.4749874069479
 21
104.757437406948
 62
7
  0
LINE
  6
BYLAYER
  8
0
 10
-96.6309355334987
 11
-96.6143939950372
 20
104.757437406948
 21
105.211249813896
 62
7
  0
LINE
  6
BYLAYER
  8
0
 10
-96.6143939950372
 11
-96.3428434243176
 20
105.211249813896
 21
106.565064205955
 62
7
  0
LINE
  6
BYLAYER
  8
0
 10
-96.3428434243176
 11
-95.6314810421836
 20
106.565064205955
 21
108.159759987593
 62
7
  0
LINE
  6
BYLAYER
  8
0
 10
-95.6314810421836
 11
-94.5217496277915
 20
108.159759987593
 21
109.509254776675
 62
7
  0
LINE
  6
BYLAYER
  8
0
 10
-94.5217496277915
 11
-93.4340990074441
 20
109.509254776675
 21
110.358691997519
 62
7
  0
LINE
  6
BYLAYER
  8
0
 10
-93.4340990074441
 11
-93.0356791563275
 20
110.358691997519
 21
110.576450806452
 62
7
  0
LINE
  6
BYLAYER
  8
0
 10
-93.0356791563275
 11
-93.0246514640198
 20
110.576450806452
 21
110.580262220844
 62
7
  0
LINE
  6
BYLAYER
  8
0
 10
-93.0246514640198
 11
-92.7999558808933
 20
110.580262220844
 21
110.69231780397
 62
7
  0
LINE
  6
BYLAYER
  8
0
 10
-92.7999558808933
 11
-91.6171469478908
 20
110.69231780397
 21
111.087942617866
 62
7
  0
LINE
  6
BYLAYER
  8
0
 10
-91.6171469478908
 11
-90.3819691811414
 20
111.087942617866
 21
111.261489019851
 62
7
  0
LINE
  6
BYLAYER
  8
0
 10
-90.3819691811414
 11
-90.1310764764268
 20
111.261489019851
 21
111.261489019851
 62
7
  0
LINE
  6
BYLAYER
  8
0
 10
-90.1310764764268
 11
-3.09610754342431
 20
111.261489019851
 21
111.261489019851
 62
7
  0
LINE
  6
BYLAYER
  8
0
 10
-3.09610754342431
 11
-2.44588024813893
 20
111.261489019851
 21
111.19796544665
 62
7
  0
LINE
  6
BYLAYER
  8
0
 10
-2.44588024813893
 11
-0.530771563275422
 20
111.19796544665
 21
110.62345825062
 62
7
  0
LINE
  6
BYLAYER
  8
0
 10
-0.530771563275422
 11
1.44049196029776
 20
110.62345825062
 21
109.294291004963
 62
7
  0
LINE
  6
BYLAYER
  8
0
 10
1.44049196029776
 11
2.76661007444172
 20
109.294291004963
 21
107.324297952854
 62
7
  0
LINE
  6
BYLAYER
  8
0
 10
2.76661007444172
 11
3.34162545905708
 20
107.324297952854
 21
105.409443362283
 62
7
  0
LINE
  6
BYLAYER
  8
0
 10
3.34162545905708
 11
3.40464084367248
 20
105.409443362283
 21
104.757437406948
 62
7
  0
LINE
  6
BYLAYER
  8
0
 10
3.40464084367248
 11
3.40464084367248
 20
104.757437406948
 21
-96.1729606079405
 62
7
  0
LINE
  6
BYLAYER
  8
0
 10
2.40528799007447
 11
-14.6002266501241
 20
-96.2171730148883
 21
-96.2171730148883
 62
7
  0
LINE
  6
BYLAYER
  8
0
 10
4.60422
 11
4.60422
 20
104.757437406948
 21
-93.4749874069479
 62
7
  0
LINE
  6
BYLAYER
  8
0
 10
4.60422
 11
4.60422
 20
-93.4749874069479
 21
-96.2171730148883
 62
7
  0
LINE
  6
BYLAYER
  8
0
 10
4.60422
 11
3.40464084367248
 20
-96.2171730148883
 21
-96.2171730148883
 62
7
  0
LINE
  6
BYLAYER
  8
0
 10
-62.6204906699752
 11
-56.6187834739454
 20
102.257911848635
 21
102.257911848635
 62
7
  0
LINE
  6
BYLAYER
  8
0
 10
-62.6204906699752
 11
-62.6631785111663
 20
102.257911848635
 21
102.257911848635
 62
7
  0
LINE
  6
BYLAYER
  8
0
 10
-62.6631785111663
 11
-63.0755735483871
 20
102.257911848635
 21
102.216748573201
 62
7
  0
LINE
  6
BYLAYER
  8
0
 10
-63.0755735483871
 11
-63.1157204466501
 20
102.216748573201
 21
102.208617555831
 62
7
  0
LINE
  6
BYLAYER
  8
0
 10
-63.1157204466501
 11
-63.3581264019851
 20
102.208617555831
 21
102.14509398263
 62
7
  0
LINE
  6
BYLAYER
  8
0
 10
-63.3581264019851
 11
-63.5911308684864
 20
102.14509398263
 21
102.061242866005
 62
7
  0
LINE
  6
BYLAYER
  8
0
 10
-63.5911308684864
 11
-63.8172747890819
 20
102.061242866005
 21
101.951982320099
 62
7
  0
LINE
  6
BYLAYER
  8
0
 10
-63.8172747890819
 11
-64.029697617866
 20
101.951982320099
 21
101.821123759305
 62
7
  0
LINE
  6
BYLAYER
  8
0
 10
-64.029697617866
 11
-64.2309402977668
 20
101.821123759305
 21
101.669429466501
 62
7
  0
LINE
  6
BYLAYER
  8
0
 10
-64.2309402977668
 11
-64.4141422828784
 20
101.669429466501
 21
101.499948573201
 62
7
  0
LINE
  6
BYLAYER
  8
0
 10
-64.4141422828784
 11
-64.576762630273
 20
101.499948573201
 21
101.312681079404
 62
7
  0
LINE
  6
BYLAYER
  8
0
 10
-64.576762630273
 11
-64.7243914143921
 20
101.312681079404
 21
101.108643362283
 62
7
  0
LINE
  6
BYLAYER
  8
0
 10
-64.7243914143921
 11
-64.8483894292804
 20
101.108643362283
 21
100.893425496278
 62
7
  0
LINE
  6
BYLAYER
  8
0
 10
-64.8483894292804
 11
-64.9505353349876
 20
100.893425496278
 21
100.667535669975
 62
7
  0
LINE
  6
BYLAYER
  8
0
 10
-64.9505353349876
 11
-64.9657809925558
 20
100.667535669975
 21
100.628659243176
 62
7
  0
LINE
  6
BYLAYER
  8
0
 10
-64.9657809925558
 11
-65.0773283870968
 20
100.628659243176
 21
100.224903411911
 62
7
  0
LINE
  6
BYLAYER
  8
0
 10
-65.0773283870968
 11
-65.0841889330025
 20
100.224903411911
 21
100.183740136476
 62
7
  0
LINE
  6
BYLAYER
  8
0
 10
-65.0841889330025
 11
-65.0910494789082
 20
100.183740136476
 21
100.142068672457
 62
7
  0
LINE
  6
BYLAYER
  8
0
 10
-65.0910494789082
 11
-65.1212866997518
 20
100.142068672457
 21
99.7284031637718
 62
7
  0
LINE
  6
BYLAYER
  8
0
 10
-65.1212866997518
 11
-65.1200162282878
 20
99.7284031637718
 21
99.6857153225806
 62
7
  0
LINE
  6
BYLAYER
  8
0
 10
-65.1200162282878
 11
-65.118491662531
 20
99.6857153225806
 21
99.6442979528537
 62
7
  0
LINE
  6
BYLAYER
  8
0
 10
-65.118491662531
 11
-65.0661482382134
 20
99.6442979528537
 21
99.2336815756824
 62
7
  0
LINE
  6
BYLAYER
  8
0
 10
-65.0661482382134
 11
-65.0567467493797
 20
99.2336815756824
 21
99.1922642059554
 62
7
  0
LINE
  6
BYLAYER
  8
0
 10
-65.0567467493797
 11
-64.9861085359802
 20
99.1922642059554
 21
98.9523991935484
 62
7
  0
LINE
  6
BYLAYER
  8
0
 10
-64.9861085359802
 11
-64.8941264019851
 20
98.9523991935484
 21
98.7193947270472
 62
7
  0
LINE
  6
BYLAYER
  8
0
 10
-64.8941264019851
 11
-64.7808003473945
 20
98.7193947270472
 21
98.4960458436725
 62
7
  0
LINE
  6
BYLAYER
  8
0
 10
-64.7808003473945
 11
-64.6430812406948
 20
98.4960458436725
 21
98.2876885235732
 62
7
  0
LINE
  6
BYLAYER
  8
0
 10
-64.6430812406948
 11
-64.48859191067
 20
98.2876885235732
 21
98.0938145781638
 62
7
  0
LINE
  6
BYLAYER
  8
0
 10
-64.48859191067
 11
-64.3119963771712
 20
98.0938145781638
 21
97.9144240074442
 62
7
  0
LINE
  6
BYLAYER
  8
0
 10
-64.3119963771712
 11
-64.120409280397
 20
97.9144240074442
 21
97.7558691687345
 62
7
  0
LINE
  6
BYLAYER
  8
0
 10
-64.120409280397
 11
-64.0876311166253
 20
97.7558691687345
 21
97.7322383995038
 62
7
  0
LINE
  6
BYLAYER
  8
0
 10
-64.0876311166253
 11
-63.7318991066998
 20
97.7322383995038
 21
97.5175287220844
 62
7
  0
LINE
  6
BYLAYER
  8
0
 10
-63.7318991066998
 11
-63.6945472456575
 20
97.5175287220844
 21
97.4979634615384
 62
7
  0
LINE
  6
BYLAYER
  8
0
 10
-63.6945472456575
 11
-63.6574494789082
 20
97.4979634615384
 21
97.4814473325062
 62
7
  0
LINE
  6
BYLAYER
  8
0
 10
-63.6574494789082
 11
-63.2656360794044
 20
97.4814473325062
 21
97.3396627171217
 62
7
  0
LINE
  6
BYLAYER
  8
0
 10
-63.2656360794044
 11
-63.2244728039702
 20
97.3396627171217
 21
97.328736662531
 62
7
  0
LINE
  6
BYLAYER
  8
0
 10
-63.2244728039702
 11
-63.1764489826303
 20
97.328736662531
 21
97.3173024193549
 62
7
  0
LINE
  6
BYLAYER
  8
0
 10
-63.1764489826303
 11
-62.6718177171216
 20
97.3173024193549
 21
97.2555575062035
 62
7
  0
LINE
  6
BYLAYER
  8
0
 10
-62.6718177171216
 11
-62.6204906699752
 20
97.2555575062035
 21
97.2540329404466
 62
7
  0
LINE
  6
BYLAYER
  8
0
 10
-56.6187834739454
 11
-56.3677383126551
 20
97.2540329404466
 21
97.2680081265509
 62
7
  0
LINE
  6
BYLAYER
  8
0
 10
-56.3677383126551
 11
-56.3260668486352
 20
97.2680081265509
 21
97.273090012407
 62
7
  0
LINE
  6
BYLAYER
  8
0
 10
-56.3260668486352
 11
-55.9182455086849
 20
97.273090012407
 21
97.3561788461539
 62
7
  0
LINE
  6
BYLAYER
  8
0
 10
-55.9182455086849
 11
-55.8768281389578
 20
97.3561788461539
 21
97.3671049007444
 62
7
  0
LINE
  6
BYLAYER
  8
0
 10
-55.8768281389578
 11
-55.6438236724566
 20
97.3671049007444
 21
97.4509560173697
 62
7
  0
LINE
  6
BYLAYER
  8
0
 10
-55.6438236724566
 11
-55.4176797518611
 20
97.4509560173697
 21
97.5614870347395
 62
7
  0
LINE
  6
BYLAYER
  8
0
 10
-55.4176797518611
 11
-55.2070355831266
 20
97.5614870347395
 21
97.6923455955335
 62
7
  0
LINE
  6
BYLAYER
  8
0
 10
-55.2070355831266
 11
-55.0083338461538
 20
97.6923455955335
 21
97.8442939826303
 62
7
  0
LINE
  6
BYLAYER
  8
0
 10
-55.0083338461538
 11
-54.8251318610422
 20
97.8442939826303
 21
98.0135207816377
 62
7
  0
LINE
  6
BYLAYER
  8
0
 10
-54.8251318610422
 11
-54.6597164764268
 20
98.0135207816377
 21
98.1995178039702
 62
7
  0
LINE
  6
BYLAYER
  8
0
 10
-54.6597164764268
 11
-54.6345611414392
 20
98.1995178039702
 21
98.2328041563276
 62
7
  0
LINE
  6
BYLAYER
  8
0
 10
-54.6345611414392
 11
-54.4086713151365
 20
98.2328041563276
 21
98.5842165632754
 62
7
  0
LINE
  6
BYLAYER
  8
0
 10
-54.4086713151365
 11
-54.3878355831266
 20
98.5842165632754
 21
98.6202979528537
 62
7
  0
LINE
  6
BYLAYER
  8
0
 10
-54.3878355831266
 11
-54.2859437717121
 20
98.6202979528537
 21
98.8502532878412
 62
7
  0
LINE
  6
BYLAYER
  8
0
 10
-54.2859437717121
 11
-54.2076827295285
 20
98.8502532878412
 21
99.0860527915632
 62
7
  0
LINE
  6
BYLAYER
  8
0
 10
-54.2076827295285
 11
-54.1977730521092
 20
99.0860527915632
 21
99.1274701612903
 62
7
  0
LINE
  6
BYLAYER
  8
0
 10
-54.1977730521092
 11
-54.1273889330025
 20
99.1274701612903
 21
99.5357996898263
 62
7
  0
LINE
  6
BYLAYER
  8
0
 10
-54.1273889330025
 11
-54.1233234243176
 20
99.5357996898263
 21
99.5769629652606
 62
7
  0
LINE
  6
BYLAYER
  8
0
 10
-54.1233234243176
 11
-54.1164628784119
 20
99.5769629652606
 21
99.8264835607941
 62
7
  0
LINE
  6
BYLAYER
  8
0
 10
-54.1164628784119
 11
-54.1195120099255
 20
99.8264835607941
 21
99.8691714019851
 62
7
  0
LINE
  6
BYLAYER
  8
0
 10
-54.1195120099255
 11
-54.1716013399504
 20
99.8691714019851
 21
100.281312344913
 62
7
  0
LINE
  6
BYLAYER
  8
0
 10
-54.1716013399504
 11
-54.1797323573201
 20
100.281312344913
 21
100.321205148883
 62
7
  0
LINE
  6
BYLAYER
  8
0
 10
-54.1797323573201
 11
-54.2503705707196
 20
100.321205148883
 21
100.561324255583
 62
7
  0
LINE
  6
BYLAYER
  8
0
 10
-54.2503705707196
 11
-54.3423527047146
 20
100.561324255583
 21
100.794074627792
 62
7
  0
LINE
  6
BYLAYER
  8
0
 10
-54.3423527047146
 11
-54.4544082878412
 20
100.794074627792
 21
101.016153039702
 62
7
  0
LINE
  6
BYLAYER
  8
0
 10
-54.4544082878412
 11
-54.5918733002481
 20
101.016153039702
 21
101.224256265509
 62
7
  0
LINE
  6
BYLAYER
  8
0
 10
-54.5918733002481
 11
-54.7478871960298
 20
101.224256265509
 21
101.418892493797
 62
7
  0
LINE
  6
BYLAYER
  8
0
 10
-54.7478871960298
 11
-54.9244827295285
 20
101.418892493797
 21
101.597774875931
 62
7
  0
LINE
  6
BYLAYER
  8
0
 10
-54.9244827295285
 11
-55.1145452605459
 20
101.597774875931
 21
101.757600186104
 62
7
  0
LINE
  6
BYLAYER
  8
0
 10
-55.1145452605459
 11
-55.3229025806452
 20
101.757600186104
 21
101.898368424318
 62
7
  0
LINE
  6
BYLAYER
  8
0
 10
-55.3229025806452
 11
-55.5419318610422
 20
101.898368424318
 21
102.0155058933
 62
7
  0
LINE
  6
BYLAYER
  8
0
 10
-55.5419318610422
 11
-55.7749363275434
 20
102.0155058933
 21
102.110537158809
 62
7
  0
LINE
  6
BYLAYER
  8
0
 10
-55.7749363275434
 11
-56.0148013399504
 20
102.110537158809
 21
102.183462220844
 62
7
  0
LINE
  6
BYLAYER
  8
0
 10
-56.0148013399504
 11
-56.0643497270471
 20
102.183462220844
 21
102.196166935484
 62
7
  0
LINE
  6
BYLAYER
  8
0
 10
-56.0643497270471
 11
-56.5689809925558
 20
102.196166935484
 21
102.257911848635
 62
7
  0
LINE
  6
BYLAYER
  8
0
 10
-56.5689809925558
 11
-56.6187834739454
 20
102.257911848635
 21
102.257911848635
 62
7
  0
LINE
  6
BYLAYER
  8
0
 10
-56.6187834739454
 11
-62.6204906699752
 20
97.2540329404466
 21
97.2540329404466
 62
7
  0
LINE
  6
BYLAYER
  8
0
 10
-90.1310764764268
 11
-3.09610754342431
 20
112.461068176179
 21
112.461068176179
 62
7
  0
LINE
  6
BYLAYER
  8
0
 10
3.40464084367248
 11
2.40528799007447
 20
-96.2171730148883
 21
-96.2171730148883
 62
7
  0
LINE
  6
BYLAYER
  8
0
 10
-95.6328531513647
 11
-96.6309355334987
 20
-96.2171730148883
 21
-96.2171730148883
 62
7
  0
LINE
  6
BYLAYER
  8
0
 10
98.8101872456576
 11
98.8101872456576
 20
113.707146588089
 21
129.27016792804
 62
7
  0
LINE
  6
BYLAYER
  8
0
 10
93.3275946898263
 11
93.3275946898263
 20
128.230922270471
 21
125.598505397022
 62
7
  0
LINE
  6
BYLAYER
  8
0
 10
93.3275946898263
 11
98.2257703722084
 20
125.598505397022
 21
126.914713833747
 62
7
  0
LINE
  6
BYLAYER
  8
0
 10
98.2257703722084
 11
93.3275946898263
 20
126.914713833747
 21
128.230922270471
 62
7
  0
LINE
  6
BYLAYER
  8
0
 10
93.3291192555832
 11
93.7369405955335
 20
125.598505397022
 21
125.707765942928
 62
7
  0
LINE
  6
BYLAYER
  8
0
 10
93.7369405955335
 11
97.8176949379653
 20
125.707765942928
 21
126.805453287841
 62
7
  0
LINE
  6
BYLAYER
  8
0
 10
97.8176949379653
 11
98.2270408436725
 20
126.805453287841
 21
126.914713833747
 62
7
  0
LINE
  6
BYLAYER
  8
0
 10
98.2270408436725
 11
97.8176949379653
 20
126.914713833747
 21
127.023974379653
 62
7
  0
LINE
  6
BYLAYER
  8
0
 10
97.8176949379653
 11
93.7369405955335
 20
127.023974379653
 21
128.121661724566
 62
7
  0
LINE
  6
BYLAYER
  8
0
 10
93.7369405955335
 11
93.3291192555832
 20
128.121661724566
 21
128.230922270471
 62
7
  0
LINE
  6
BYLAYER
  8
0
 10
93.3291192555832
 11
93.3291192555832
 20
128.230922270471
 21
125.598505397022
 62
7
  0
LINE
  6
BYLAYER
  8
0
 10
53.8792016377171
 11
53.8792016377171
 20
125.598505397022
 21
128.230922270471
 62
7
  0
LINE
  6
BYLAYER
  8
0
 10
48.981025955335
 11
53.8792016377171
 20
126.914713833747
 21
125.598505397022
 62
7
  0
LINE
  6
BYLAYER
  8
0
 10
53.8792016377171
 11
48.981025955335
 20
128.230922270471
 21
126.914713833747
 62
7
  0
LINE
  6
BYLAYER
  8
0
 10
53.8792016377171
 11
53.4698557320099
 20
128.230922270471
 21
128.121661724566
 62
7
  0
LINE
  6
BYLAYER
  8
0
 10
53.4698557320099
 11
49.3891013895782
 20
128.121661724566
 21
127.023974379653
 62
7
  0
LINE
  6
BYLAYER
  8
0
 10
49.3891013895782
 11
48.981025955335
 20
127.023974379653
 21
126.914713833747
 62
7
  0
LINE
  6
BYLAYER
  8
0
 10
48.981025955335
 11
49.3891013895782
 20
126.914713833747
 21
126.805453287841
 62
7
  0
LINE
  6
BYLAYER
  8
0
 10
49.3891013895782
 11
53.4698557320099
 20
126.805453287841
 21
125.707765942928
 62
7
  0
LINE
  6
BYLAYER
  8
0
 10
53.4698557320099
 11
53.8792016377171
 20
125.707765942928
 21
125.598505397022
 62
7
  0
LINE
  6
BYLAYER
  8
0
 10
53.8792016377171
 11
53.8792016377171
 20
125.598505397022
 21
128.230922270471
 62
7
  0
LINE
  6
BYLAYER
  8
0
 10
-34.5367189578164
 11
-34.5367189578164
 20
131.175875124069
 21
131.198743610422
 62
7
  0
LINE
  6
BYLAYER
  8
0
 10
-34.5367189578164
 11
-32.6841174689826
 20
131.198743610422
 21
133.772718796526
 62
7
  0
LINE
  6
BYLAYER
  8
0
 10
-32.6841174689826
 11
-32.631774044665
 20
133.772718796526
 21
133.859110856079
 62
7
  0
LINE
  6
BYLAYER
  8
0
 10
-32.631774044665
 11
-32.1146921588089
 20
133.859110856079
 21
134.781473138958
 62
7
  0
LINE
  6
BYLAYER
  8
0
 10
-32.1146921588089
 11
-32.0554881885856
 20
134.781473138958
 21
134.893274627792
 62
7
  0
LINE
  6
BYLAYER
  8
0
 10
-32.0554881885856
 11
-32.0224559305211
 20
134.893274627792
 21
134.893274627792
 62
7
  0
LINE
  6
BYLAYER
  8
0
 10
-32.0224559305211
 11
-32.0280460049628
 20
134.893274627792
 21
134.794177853598
 62
7
  0
LINE
  6
BYLAYER
  8
0
 10
-32.0280460049628
 11
-32.0554881885856
 20
134.794177853598
 21
133.973453287841
 62
7
  0
LINE
  6
BYLAYER
  8
0
 10
-32.0554881885856
 11
-32.0554881885856
 20
133.973453287841
 21
133.701572394541
 62
7
  0
LINE
  6
BYLAYER
  8
0
 10
-32.0554881885856
 11
-32.0554881885856
 20
133.701572394541
 21
131.175875124069
 62
7
  0
LINE
  6
BYLAYER
  8
0
 10
-32.0554881885856
 11
-34.5367189578164
 20
131.175875124069
 21
131.175875124069
 62
7
  0
LINE
  6
BYLAYER
  8
0
 10
-34.5367189578164
 11
-34.5367189578164
 20
131.175875124069
 21
131.175875124069
 62
7
  0
LINE
  6
BYLAYER
  8
0
 10
-31.0906921588089
 11
-31.0906921588089
 20
128.309691501241
 21
130.370396215881
 62
7
  0
LINE
  6
BYLAYER
  8
0
 10
-31.0906921588089
 11
-30.0318812406948
 20
130.370396215881
 21
130.370396215881
 62
7
  0
LINE
  6
BYLAYER
  8
0
 10
-30.0318812406948
 11
-30.0318812406948
 20
130.370396215881
 21
131.175875124069
 62
7
  0
LINE
  6
BYLAYER
  8
0
 10
-30.0318812406948
 11
-31.0906921588089
 20
131.175875124069
 21
131.175875124069
 62
7
  0
LINE
  6
BYLAYER
  8
0
 10
-31.0906921588089
 11
-31.0906921588089
 20
131.175875124069
 21
135.879160483871
 62
7
  0
LINE
  6
BYLAYER
  8
0
 10
-31.0906921588089
 11
-32.198797369727
 20
135.879160483871
 21
135.879160483871
 62
7
  0
LINE
  6
BYLAYER
  8
0
 10
-32.198797369727
 11
-35.5736777667494
 20
135.879160483871
 21
131.043746091811
 62
7
  0
LINE
  6
BYLAYER
  8
0
 10
-35.5736777667494
 11
-35.5736777667494
 20
131.043746091811
 21
130.370396215881
 62
7
  0
LINE
  6
BYLAYER
  8
0
 10
-35.5736777667494
 11
-32.0554881885856
 20
130.370396215881
 21
130.370396215881
 62
7
  0
LINE
  6
BYLAYER
  8
0
 10
-32.0554881885856
 11
-32.0554881885856
 20
130.370396215881
 21
128.309691501241
 62
7
  0
LINE
  6
BYLAYER
  8
0
 10
-32.0554881885856
 11
-31.0906921588089
 20
128.309691501241
 21
128.309691501241
 62
7
  0
LINE
  6
BYLAYER
  8
0
 10
-31.0906921588089
 11
-31.0906921588089
 20
128.309691501241
 21
128.309691501241
 62
7
  0
LINE
  6
BYLAYER
  8
0
 10
-36.8639685856079
 11
-36.7371755334988
 20
128.182644354839
 21
128.182644354839
 62
7
  0
LINE
  6
BYLAYER
  8
0
 10
-36.7371755334988
 11
-36.3552718114144
 20
128.182644354839
 21
128.391001674938
 62
7
  0
LINE
  6
BYLAYER
  8
0
 10
-36.3552718114144
 11
-36.1690206947891
 20
128.391001674938
 21
128.784847828784
 62
7
  0
LINE
  6
BYLAYER
  8
0
 10
-36.1690206947891
 11
-36.1690206947891
 20
128.784847828784
 21
128.914435918114
 62
7
  0
LINE
  6
BYLAYER
  8
0
 10
-36.1690206947891
 11
-36.1690206947891
 20
128.914435918114
 21
129.046564950372
 62
7
  0
LINE
  6
BYLAYER
  8
0
 10
-36.1690206947891
 11
-36.3578127543424
 20
129.046564950372
 21
129.442952047146
 62
7
  0
LINE
  6
BYLAYER
  8
0
 10
-36.3578127543424
 11
-36.7300608933002
 20
129.442952047146
 21
129.648768424318
 62
7
  0
LINE
  6
BYLAYER
  8
0
 10
-36.7300608933002
 11
-36.8530425310174
 20
129.648768424318
 21
129.648768424318
 62
7
  0
LINE
  6
BYLAYER
  8
0
 10
-36.8530425310174
 11
-36.9795814888337
 20
129.648768424318
 21
129.648768424318
 62
7
  0
LINE
  6
BYLAYER
  8
0
 10
-36.9795814888337
 11
-37.3561492307692
 20
129.648768424318
 21
129.442952047146
 62
7
  0
LINE
  6
BYLAYER
  8
0
 10
-37.3561492307692
 11
-37.5530723076923
 20
129.442952047146
 21
129.046564950372
 62
7
  0
LINE
  6
BYLAYER
  8
0
 10
-37.5530723076923
 11
-37.5530723076923
 20
129.046564950372
 21
128.914435918114
 62
7
  0
LINE
  6
BYLAYER
  8
0
 10
-37.5530723076923
 11
-37.5530723076923
 20
128.914435918114
 21
128.784847828784
 62
7
  0
LINE
  6
BYLAYER
  8
0
 10
-37.5530723076923
 11
-37.364280248139
 20
128.784847828784
 21
128.391001674938
 62
7
  0
LINE
  6
BYLAYER
  8
0
 10
-37.364280248139
 11
-37.0019417866005
 20
128.391001674938
 21
128.182644354839
 62
7
  0
LINE
  6
BYLAYER
  8
0
 10
-37.0019417866005
 11
-36.8804847146402
 20
128.182644354839
 21
128.182644354839
 62
7
  0
LINE
  6
BYLAYER
  8
0
 10
-36.8804847146402
 11
-36.8639685856079
 20
128.182644354839
 21
128.182644354839
 62
7
  0
LINE
  6
BYLAYER
  8
0
 10
-36.8639685856079
 11
-36.8639685856079
 20
128.182644354839
 21
128.182644354839
 62
7
  0
LINE
  6
BYLAYER
  8
0
 10
-38.773233101737
 11
-38.773233101737
 20
128.309691501241
 21
129.158366439206
 62
7
  0
LINE
  6
BYLAYER
  8
0
 10
-38.773233101737
 11
-42.1755556823821
 20
129.158366439206
 21
129.158366439206
 62
7
  0
LINE
  6
BYLAYER
  8
0
 10
-42.1755556823821
 11
-42.1755556823821
 20
129.158366439206
 21
129.181234925558
 62
7
  0
LINE
  6
BYLAYER
  8
0
 10
-42.1755556823821
 11
-41.5687785111663
 20
129.181234925558
 21
129.742783312655
 62
7
  0
LINE
  6
BYLAYER
  8
0
 10
-41.5687785111663
 11
-41.2933402977667
 20
129.742783312655
 21
130.007041377171
 62
7
  0
LINE
  6
BYLAYER
  8
0
 10
-41.2933402977667
 11
-40.489385955335
 20
130.007041377171
 21
130.830306885856
 62
7
  0
LINE
  6
BYLAYER
  8
0
 10
-40.489385955335
 11
-39.6678991066997
 20
130.830306885856
 21
131.828897456576
 62
7
  0
LINE
  6
BYLAYER
  8
0
 10
-39.6678991066997
 11
-39.1454812406948
 20
131.828897456576
 21
132.799537655087
 62
7
  0
LINE
  6
BYLAYER
  8
0
 10
-39.1454812406948
 11
-38.9605005955335
 20
132.799537655087
 21
133.554197704715
 62
7
  0
LINE
  6
BYLAYER
  8
0
 10
-38.9605005955335
 11
-38.9605005955335
 20
133.554197704715
 21
133.805751054591
 62
7
  0
LINE
  6
BYLAYER
  8
0
 10
-38.9605005955335
 11
-38.9605005955335
 20
133.805751054591
 21
134.006485545906
 62
7
  0
LINE
  6
BYLAYER
  8
0
 10
-38.9605005955335
 11
-39.0944082878412
 20
134.006485545906
 21
134.608689019851
 62
7
  0
LINE
  6
BYLAYER
  8
0
 10
-39.0944082878412
 11
-39.5093442679901
 20
134.608689019851
 21
135.315071153846
 62
7
  0
LINE
  6
BYLAYER
  8
0
 10
-39.5093442679901
 11
-40.2289393052109
 20
135.315071153846
 21
135.81563691067
 62
7
  0
LINE
  6
BYLAYER
  8
0
 10
-40.2289393052109
 11
-41.0148529528536
 20
135.81563691067
 21
136.006207630273
 62
7
  0
LINE
  6
BYLAYER
  8
0
 10
-41.0148529528536
 11
-41.2765700744417
 20
136.006207630273
 21
136.006207630273
 62
7
  0
LINE
  6
BYLAYER
  8
0
 10
-41.2765700744417
 11
-41.5784340942928
 20
136.006207630273
 21
136.006207630273
 62
7
  0
LINE
  6
BYLAYER
  8
0
 10
-41.5784340942928
 11
-42.4814852109181
 20
136.006207630273
 21
135.787686538462
 62
7
  0
LINE
  6
BYLAYER
  8
0
 10
-42.4814852109181
 11
-43.2907755334988
 20
135.787686538462
 21
135.350644354839
 62
7
  0
LINE
  6
BYLAYER
  8
0
 10
-43.2907755334988
 11
-43.4216340942928
 20
135.350644354839
 21
135.238842866005
 62
7
  0
LINE
  6
BYLAYER
  8
0
 10
-43.4216340942928
 11
-43.0963933995037
 20
135.238842866005
 21
134.517215074442
 62
7
  0
LINE
  6
BYLAYER
  8
0
 10
-43.0963933995037
 11
-43.0094931513648
 20
134.517215074442
 21
134.590902419355
 62
7
  0
LINE
  6
BYLAYER
  8
0
 10
-43.0094931513648
 11
-42.419486203474
 20
134.590902419355
 21
134.94663442928
 62
7
  0
LINE
  6
BYLAYER
  8
0
 10
-42.419486203474
 11
-41.720726898263
 20
134.94663442928
 21
135.157532692308
 62
7
  0
LINE
  6
BYLAYER
  8
0
 10
-41.720726898263
 11
-41.486197866005
 20
135.157532692308
 21
135.157532692308
 62
7
  0
LINE
  6
BYLAYER
  8
0
 10
-41.486197866005
 11
-41.309856426799
 20
135.157532692308
 21
135.157532692308
 62
7
  0
LINE
  6
BYLAYER
  8
0
 10
-41.309856426799
 11
-40.7762584119107
 20
135.157532692308
 21
135.035567431762
 62
7
  0
LINE
  6
BYLAYER
  8
0
 10
-40.7762584119107
 11
-40.3127904218362
 20
135.035567431762
 21
134.707785794045
 62
7
  0
LINE
  6
BYLAYER
  8
0
 10
-40.3127904218362
 11
-40.0619993548387
 20
134.707785794045
 21
134.235170409429
 62
7
  0
LINE
  6
BYLAYER
  8
0
 10
-40.0619993548387
 11
-39.9865333498759
 20
134.235170409429
 21
133.818455769231
 62
7
  0
LINE
  6
BYLAYER
  8
0
 10
-39.9865333498759
 11
-39.9865333498759
 20
133.818455769231
 21
133.678703908189
 62
7
  0
LINE
  6
BYLAYER
  8
0
 10
-39.9865333498759
 11
-39.9888201985112
 20
133.678703908189
 21
133.470346588089
 62
7
  0
LINE
  6
BYLAYER
  8
0
 10
-39.9888201985112
 11
-40.160079751861
 20
133.470346588089
 21
132.837651799007
 62
7
  0
LINE
  6
BYLAYER
  8
0
 10
-40.160079751861
 11
-40.6743666004963
 20
132.837651799007
 21
131.961026488834
 62
7
  0
LINE
  6
BYLAYER
  8
0
 10
-40.6743666004963
 11
-41.5494673449132
 20
131.961026488834
 21
130.95481308933
 62
7
  0
LINE
  6
BYLAYER
  8
0
 10
-41.5494673449132
 11
-42.4858048138958
 20
130.95481308933
 21
130.02228703474
 62
7
  0
LINE
  6
BYLAYER
  8
0
 10
-42.4858048138958
 11
-42.8041849627791
 20
130.02228703474
 21
129.719914826303
 62
7
  0
LINE
  6
BYLAYER
  8
0
 10
-42.8041849627791
 11
-43.6091556823821
 20
129.719914826303
 21
128.937304404467
 62
7
  0
LINE
  6
BYLAYER
  8
0
 10
-43.6091556823821
 11
-43.6091556823821
 20
128.937304404467
 21
128.309691501241
 62
7
  0
LINE
  6
BYLAYER
  8
0
 10
-43.6091556823821
 11
-38.773233101737
 20
128.309691501241
 21
128.309691501241
 62
7
  0
LINE
  6
BYLAYER
  8
0
 10
-38.773233101737
 11
-38.773233101737
 20
128.309691501241
 21
128.309691501241
 62
7
  0
LINE
  6
BYLAYER
  8
0
 10
-47.1120996029776
 11
-46.9410941439206
 20
135.218515322581
 21
135.218515322581
 62
7
  0
LINE
  6
BYLAYER
  8
0
 10
-46.9410941439206
 11
-46.4255368238213
 20
135.218515322581
 21
134.999994230769
 62
7
  0
LINE
  6
BYLAYER
  8
0
 10
-46.4255368238213
 11
-45.9455527047146
 20
134.999994230769
 21
134.372381327543
 62
7
  0
LINE
  6
BYLAYER
  8
0
 10
-45.9455527047146
 11
-45.6657948883374
 20
134.372381327543
 21
133.399200186104
 62
7
  0
LINE
  6
BYLAYER
  8
0
 10
-45.6657948883374
 11
-45.5738127543424
 20
133.399200186104
 21
132.448887531017
 62
7
  0
LINE
  6
BYLAYER
  8
0
 10
-45.5738127543424
 11
-45.5738127543424
 20
132.448887531017
 21
132.131269665012
 62
7
  0
LINE
  6
BYLAYER
  8
0
 10
-45.5738127543424
 11
-45.5738127543424
 20
132.131269665012
 21
131.803488027295
 62
7
  0
LINE
  6
BYLAYER
  8
0
 10
-45.5738127543424
 11
-45.6685899255583
 20
131.803488027295
 21
130.820143114144
 62
7
  0
LINE
  6
BYLAYER
  8
0
 10
-45.6685899255583
 11
-45.955462382134
 20
130.820143114144
 21
129.824093486352
 62
7
  0
LINE
  6
BYLAYER
  8
0
 10
-45.955462382134
 11
-46.4392579156327
 20
129.824093486352
 21
129.191398697271
 62
7
  0
LINE
  6
BYLAYER
  8
0
 10
-46.4392579156327
 11
-46.9522742928039
 20
129.191398697271
 21
128.970336662531
 62
7
  0
LINE
  6
BYLAYER
  8
0
 10
-46.9522742928039
 11
-47.1230256575682
 20
128.970336662531
 21
128.970336662531
 62
7
  0
LINE
  6
BYLAYER
  8
0
 10
-47.1230256575682
 11
-47.2818345905707
 20
128.970336662531
 21
128.970336662531
 62
7
  0
LINE
  6
BYLAYER
  8
0
 10
-47.2818345905707
 11
-47.757245012407
 20
128.970336662531
 21
129.176153039702
 62
7
  0
LINE
  6
BYLAYER
  8
0
 10
-47.757245012407
 11
-48.2423110173697
 20
129.176153039702
 21
129.77581557072
 62
7
  0
LINE
  6
BYLAYER
  8
0
 10
-48.2423110173697
 11
-48.5525601488834
 20
129.77581557072
 21
130.746455769231
 62
7
  0
LINE
  6
BYLAYER
  8
0
 10
-48.5525601488834
 11
-48.6615666004963
 20
130.746455769231
 21
131.729800682382
 62
7
  0
LINE
  6
BYLAYER
  8
0
 10
-48.6615666004963
 11
-48.6615666004963
 20
131.729800682382
 21
132.057582320099
 62
7
  0
LINE
  6
BYLAYER
  8
0
 10
-48.6615666004963
 11
-48.6615666004963
 20
132.057582320099
 21
132.400609615385
 62
7
  0
LINE
  6
BYLAYER
  8
0
 10
-48.6615666004963
 11
-48.5469700744417
 20
132.400609615385
 21
133.422068672457
 62
7
  0
LINE
  6
BYLAYER
  8
0
 10
-48.5469700744417
 11
-48.2242703225807
 20
133.422068672457
 21
134.410495471464
 62
7
  0
LINE
  6
BYLAYER
  8
0
 10
-48.2242703225807
 11
-47.733868337469
 20
134.410495471464
 21
135.015239888337
 62
7
  0
LINE
  6
BYLAYER
  8
0
 10
-47.733868337469
 11
-47.2676053101737
 20
135.015239888337
 21
135.218515322581
 62
7
  0
LINE
  6
BYLAYER
  8
0
 10
-47.2676053101737
 11
-47.1120996029776
 20
135.218515322581
 21
135.218515322581
 62
7
  0
LINE
  6
BYLAYER
  8
0
 10
-47.1120996029776
 11
-47.1120996029776
 20
135.218515322581
 21
135.218515322581
 62
7
  0
LINE
  6
BYLAYER
  8
0
 10
-47.0513710669975
 11
-47.3174077915633
 20
136.006207630273
 21
136.006207630273
 62
7
  0
LINE
  6
BYLAYER
  8
0
 10
-47.3174077915633
 11
-48.1129770223325
 20
136.006207630273
 21
135.749572394541
 62
7
  0
LINE
  6
BYLAYER
  8
0
 10
-48.1129770223325
 11
-48.9469144913151
 20
135.749572394541
 21
134.992371401985
 62
7
  0
LINE
  6
BYLAYER
  8
0
 10
-48.9469144913151
 11
-49.4927090322581
 20
134.992371401985
 21
133.757473138958
 62
7
  0
LINE
  6
BYLAYER
  8
0
 10
-49.4927090322581
 11
-49.6870911662531
 20
133.757473138958
 21
132.492083560794
 62
7
  0
LINE
  6
BYLAYER
  8
0
 10
-49.6870911662531
 11
-49.6870911662531
 20
132.492083560794
 21
132.070287034739
 62
7
  0
LINE
  6
BYLAYER
  8
0
 10
-49.6870911662531
 11
-49.6842961290322
 20
132.070287034739
 21
131.653572394541
 62
7
  0
LINE
  6
BYLAYER
  8
0
 10
-49.6842961290322
 11
-49.4955040694789
 20
131.653572394541
 21
130.405969416873
 62
7
  0
LINE
  6
BYLAYER
  8
0
 10
-49.4955040694789
 11
-48.9814713151365
 20
130.405969416873
 21
129.186316811414
 62
7
  0
LINE
  6
BYLAYER
  8
0
 10
-48.9814713151365
 11
-48.1955576674938
 20
129.186316811414
 21
128.439279590571
 62
7
  0
LINE
  6
BYLAYER
  8
0
 10
-48.1955576674938
 11
-47.4373402977668
 20
128.439279590571
 21
128.182644354839
 62
7
  0
LINE
  6
BYLAYER
  8
0
 10
-47.4373402977668
 11
-47.1837541935484
 20
128.182644354839
 21
128.182644354839
 62
7
  0
LINE
  6
BYLAYER
  8
0
 10
-47.1837541935484
 11
-46.9037422828784
 20
128.182644354839
 21
128.182644354839
 62
7
  0
LINE
  6
BYLAYER
  8
0
 10
-46.9037422828784
 11
-46.0629442679901
 20
128.182644354839
 21
128.444361476427
 62
7
  0
LINE
  6
BYLAYER
  8
0
 10
-46.0629442679901
 11
-45.2358673449131
 20
128.444361476427
 21
129.214267183623
 62
7
  0
LINE
  6
BYLAYER
  8
0
 10
-45.2358673449131
 11
-44.724121439206
 20
129.214267183623
 21
130.466952047146
 62
7
  0
LINE
  6
BYLAYER
  8
0
 10
-44.724121439206
 11
-44.54778
 20
130.466952047146
 21
131.747587282878
 62
7
  0
LINE
  6
BYLAYER
  8
0
 10
-44.54778
 11
-44.54778
 20
131.747587282878
 21
132.174465694789
 62
7
  0
LINE
  6
BYLAYER
  8
0
 10
-44.54778
 11
-44.54778
 20
132.174465694789
 21
132.578475620347
 62
7
  0
LINE
  6
BYLAYER
  8
0
 10
-44.54778
 11
-44.716244516129
 20
132.578475620347
 21
133.79304633995
 62
7
  0
LINE
  6
BYLAYER
  8
0
 10
-44.716244516129
 11
-45.2028350868486
 20
133.79304633995
 21
134.994912344913
 62
7
  0
LINE
  6
BYLAYER
  8
0
 10
-45.2028350868486
 11
-45.9882405459057
 20
134.994912344913
 21
135.747031451613
 62
7
  0
LINE
  6
BYLAYER
  8
0
 10
-45.9882405459057
 11
-46.7866048138958
 20
135.747031451613
 21
136.006207630273
 62
7
  0
LINE
  6
BYLAYER
  8
0
 10
-46.7866048138958
 11
-47.0513710669975
 20
136.006207630273
 21
136.006207630273
 62
7
  0
LINE
  6
BYLAYER
  8
0
 10
-47.0513710669975
 11
-47.0513710669975
 20
136.006207630273
 21
136.006207630273
 62
7
  0
LINE
  6
BYLAYER
  8
0
 10
-53.3277541935484
 11
-52.340597866005
 20
128.309691501241
 21
128.309691501241
 62
7
  0
LINE
  6
BYLAYER
  8
0
 10
-52.340597866005
 11
-52.340597866005
 20
128.309691501241
 21
135.879160483871
 62
7
  0
LINE
  6
BYLAYER
  8
0
 10
-52.340597866005
 11
-53.2121412903226
 20
135.879160483871
 21
135.879160483871
 62
7
  0
LINE
  6
BYLAYER
  8
0
 10
-53.2121412903226
 11
-54.8665492307692
 20
135.879160483871
 21
134.997453287841
 62
7
  0
LINE
  6
BYLAYER
  8
0
 10
-54.8665492307692
 11
-54.6678474937965
 20
134.997453287841
 21
134.214842866005
 62
7
  0
LINE
  6
BYLAYER
  8
0
 10
-54.6678474937965
 11
-53.355450471464
 20
134.214842866005
 21
134.926306885856
 62
7
  0
LINE
  6
BYLAYER
  8
0
 10
-53.355450471464
 11
-53.3277541935484
 20
134.926306885856
 21
134.926306885856
 62
7
  0
LINE
  6
BYLAYER
  8
0
 10
-53.3277541935484
 11
-53.3277541935484
 20
134.926306885856
 21
128.309691501241
 62
7
  0
LINE
  6
BYLAYER
  8
0
 10
-53.3277541935484
 11
-53.3277541935484
 20
128.309691501241
 21
128.309691501241
 62
7
  0
LINE
  6
BYLAYER
  8
0
 10
83.310943573201
 11
79.6883212406948
 20
135.879160483871
 21
135.879160483871
 62
7
  0
LINE
  6
BYLAYER
  8
0
 10
79.6883212406948
 11
79.1974110669975
 20
135.879160483871
 21
132.245612096774
 62
7
  0
LINE
  6
BYLAYER
  8
0
 10
79.1974110669975
 11
79.2677951861042
 20
132.245612096774
 21
132.253234925558
 62
7
  0
LINE
  6
BYLAYER
  8
0
 10
79.2677951861042
 11
80.0000949379653
 20
132.253234925558
 21
132.3294632134
 62
7
  0
LINE
  6
BYLAYER
  8
0
 10
80.0000949379653
 11
80.2452959305211
 20
132.3294632134
 21
132.3294632134
 62
7
  0
LINE
  6
BYLAYER
  8
0
 10
80.2452959305211
 11
80.4892264516129
 20
132.3294632134
 21
132.3294632134
 62
7
  0
LINE
  6
BYLAYER
  8
0
 10
80.4892264516129
 11
81.2225425806452
 20
132.3294632134
 21
132.204957009926
 62
7
  0
LINE
  6
BYLAYER
  8
0
 10
81.2225425806452
 11
81.8979252109181
 20
132.204957009926
 21
131.856847828784
 62
7
  0
LINE
  6
BYLAYER
  8
0
 10
81.8979252109181
 11
82.2912631761787
 20
131.856847828784
 21
131.325790756824
 62
7
  0
LINE
  6
BYLAYER
  8
0
 10
82.2912631761787
 11
82.4205971712159
 20
131.325790756824
 21
130.822684057072
 62
7
  0
LINE
  6
BYLAYER
  8
0
 10
82.4205971712159
 11
82.4233922084368
 20
130.822684057072
 21
130.652440880893
 62
7
  0
LINE
  6
BYLAYER
  8
0
 10
82.4233922084368
 11
82.4233922084368
 20
130.652440880893
 21
130.482197704715
 62
7
  0
LINE
  6
BYLAYER
  8
0
 10
82.4233922084368
 11
82.2788125558313
 20
130.482197704715
 21
129.968927233251
 62
7
  0
LINE
  6
BYLAYER
  8
0
 10
82.2788125558313
 11
81.8885237220844
 20
129.968927233251
 21
129.450574875931
 62
7
  0
LINE
  6
BYLAYER
  8
0
 10
81.8885237220844
 11
81.3178279404467
 20
129.450574875931
 21
129.122793238213
 62
7
  0
LINE
  6
BYLAYER
  8
0
 10
81.3178279404467
 11
80.8022706203474
 20
129.122793238213
 21
129.008450806452
 62
7
  0
LINE
  6
BYLAYER
  8
0
 10
80.8022706203474
 11
80.6315192555831
 20
129.008450806452
 21
129.008450806452
 62
7
  0
LINE
  6
BYLAYER
  8
0
 10
80.6315192555831
 11
80.3929247146402
 20
129.008450806452
 21
129.008450806452
 62
7
  0
LINE
  6
BYLAYER
  8
0
 10
80.3929247146402
 11
79.6799361290323
 20
129.008450806452
 21
129.148202667494
 62
7
  0
LINE
  6
BYLAYER
  8
0
 10
79.6799361290323
 11
79.0889128039702
 20
129.148202667494
 21
129.381969416874
 62
7
  0
LINE
  6
BYLAYER
  8
0
 10
79.0889128039702
 11
79.010143573201
 20
129.381969416874
 21
129.427706389578
 62
7
  0
LINE
  6
BYLAYER
  8
0
 10
79.010143573201
 11
78.7563033746898
 20
129.427706389578
 21
128.645095967742
 62
7
  0
LINE
  6
BYLAYER
  8
0
 10
78.7563033746898
 11
78.8459986600496
 20
128.645095967742
 21
128.586654280397
 62
7
  0
LINE
  6
BYLAYER
  8
0
 10
78.8459986600496
 11
79.5229058560794
 20
128.586654280397
 21
128.327478101737
 62
7
  0
LINE
  6
BYLAYER
  8
0
 10
79.5229058560794
 11
80.3624333995037
 20
128.327478101737
 21
128.182644354839
 62
7
  0
LINE
  6
BYLAYER
  8
0
 10
80.3624333995037
 11
80.6424453101737
 20
128.182644354839
 21
128.182644354839
 62
7
  0
LINE
  6
BYLAYER
  8
0
 10
80.6424453101737
 11
80.9249981637717
 20
128.182644354839
 21
128.182644354839
 62
7
  0
LINE
  6
BYLAYER
  8
0
 10
80.9249981637717
 11
81.7754517617866
 20
128.182644354839
 21
128.378296960298
 62
7
  0
LINE
  6
BYLAYER
  8
0
 10
81.7754517617866
 11
82.6673227295286
 20
128.378296960298
 21
128.91951780397
 62
7
  0
LINE
  6
BYLAYER
  8
0
 10
82.6673227295286
 11
83.2502150372209
 20
128.91951780397
 21
129.737701426799
 62
7
  0
LINE
  6
BYLAYER
  8
0
 10
83.2502150372209
 11
83.4598428287841
 20
129.737701426799
 21
130.512689019851
 62
7
  0
LINE
  6
BYLAYER
  8
0
 10
83.4598428287841
 11
83.4598428287841
 20
130.512689019851
 21
130.769324255583
 62
7
  0
LINE
  6
BYLAYER
  8
0
 10
83.4598428287841
 11
83.4598428287841
 20
130.769324255583
 21
131.069155521092
 62
7
  0
LINE
  6
BYLAYER
  8
0
 10
83.4598428287841
 11
83.1429872456576
 20
131.069155521092
 21
131.971190260546
 62
7
  0
LINE
  6
BYLAYER
  8
0
 10
83.1429872456576
 11
82.5283331513648
 20
131.971190260546
 21
132.629294478908
 62
7
  0
LINE
  6
BYLAYER
  8
0
 10
82.5283331513648
 11
82.3794338957816
 20
132.629294478908
 21
132.715686538462
 62
7
  0
LINE
  6
BYLAYER
  8
0
 10
82.3794338957816
 11
82.262296426799
 20
132.715686538462
 21
132.784291997519
 62
7
  0
LINE
  6
BYLAYER
  8
0
 10
82.262296426799
 11
81.6057167741935
 20
132.784291997519
 21
133.020599689826
 62
7
  0
LINE
  6
BYLAYER
  8
0
 10
81.6057167741935
 11
80.9605713647643
 20
133.020599689826
 21
133.122237406948
 62
7
  0
LINE
  6
BYLAYER
  8
0
 10
80.9605713647643
 11
80.747132158809
 20
133.122237406948
 21
133.122237406948
 62
7
  0
LINE
  6
BYLAYER
  8
0
 10
80.747132158809
 11
80.5926428287842
 20
133.122237406948
 21
133.122237406948
 62
7
  0
LINE
  6
BYLAYER
  8
0
 10
80.5926428287842
 11
80.1736413399504
 20
133.122237406948
 21
133.079041377171
 62
7
  0
LINE
  6
BYLAYER
  8
0
 10
80.1736413399504
 11
80.1296830272953
 20
133.079041377171
 21
133.073959491315
 62
7
  0
LINE
  6
BYLAYER
  8
0
 10
80.1296830272953
 11
80.4218914640199
 20
133.073959491315
 21
135.020321774194
 62
7
  0
LINE
  6
BYLAYER
  8
0
 10
80.4218914640199
 11
83.310943573201
 20
135.020321774194
 21
135.020321774194
 62
7
  0
LINE
  6
BYLAYER
  8
0
 10
83.310943573201
 11
83.310943573201
 20
135.020321774194
 21
135.879160483871
 62
7
  0
LINE
  6
BYLAYER
  8
0
 10
83.310943573201
 11
83.310943573201
 20
135.879160483871
 21
135.879160483871
 62
7
  0
LINE
  6
BYLAYER
  8
0
 10
77.1516979156328
 11
77.2787450620348
 20
128.182644354839
 21
128.182644354839
 62
7
  0
LINE
  6
BYLAYER
  8
0
 10
77.2787450620348
 11
77.6606487841191
 20
128.182644354839
 21
128.391001674938
 62
7
  0
LINE
  6
BYLAYER
  8
0
 10
77.6606487841191
 11
77.8466458064517
 20
128.391001674938
 21
128.784847828784
 62
7
  0
LINE
  6
BYLAYER
  8
0
 10
77.8466458064517
 11
77.8466458064517
 20
128.784847828784
 21
128.914435918114
 62
7
  0
LINE
  6
BYLAYER
  8
0
 10
77.8466458064517
 11
77.8466458064517
 20
128.914435918114
 21
129.046564950372
 62
7
  0
LINE
  6
BYLAYER
  8
0
 10
77.8466458064517
 11
77.6578537468983
 20
129.046564950372
 21
129.442952047146
 62
7
  0
LINE
  6
BYLAYER
  8
0
 10
77.6578537468983
 11
77.2856056079405
 20
129.442952047146
 21
129.648768424318
 62
7
  0
LINE
  6
BYLAYER
  8
0
 10
77.2856056079405
 11
77.1626239702233
 20
129.648768424318
 21
129.648768424318
 62
7
  0
LINE
  6
BYLAYER
  8
0
 10
77.1626239702233
 11
77.036085012407
 20
129.648768424318
 21
129.648768424318
 62
7
  0
LINE
  6
BYLAYER
  8
0
 10
77.036085012407
 11
76.6597713647643
 20
129.648768424318
 21
129.442952047146
 62
7
  0
LINE
  6
BYLAYER
  8
0
 10
76.6597713647643
 11
76.4625941935484
 20
129.442952047146
 21
129.046564950372
 62
7
  0
LINE
  6
BYLAYER
  8
0
 10
76.4625941935484
 11
76.4625941935484
 20
129.046564950372
 21
128.914435918114
 62
7
  0
LINE
  6
BYLAYER
  8
0
 10
76.4625941935484
 11
76.4625941935484
 20
128.914435918114
 21
128.784847828784
 62
7
  0
LINE
  6
BYLAYER
  8
0
 10
76.4625941935484
 11
76.6513862531017
 20
128.784847828784
 21
128.391001674938
 62
7
  0
LINE
  6
BYLAYER
  8
0
 10
76.6513862531017
 11
77.013978808933
 20
128.391001674938
 21
128.182644354839
 62
7
  0
LINE
  6
BYLAYER
  8
0
 10
77.013978808933
 11
77.1351817866005
 20
128.182644354839
 21
128.182644354839
 62
7
  0
LINE
  6
BYLAYER
  8
0
 10
77.1351817866005
 11
77.1516979156328
 20
128.182644354839
 21
128.182644354839
 62
7
  0
LINE
  6
BYLAYER
  8
0
 10
77.1516979156328
 11
77.1516979156328
 20
128.182644354839
 21
128.182644354839
 62
7
  0
LINE
  6
BYLAYER
  8
0
 10
72.8658894789082
 11
73.0381654094293
 20
135.228679094293
 21
135.228679094293
 62
7
  0
LINE
  6
BYLAYER
  8
0
 10
73.0381654094293
 11
73.559566898263
 20
135.228679094293
 21
135.053354032258
 62
7
  0
LINE
  6
BYLAYER
  8
0
 10
73.559566898263
 11
74.041837866005
 20
135.053354032258
 21
134.570574875931
 62
7
  0
LINE
  6
BYLAYER
  8
0
 10
74.041837866005
 11
74.323120248139
 20
134.570574875931
 21
133.846406141439
 62
7
  0
LINE
  6
BYLAYER
  8
0
 10
74.323120248139
 11
74.4153564764268
 20
133.846406141439
 21
133.173056265509
 62
7
  0
LINE
  6
BYLAYER
  8
0
 10
74.4153564764268
 11
74.4153564764268
 20
133.173056265509
 21
132.946912344913
 62
7
  0
LINE
  6
BYLAYER
  8
0
 10
74.4153564764268
 11
74.4153564764268
 20
132.946912344913
 21
132.852897456576
 62
7
  0
LINE
  6
BYLAYER
  8
0
 10
74.4153564764268
 11
74.3355708684864
 20
132.852897456576
 21
132.593721277916
 62
7
  0
LINE
  6
BYLAYER
  8
0
 10
74.3355708684864
 11
74.321849776675
 20
132.593721277916
 21
132.570852791563
 62
7
  0
LINE
  6
BYLAYER
  8
0
 10
74.321849776675
 11
74.2540066004963
 20
132.570852791563
 21
132.45905130273
 62
7
  0
LINE
  6
BYLAYER
  8
0
 10
74.2540066004963
 11
73.7315887344914
 20
132.45905130273
 21
132.006763461538
 62
7
  0
LINE
  6
BYLAYER
  8
0
 10
73.7315887344914
 11
73.0577306699752
 20
132.006763461538
 21
131.783160483871
 62
7
  0
LINE
  6
BYLAYER
  8
0
 10
73.0577306699752
 11
72.8328572208437
 20
131.783160483871
 21
131.783160483871
 62
7
  0
LINE
  6
BYLAYER
  8
0
 10
72.8328572208437
 11
72.6811629280397
 20
131.783160483871
 21
131.783160483871
 62
7
  0
LINE
  6
BYLAYER
  8
0
 10
72.6811629280397
 11
72.2291291811415
 20
131.783160483871
 21
131.900043858561
 62
7
  0
LINE
  6
BYLAYER
  8
0
 10
72.2291291811415
 11
71.7684562282878
 20
131.900043858561
 21
132.232907382134
 62
7
  0
LINE
  6
BYLAYER
  8
0
 10
71.7684562282878
 11
71.4747232258065
 20
132.232907382134
 21
132.738555024814
 62
7
  0
LINE
  6
BYLAYER
  8
0
 10
71.4747232258065
 11
71.3715609429281
 20
132.738555024814
 21
133.226416066998
 62
7
  0
LINE
  6
BYLAYER
  8
0
 10
71.3715609429281
 11
71.3715609429281
 20
133.226416066998
 21
133.386495471464
 62
7
  0
LINE
  6
BYLAYER
  8
0
 10
71.3715609429281
 11
71.3715609429281
 20
133.386495471464
 21
133.574525248139
 62
7
  0
LINE
  6
BYLAYER
  8
0
 10
71.3715609429281
 11
71.4805673945409
 20
133.574525248139
 21
134.128450806452
 62
7
  0
LINE
  6
BYLAYER
  8
0
 10
71.4805673945409
 11
71.787767394541
 20
134.128450806452
 21
134.710326736973
 62
7
  0
LINE
  6
BYLAYER
  8
0
 10
71.787767394541
 11
72.2565713647643
 20
134.710326736973
 21
135.091468176179
 62
7
  0
LINE
  6
BYLAYER
  8
0
 10
72.2565713647643
 11
72.7047936972705
 20
135.091468176179
 21
135.228679094293
 62
7
  0
LINE
  6
BYLAYER
  8
0
 10
72.7047936972705
 11
72.8547093300248
 20
135.228679094293
 21
135.228679094293
 62
7
  0
LINE
  6
BYLAYER
  8
0
 10
72.8547093300248
 11
72.8658894789082
 20
135.228679094293
 21
135.228679094293
 62
7
  0
LINE
  6
BYLAYER
  8
0
 10
72.8658894789082
 11
72.8658894789082
 20
135.228679094293
 21
135.228679094293
 62
7
  0
LINE
  6
BYLAYER
  8
0
 10
71.0018537468983
 11
71.0625822828784
 20
128.192808126551
 21
128.190267183623
 62
7
  0
LINE
  6
BYLAYER
  8
0
 10
71.0625822828784
 11
71.8512909677419
 20
128.190267183623
 21
128.2334632134
 62
7
  0
LINE
  6
BYLAYER
  8
0
 10
71.8512909677419
 11
71.9447976674938
 20
128.2334632134
 21
128.248708870968
 62
7
  0
LINE
  6
BYLAYER
  8
0
 10
71.9447976674938
 11
72.1488353846154
 20
128.248708870968
 21
128.27157735732
 62
7
  0
LINE
  6
BYLAYER
  8
0
 10
72.1488353846154
 11
73.1334507692308
 20
128.27157735732
 21
128.576490508685
 62
7
  0
LINE
  6
BYLAYER
  8
0
 10
73.1334507692308
 11
74.0006745905707
 20
128.576490508685
 21
129.120252295285
 62
7
  0
LINE
  6
BYLAYER
  8
0
 10
74.0006745905707
 11
74.1452542431762
 20
129.120252295285
 21
129.262545099256
 62
7
  0
LINE
  6
BYLAYER
  8
0
 10
74.1452542431762
 11
74.2900879900744
 20
129.262545099256
 21
129.402296960298
 62
7
  0
LINE
  6
BYLAYER
  8
0
 10
74.2900879900744
 11
74.6623361290323
 20
129.402296960298
 21
129.887617059553
 62
7
  0
LINE
  6
BYLAYER
  8
0
 10
74.6623361290323
 11
75.0770180148884
 20
129.887617059553
 21
130.685473138958
 62
7
  0
LINE
  6
BYLAYER
  8
0
 10
75.0770180148884
 11
75.3514398511167
 20
130.685473138958
 21
131.661195223325
 62
7
  0
LINE
  6
BYLAYER
  8
0
 10
75.3514398511167
 11
75.452061191067
 20
131.661195223325
 21
132.530197704715
 62
7
  0
LINE
  6
BYLAYER
  8
0
 10
75.452061191067
 11
75.452061191067
 20
132.530197704715
 21
132.819865198511
 62
7
  0
LINE
  6
BYLAYER
  8
0
 10
75.452061191067
 11
75.452061191067
 20
132.819865198511
 21
133.147646836228
 62
7
  0
LINE
  6
BYLAYER
  8
0
 10
75.452061191067
 11
75.2785147890819
 20
133.147646836228
 21
134.13099174938
 62
7
  0
LINE
  6
BYLAYER
  8
0
 10
75.2785147890819
 11
74.7804899751861
 20
134.13099174938
 21
135.137205148883
 62
7
  0
LINE
  6
BYLAYER
  8
0
 10
74.7804899751861
 11
73.9920353846154
 20
135.137205148883
 21
135.780063709677
 62
7
  0
LINE
  6
BYLAYER
  8
0
 10
73.9920353846154
 11
73.2089167741936
 20
135.780063709677
 21
136.006207630273
 62
7
  0
LINE
  6
BYLAYER
  8
0
 10
73.2089167741936
 11
72.9484701240695
 20
136.006207630273
 21
136.006207630273
 62
7
  0
LINE
  6
BYLAYER
  8
0
 10
72.9484701240695
 11
72.6839579652606
 20
136.006207630273
 21
136.006207630273
 62
7
  0
LINE
  6
BYLAYER
  8
0
 10
72.6839579652606
 11
71.8899133002482
 20
136.006207630273
 21
135.787686538462
 62
7
  0
LINE
  6
BYLAYER
  8
0
 10
71.8899133002482
 11
71.0740165260546
 20
135.787686538462
 21
135.198187779156
 62
7
  0
LINE
  6
BYLAYER
  8
0
 10
71.0740165260546
 11
70.548549528536
 20
135.198187779156
 21
134.341890012407
 62
7
  0
LINE
  6
BYLAYER
  8
0
 10
70.548549528536
 11
70.3625525062035
 20
134.341890012407
 21
133.571984305211
 62
7
  0
LINE
  6
BYLAYER
  8
0
 10
70.3625525062035
 11
70.3625525062035
 20
133.571984305211
 21
133.315349069479
 62
7
  0
LINE
  6
BYLAYER
  8
0
 10
70.3625525062035
 11
70.3625525062035
 20
133.315349069479
 21
133.089205148883
 62
7
  0
LINE
  6
BYLAYER
  8
0
 10
70.3625525062035
 11
70.5195827791563
 20
133.089205148883
 21
132.410773387097
 62
7
  0
LINE
  6
BYLAYER
  8
0
 10
70.5195827791563
 11
70.9678051116625
 20
132.410773387097
 21
131.673899937965
 62
7
  0
LINE
  6
BYLAYER
  8
0
 10
70.9678051116625
 11
71.6721544913152
 20
131.673899937965
 21
131.180957009926
 62
7
  0
LINE
  6
BYLAYER
  8
0
 10
71.6721544913152
 11
72.3640532506203
 20
131.180957009926
 21
131.000550062035
 62
7
  0
LINE
  6
BYLAYER
  8
0
 10
72.3640532506203
 11
72.5957872456576
 20
131.000550062035
 21
131.000550062035
 62
7
  0
LINE
  6
BYLAYER
  8
0
 10
72.5957872456576
 11
72.8493733498759
 20
131.000550062035
 21
131.000550062035
 62
7
  0
LINE
  6
BYLAYER
  8
0
 10
72.8493733498759
 11
73.6144512655087
 20
131.000550062035
 21
131.216530210918
 62
7
  0
LINE
  6
BYLAYER
  8
0
 10
73.6144512655087
 11
74.2720472952854
 20
131.216530210918
 21
131.686604652606
 62
7
  0
LINE
  6
BYLAYER
  8
0
 10
74.2720472952854
 11
74.3767341439206
 20
131.686604652606
 21
131.816192741935
 62
7
  0
LINE
  6
BYLAYER
  8
0
 10
74.3767341439206
 11
74.4153564764268
 20
131.816192741935
 21
131.816192741935
 62
7
  0
LINE
  6
BYLAYER
  8
0
 10
74.4153564764268
 11
74.3795291811415
 20
131.816192741935
 21
131.59004882134
 62
7
  0
LINE
  6
BYLAYER
  8
0
 10
74.3795291811415
 11
74.0471738461539
 20
131.59004882134
 21
130.642277109181
 62
7
  0
LINE
  6
BYLAYER
  8
0
 10
74.0471738461539
 11
73.5372066004963
 20
130.642277109181
 21
129.913026488834
 62
7
  0
LINE
  6
BYLAYER
  8
0
 10
73.5372066004963
 11
73.411938114144
 20
129.913026488834
 21
129.798684057072
 62
7
  0
LINE
  6
BYLAYER
  8
0
 10
73.411938114144
 11
73.304202133995
 20
129.798684057072
 21
129.694505397022
 62
7
  0
LINE
  6
BYLAYER
  8
0
 10
73.304202133995
 11
72.6824333995037
 20
129.694505397022
 21
129.30828207196
 62
7
  0
LINE
  6
BYLAYER
  8
0
 10
72.6824333995037
 11
71.9780840198511
 20
129.30828207196
 21
129.084679094293
 62
7
  0
LINE
  6
BYLAYER
  8
0
 10
71.9780840198511
 11
71.829184764268
 20
129.084679094293
 21
129.064351550868
 62
7
  0
LINE
  6
BYLAYER
  8
0
 10
71.829184764268
 11
71.741014044665
 20
129.064351550868
 21
129.056728722084
 62
7
  0
LINE
  6
BYLAYER
  8
0
 10
71.741014044665
 11
71.0572463027296
 20
129.056728722084
 21
129.026237406948
 62
7
  0
LINE
  6
BYLAYER
  8
0
 10
71.0572463027296
 11
71.0018537468983
 20
129.026237406948
 21
129.031319292804
 62
7
  0
LINE
  6
BYLAYER
  8
0
 10
71.0018537468983
 11
71.0018537468983
 20
129.031319292804
 21
128.192808126551
 62
7
  0
LINE
  6
BYLAYER
  8
0
 10
71.0018537468983
 11
71.0018537468983
 20
128.192808126551
 21
128.192808126551
 62
7
  0
LINE
  6
BYLAYER
  8
0
 10
65.1223659057072
 11
65.1223659057072
 20
131.175875124069
 21
131.198743610422
 62
7
  0
LINE
  6
BYLAYER
  8
0
 10
65.1223659057072
 11
66.9752214888338
 20
131.198743610422
 21
133.772718796526
 62
7
  0
LINE
  6
BYLAYER
  8
0
 10
66.9752214888338
 11
67.0278190074442
 20
133.772718796526
 21
133.859110856079
 62
7
  0
LINE
  6
BYLAYER
  8
0
 10
67.0278190074442
 11
67.5449008933003
 20
133.859110856079
 21
134.781473138958
 62
7
  0
LINE
  6
BYLAYER
  8
0
 10
67.5449008933003
 11
67.6041048635236
 20
134.781473138958
 21
134.893274627792
 62
7
  0
LINE
  6
BYLAYER
  8
0
 10
67.6041048635236
 11
67.6368830272953
 20
134.893274627792
 21
134.893274627792
 62
7
  0
LINE
  6
BYLAYER
  8
0
 10
67.6368830272953
 11
67.6315470471464
 20
134.893274627792
 21
134.794177853598
 62
7
  0
LINE
  6
BYLAYER
  8
0
 10
67.6315470471464
 11
67.6041048635236
 20
134.794177853598
 21
133.973453287841
 62
7
  0
LINE
  6
BYLAYER
  8
0
 10
67.6041048635236
 11
67.6041048635236
 20
133.973453287841
 21
133.701572394541
 62
7
  0
LINE
  6
BYLAYER
  8
0
 10
67.6041048635236
 11
67.6041048635236
 20
133.701572394541
 21
131.175875124069
 62
7
  0
LINE
  6
BYLAYER
  8
0
 10
67.6041048635236
 11
65.1223659057072
 20
131.175875124069
 21
131.175875124069
 62
7
  0
LINE
  6
BYLAYER
  8
0
 10
65.1223659057072
 11
65.1223659057072
 20
131.175875124069
 21
131.175875124069
 62
7
  0
LINE
  6
BYLAYER
  8
0
 10
68.5689008933003
 11
68.5689008933003
 20
128.309691501241
 21
130.370396215881
 62
7
  0
LINE
  6
BYLAYER
  8
0
 10
68.5689008933003
 11
69.6277118114144
 20
130.370396215881
 21
130.370396215881
 62
7
  0
LINE
  6
BYLAYER
  8
0
 10
69.6277118114144
 11
69.6277118114144
 20
130.370396215881
 21
131.175875124069
 62
7
  0
LINE
  6
BYLAYER
  8
0
 10
69.6277118114144
 11
68.5689008933003
 20
131.175875124069
 21
131.175875124069
 62
7
  0
LINE
  6
BYLAYER
  8
0
 10
68.5689008933003
 11
68.5689008933003
 20
131.175875124069
 21
135.879160483871
 62
7
  0
LINE
  6
BYLAYER
  8
0
 10
68.5689008933003
 11
67.4605415880894
 20
135.879160483871
 21
135.879160483871
 62
7
  0
LINE
  6
BYLAYER
  8
0
 10
67.4605415880894
 11
64.0859152853598
 20
135.879160483871
 21
131.043746091811
 62
7
  0
LINE
  6
BYLAYER
  8
0
 10
64.0859152853598
 11
64.0859152853598
 20
131.043746091811
 21
130.370396215881
 62
7
  0
LINE
  6
BYLAYER
  8
0
 10
64.0859152853598
 11
67.6041048635236
 20
130.370396215881
 21
130.370396215881
 62
7
  0
LINE
  6
BYLAYER
  8
0
 10
67.6041048635236
 11
67.6041048635236
 20
130.370396215881
 21
128.309691501241
 62
7
  0
LINE
  6
BYLAYER
  8
0
 10
67.6041048635236
 11
68.5689008933003
 20
128.309691501241
 21
128.309691501241
 62
7
  0
LINE
  6
BYLAYER
  8
0
 10
68.5689008933003
 11
68.5689008933003
 20
128.309691501241
 21
128.309691501241
 62
7
  0
LINE
  6
BYLAYER
  8
0
 10
50.9139212406948
 11
92.5653118114144
 20
126.914713833747
 21
126.914713833747
 62
7
  0
LINE
  6
BYLAYER
  8
0
 10
48.981025955335
 11
48.981025955335
 20
112.404151054591
 21
127.915845347395
 62
7
  0
LINE
  6
BYLAYER
  8
0
 10
22.136726203474
 11
19.5050716129032
 20
-91.0435591191067
 21
-91.0435591191067
 62
7
  0
LINE
  6
BYLAYER
  8
0
 10
20.8215341439206
 11
22.136726203474
 20
-95.941480707196
 21
-91.0435591191067
 62
7
  0
LINE
  6
BYLAYER
  8
0
 10
19.5050716129032
 11
20.8200095781638
 20
-91.0435591191067
 21
-95.941480707196
 62
7
  0
LINE
  6
BYLAYER
  8
0
 10
19.5050716129032
 11
19.6138239702234
 20
-91.0435591191067
 21
-91.451380459057
 62
7
  0
LINE
  6
BYLAYER
  8
0
 10
19.6138239702234
 11
20.7099867493796
 20
-91.451380459057
 21
-95.5336593672456
 62
7
  0
LINE
  6
BYLAYER
  8
0
 10
20.7099867493796
 11
20.8200095781638
 20
-95.5336593672456
 21
-95.941480707196
 62
7
  0
LINE
  6
BYLAYER
  8
0
 10
20.8200095781638
 11
20.9290160297767
 20
-95.941480707196
 21
-95.5336593672456
 62
7
  0
LINE
  6
BYLAYER
  8
0
 10
20.9290160297767
 11
22.026449280397
 20
-95.5336593672456
 21
-91.451380459057
 62
7
  0
LINE
  6
BYLAYER
  8
0
 10
22.026449280397
 11
22.136726203474
 20
-91.451380459057
 21
-91.0435591191067
 62
7
  0
LINE
  6
BYLAYER
  8
0
 10
22.136726203474
 11
19.5050716129032
 20
-91.0435591191067
 21
-91.0435591191067
 62
7
  0
LINE
  6
BYLAYER
  8
0
 10
19.5050716129032
 11
22.136726203474
 20
107.599990260546
 21
107.599990260546
 62
7
  0
LINE
  6
BYLAYER
  8
0
 10
20.8200095781638
 11
19.5050716129032
 20
112.497911848635
 21
107.599990260546
 62
7
  0
LINE
  6
BYLAYER
  8
0
 10
22.136726203474
 11
20.8200095781638
 20
107.599990260546
 21
112.497911848635
 62
7
  0
LINE
  6
BYLAYER
  8
0
 10
22.136726203474
 11
22.026449280397
 20
107.599990260546
 21
108.008065694789
 62
7
  0
LINE
  6
BYLAYER
  8
0
 10
22.026449280397
 11
20.9290160297767
 20
108.008065694789
 21
112.090090508685
 62
7
  0
LINE
  6
BYLAYER
  8
0
 10
20.9290160297767
 11
20.8200095781638
 20
112.090090508685
 21
112.497911848635
 62
7
  0
LINE
  6
BYLAYER
  8
0
 10
20.8200095781638
 11
20.7099867493796
 20
112.497911848635
 21
112.090090508685
 62
7
  0
LINE
  6
BYLAYER
  8
0
 10
20.7099867493796
 11
19.6138239702234
 20
112.090090508685
 21
108.008065694789
 62
7
  0
LINE
  6
BYLAYER
  8
0
 10
19.6138239702234
 11
19.5050716129032
 20
108.008065694789
 21
107.599990260546
 62
7
  0
LINE
  6
BYLAYER
  8
0
 10
19.5050716129032
 11
22.136726203474
 20
107.599990260546
 21
107.599990260546
 62
7
  0
LINE
  6
BYLAYER
  8
0
 10
18.7867470471464
 11
18.7867470471464
 20
-4.61262313895779
 21
-4.78896457816379
 62
7
  0
LINE
  6
BYLAYER
  8
0
 10
18.7867470471464
 11
18.6228562282879
 20
-4.78896457816379
 21
-5.32230849875933
 62
7
  0
LINE
  6
BYLAYER
  8
0
 10
18.6228562282879
 11
18.1705683870968
 20
-5.32230849875933
 21
-5.83939038461537
 62
7
  0
LINE
  6
BYLAYER
  8
0
 10
18.1705683870968
 11
17.4840056079405
 20
-5.83939038461537
 21
-6.15929509925559
 62
7
  0
LINE
  6
BYLAYER
  8
0
 10
17.4840056079405
 11
16.8360651612903
 20
-6.15929509925559
 21
-6.27363753101739
 62
7
  0
LINE
  6
BYLAYER
  8
0
 10
16.8360651612903
 11
16.6198309181141
 20
-6.27363753101739
 21
-6.2777030397022
 62
7
  0
LINE
  6
BYLAYER
  8
0
 10
16.6198309181141
 11
16.5054884863524
 20
-6.2777030397022
 21
-6.2777030397022
 62
7
  0
LINE
  6
BYLAYER
  8
0
 10
16.5054884863524
 11
16.190919751861
 20
-6.2777030397022
 21
-6.17987673697269
 62
7
  0
LINE
  6
BYLAYER
  8
0
 10
16.190919751861
 11
16.1619530024814
 20
-6.17987673697269
 21
-6.16183604218364
 62
7
  0
LINE
  6
BYLAYER
  8
0
 10
16.1619530024814
 11
16.0255043672457
 20
-6.16183604218364
 21
-6.09297648883376
 62
7
  0
LINE
  6
BYLAYER
  8
0
 10
16.0255043672457
 11
15.4908899751861
 20
-6.09297648883376
 21
-5.55658343672457
 62
7
  0
LINE
  6
BYLAYER
  8
0
 10
15.4908899751861
 11
15.2299351364765
 20
-5.55658343672457
 21
-4.91016755583127
 62
7
  0
LINE
  6
BYLAYER
  8
0
 10
15.2299351364765
 11
15.2299351364765
 20
-4.91016755583127
 21
-4.69520378411909
 62
7
  0
LINE
  6
BYLAYER
  8
0
 10
15.2299351364765
 11
15.2299351364765
 20
-4.69520378411909
 21
-4.5338539081886
 62
7
  0
LINE
  6
BYLAYER
  8
0
 10
15.2299351364765
 11
15.3485971712159
 20
-4.5338539081886
 21
-4.05285341191066
 62
7
  0
LINE
  6
BYLAYER
  8
0
 10
15.3485971712159
 11
15.6934031265509
 20
-4.05285341191066
 21
-3.56067276674935
 62
7
  0
LINE
  6
BYLAYER
  8
0
 10
15.6934031265509
 11
16.2391976674938
 20
-3.56067276674935
 21
-3.24508765508682
 62
7
  0
LINE
  6
BYLAYER
  8
0
 10
16.2391976674938
 11
16.7852463027296
 20
-3.24508765508682
 21
-3.13455663771714
 62
7
  0
LINE
  6
BYLAYER
  8
0
 10
16.7852463027296
 11
16.9669237220844
 20
-3.13455663771714
 21
-3.13455663771714
 62
7
  0
LINE
  6
BYLAYER
  8
0
 10
16.9669237220844
 11
17.1519043672457
 20
-3.13455663771714
 21
-3.13455663771714
 62
7
  0
LINE
  6
BYLAYER
  8
0
 10
17.1519043672457
 11
17.7073544913152
 20
-3.13455663771714
 21
-3.24076805210919
 62
7
  0
LINE
  6
BYLAYER
  8
0
 10
17.7073544913152
 11
18.2823698759305
 20
-3.24076805210919
 21
-3.54161569478907
 62
7
  0
LINE
  6
BYLAYER
  8
0
 10
18.2823698759305
 11
18.6543639205955
 20
-3.54161569478907
 21
-4.00457549627791
 62
7
  0
LINE
  6
BYLAYER
  8
0
 10
18.6543639205955
 11
18.7867470471464
 20
-4.00457549627791
 21
-4.45127326302728
 62
7
  0
LINE
  6
BYLAYER
  8
0
 10
18.7867470471464
 11
18.7867470471464
 20
-4.45127326302728
 21
-4.60144299007445
 62
7
  0
LINE
  6
BYLAYER
  8
0
 10
18.7867470471464
 11
18.7867470471464
 20
-4.60144299007445
 21
-4.61262313895779
 62
7
  0
LINE
  6
BYLAYER
  8
0
 10
18.7867470471464
 11
18.7867470471464
 20
-4.61262313895779
 21
-4.61262313895779
 62
7
  0
LINE
  6
BYLAYER
  8
0
 10
11.7615480397023
 11
11.7615480397023
 20
-2.84234820099257
 21
-3.02834522332506
 62
7
  0
LINE
  6
BYLAYER
  8
0
 10
11.7615480397023
 11
11.8057604466502
 20
-3.02834522332506
 21
-3.51112437965259
 62
7
  0
LINE
  6
BYLAYER
  8
0
 10
11.8057604466502
 11
11.8166865012407
 20
-3.51112437965259
 21
-3.58659038461539
 62
7
  0
LINE
  6
BYLAYER
  8
0
 10
11.8166865012407
 11
11.8456532506204
 20
-3.58659038461539
 21
-3.82670949131514
 62
7
  0
LINE
  6
BYLAYER
  8
0
 10
11.8456532506204
 11
12.1876641687345
 20
-3.82670949131514
 21
-4.9241427419355
 62
7
  0
LINE
  6
BYLAYER
  8
0
 10
12.1876641687345
 11
12.781990719603
 20
-4.9241427419355
 21
-5.85590651364765
 62
7
  0
LINE
  6
BYLAYER
  8
0
 10
12.781990719603
 11
12.936225955335
 20
-5.85590651364765
 21
-6.01293678660048
 62
7
  0
LINE
  6
BYLAYER
  8
0
 10
12.936225955335
 11
13.0797892307693
 20
-6.01293678660048
 21
-6.15650006203475
 62
7
  0
LINE
  6
BYLAYER
  8
0
 10
13.0797892307693
 11
13.5729862531017
 20
-6.15650006203475
 21
-6.5259531637717
 62
7
  0
LINE
  6
BYLAYER
  8
0
 10
13.5729862531017
 11
14.3629654094293
 20
-6.5259531637717
 21
-6.93123356079403
 62
7
  0
LINE
  6
BYLAYER
  8
0
 10
14.3629654094293
 11
15.2921882382134
 20
-6.93123356079403
 21
-7.19599981389578
 62
7
  0
LINE
  6
BYLAYER
  8
0
 10
15.2921882382134
 11
16.084708337469
 20
-7.19599981389578
 21
-7.29230155086847
 62
7
  0
LINE
  6
BYLAYER
  8
0
 10
16.084708337469
 11
16.3494745905708
 20
-7.29230155086847
 21
-7.29230155086847
 62
7
  0
LINE
  6
BYLAYER
  8
0
 10
16.3494745905708
 11
16.6828463027295
 20
-7.29230155086847
 21
-7.29230155086847
 62
7
  0
LINE
  6
BYLAYER
  8
0
 10
16.6828463027295
 11
17.6837237220844
 20
-7.29230155086847
 21
-7.10071445409429
 62
7
  0
LINE
  6
BYLAYER
  8
0
 10
17.6837237220844
 11
18.6998467990074
 20
-7.10071445409429
 21
-6.56025589330022
 62
7
  0
LINE
  6
BYLAYER
  8
0
 10
18.6998467990074
 11
19.3477872456576
 20
-6.56025589330022
 21
-5.71412189826304
 62
7
  0
LINE
  6
BYLAYER
  8
0
 10
19.3477872456576
 11
19.5754557320099
 20
-5.71412189826304
 21
-4.88679088089327
 62
7
  0
LINE
  6
BYLAYER
  8
0
 10
19.5754557320099
 11
19.5754557320099
 20
-4.88679088089327
 21
-4.61262313895779
 62
7
  0
LINE
  6
BYLAYER
  8
0
 10
19.5754557320099
 11
19.5754557320099
 20
-4.61262313895779
 21
-4.34785688585609
 62
7
  0
LINE
  6
BYLAYER
  8
0
 10
19.5754557320099
 11
19.3533773200993
 20
-4.34785688585609
 21
-3.55660725806453
 62
7
  0
LINE
  6
BYLAYER
  8
0
 10
19.3533773200993
 11
18.7618458064517
 20
-3.55660725806453
 21
-2.76510353598016
 62
7
  0
LINE
  6
BYLAYER
  8
0
 10
18.7618458064517
 11
17.9085971712159
 20
-2.76510353598016
 21
-2.268857382134
 62
7
  0
LINE
  6
BYLAYER
  8
0
 10
17.9085971712159
 11
17.1557157816377
 20
-2.268857382134
 21
-2.0981060173697
 62
7
  0
LINE
  6
BYLAYER
  8
0
 10
17.1557157816377
 11
16.906449280397
 20
-2.0981060173697
 21
-2.0981060173697
 62
7
  0
LINE
  6
BYLAYER
  8
0
 10
16.906449280397
 11
16.6538795533499
 20
-2.0981060173697
 21
-2.0981060173697
 62
7
  0
LINE
  6
BYLAYER
  8
0
 10
16.6538795533499
 11
15.9002358808933
 20
-2.0981060173697
 21
-2.26606234491314
 62
7
  0
LINE
  6
BYLAYER
  8
0
 10
15.9002358808933
 11
15.1308383622829
 20
-2.26606234491314
 21
-2.73613678660047
 62
7
  0
LINE
  6
BYLAYER
  8
0
 10
15.1308383622829
 11
14.6373872456576
 20
-2.73613678660047
 21
-3.45852686104217
 62
7
  0
LINE
  6
BYLAYER
  8
0
 10
14.6373872456576
 11
14.4635867493797
 20
-3.45852686104217
 21
-4.14915514888338
 62
7
  0
LINE
  6
BYLAYER
  8
0
 10
14.4635867493797
 11
14.4635867493797
 20
-4.14915514888338
 21
-4.38063504962778
 62
7
  0
LINE
  6
BYLAYER
  8
0
 10
14.4635867493797
 11
14.4635867493797
 20
-4.38063504962778
 21
-4.65378641439204
 62
7
  0
LINE
  6
BYLAYER
  8
0
 10
14.4635867493797
 11
14.7214924565757
 20
-4.65378641439204
 21
-5.47400279156327
 62
7
  0
LINE
  6
BYLAYER
  8
0
 10
14.7214924565757
 11
15.2162140446651
 20
-5.47400279156327
 21
-6.12067276674938
 62
7
  0
LINE
  6
BYLAYER
  8
0
 10
15.2162140446651
 11
15.3348760794045
 20
-6.12067276674938
 21
-6.21163852357319
 62
7
  0
LINE
  6
BYLAYER
  8
0
 10
15.3348760794045
 11
15.3348760794045
 20
-6.21163852357319
 21
-6.24492487593051
 62
7
  0
LINE
  6
BYLAYER
  8
0
 10
15.3348760794045
 11
15.10339617866
 20
-6.24492487593051
 21
-6.21163852357319
 62
7
  0
LINE
  6
BYLAYER
  8
0
 10
15.10339617866
 11
14.4264889826303
 20
-6.21163852357319
 21
-5.98397003722087
 62
7
  0
LINE
  6
BYLAYER
  8
0
 10
14.4264889826303
 11
13.6227887344914
 20
-5.98397003722087
 21
-5.46460130272951
 62
7
  0
LINE
  6
BYLAYER
  8
0
 10
13.6227887344914
 11
13.0025445657568
 20
-5.46460130272951
 21
-4.67716308933001
 62
7
  0
LINE
  6
BYLAYER
  8
0
 10
13.0025445657568
 11
12.6895003970223
 20
-4.67716308933001
 21
-3.8874380272953
 62
7
  0
LINE
  6
BYLAYER
  8
0
 10
12.6895003970223
 11
12.6440175186105
 20
-3.8874380272953
 21
-3.61454075682383
 62
7
  0
LINE
  6
BYLAYER
  8
0
 10
12.6440175186105
 11
12.632837369727
 20
-3.61454075682383
 21
-3.54161569478907
 62
7
  0
LINE
  6
BYLAYER
  8
0
 10
12.632837369727
 11
12.5970100744417
 20
-3.54161569478907
 21
-2.89494571960296
 62
7
  0
LINE
  6
BYLAYER
  8
0
 10
12.5970100744417
 11
12.5998051116626
 20
-2.89494571960296
 21
-2.84234820099257
 62
7
  0
LINE
  6
BYLAYER
  8
0
 10
12.5998051116626
 11
11.7615480397023
 20
-2.84234820099257
 21
-2.84234820099257
 62
7
  0
LINE
  6
BYLAYER
  8
0
 10
11.7615480397023
 11
11.7615480397023
 20
-2.84234820099257
 21
-2.84234820099257
 62
7
  0
LINE
  6
BYLAYER
  8
0
 10
19.5754557320099
 11
19.5754557320099
 20
-8.80340031017369
 21
-8.6748285980149
 62
7
  0
LINE
  6
BYLAYER
  8
0
 10
19.5754557320099
 11
19.3658279404467
 20
-8.6748285980149
 21
-8.29444944168731
 62
7
  0
LINE
  6
BYLAYER
  8
0
 10
19.3658279404467
 11
18.9729981637717
 20
-8.29444944168731
 21
-8.10845241935482
 62
7
  0
LINE
  6
BYLAYER
  8
0
 10
18.9729981637717
 11
18.8421396029777
 20
-8.10845241935482
 21
-8.10845241935482
 62
7
  0
LINE
  6
BYLAYER
  8
0
 10
18.8421396029777
 11
18.7097564764268
 20
-8.10845241935482
 21
-8.10845241935482
 62
7
  0
LINE
  6
BYLAYER
  8
0
 10
18.7097564764268
 11
18.314131662531
 20
-8.10845241935482
 21
-8.29724447890817
 62
7
  0
LINE
  6
BYLAYER
  8
0
 10
18.314131662531
 11
18.1085693796527
 20
-8.29724447890817
 21
-8.66822214640197
 62
7
  0
LINE
  6
BYLAYER
  8
0
 10
18.1085693796527
 11
18.1085693796527
 20
-8.66822214640197
 21
-8.79222016129029
 62
7
  0
LINE
  6
BYLAYER
  8
0
 10
18.1085693796527
 11
18.1085693796527
 20
-8.79222016129029
 21
-8.91774274193548
 62
7
  0
LINE
  6
BYLAYER
  8
0
 10
18.1085693796527
 11
18.314131662531
 20
-8.91774274193548
 21
-9.29532686104216
 62
7
  0
LINE
  6
BYLAYER
  8
0
 10
18.314131662531
 11
18.7097564764268
 20
-9.29532686104216
 21
-9.49250403225804
 62
7
  0
LINE
  6
BYLAYER
  8
0
 10
18.7097564764268
 11
18.8421396029777
 20
-9.49250403225804
 21
-9.49250403225804
 62
7
  0
LINE
  6
BYLAYER
  8
0
 10
18.8421396029777
 11
18.9729981637717
 20
-9.49250403225804
 21
-9.49250403225804
 62
7
  0
LINE
  6
BYLAYER
  8
0
 10
18.9729981637717
 11
19.3658279404467
 20
-9.49250403225804
 21
-9.30244150124068
 62
7
  0
LINE
  6
BYLAYER
  8
0
 10
19.3658279404467
 11
19.5754557320099
 20
-9.30244150124068
 21
-8.93959485111662
 62
7
  0
LINE
  6
BYLAYER
  8
0
 10
19.5754557320099
 11
19.5754557320099
 20
-8.93959485111662
 21
-8.81991643920597
 62
7
  0
LINE
  6
BYLAYER
  8
0
 10
19.5754557320099
 11
19.5754557320099
 20
-8.81991643920597
 21
-8.80340031017369
 62
7
  0
LINE
  6
BYLAYER
  8
0
 10
19.5754557320099
 11
19.5754557320099
 20
-8.80340031017369
 21
-8.80340031017369
 62
7
  0
LINE
  6
BYLAYER
  8
0
 10
12.4839381141439
 11
12.4839381141439
 20
-13.0673566377171
 21
-12.919727853598
 62
7
  0
LINE
  6
BYLAYER
  8
0
 10
12.4839381141439
 11
12.5916740942928
 20
-12.919727853598
 21
-12.4786201612903
 62
7
  0
LINE
  6
BYLAYER
  8
0
 10
12.5916740942928
 11
12.8742269478908
 20
-12.4786201612903
 21
-12.0814707816377
 62
7
  0
LINE
  6
BYLAYER
  8
0
 10
12.8742269478908
 11
13.2698517617866
 20
-12.0814707816377
 21
-11.858121898263
 62
7
  0
LINE
  6
BYLAYER
  8
0
 10
13.2698517617866
 11
13.6062726054591
 20
-11.858121898263
 21
-11.7879918734491
 62
7
  0
LINE
  6
BYLAYER
  8
0
 10
13.6062726054591
 11
13.719090471464
 20
-11.7879918734491
 21
-11.7879918734491
 62
7
  0
LINE
  6
BYLAYER
  8
0
 10
13.719090471464
 11
13.9340542431762
 20
-11.7879918734491
 21
-11.7879918734491
 62
7
  0
LINE
  6
BYLAYER
  8
0
 10
13.9340542431762
 11
14.5797078411911
 20
-11.7879918734491
 21
-12.1172980769231
 62
7
  0
LINE
  6
BYLAYER
  8
0
 10
14.5797078411911
 11
15.0370775682382
 20
-12.1172980769231
 21
-12.7764186724566
 62
7
  0
LINE
  6
BYLAYER
  8
0
 10
15.0370775682382
 11
15.0924701240695
 20
-12.7764186724566
 21
-12.9403094913151
 62
7
  0
LINE
  6
BYLAYER
  8
0
 10
15.0924701240695
 11
15.0345366253102
 20
-12.9403094913151
 21
-13.158322394541
 62
7
  0
LINE
  6
BYLAYER
  8
0
 10
15.0345366253102
 11
14.5906338957817
 20
-13.158322394541
 21
-13.9894648263027
 62
7
  0
LINE
  6
BYLAYER
  8
0
 10
14.5906338957817
 11
13.9165217369727
 20
-13.9894648263027
 21
-14.3850896401985
 62
7
  0
LINE
  6
BYLAYER
  8
0
 10
13.9165217369727
 11
13.6916482878412
 20
-14.3850896401985
 21
-14.3850896401985
 62
7
  0
LINE
  6
BYLAYER
  8
0
 10
13.6916482878412
 11
13.5760353846154
 20
-14.3850896401985
 21
-14.3850896401985
 62
7
  0
LINE
  6
BYLAYER
  8
0
 10
13.5760353846154
 11
13.2284343920596
 20
-14.3850896401985
 21
-14.2981893920596
 62
7
  0
LINE
  6
BYLAYER
  8
0
 10
13.2284343920596
 11
12.8439897270471
 20
-14.2981893920596
 21
-14.0443491935484
 62
7
  0
LINE
  6
BYLAYER
  8
0
 10
12.8439897270471
 11
12.5804939454094
 20
-14.0443491935484
 21
-13.6309377791563
 62
7
  0
LINE
  6
BYLAYER
  8
0
 10
12.5804939454094
 11
12.4839381141439
 20
-13.6309377791563
 21
-13.2076166873449
 62
7
  0
LINE
  6
BYLAYER
  8
0
 10
12.4839381141439
 11
12.4839381141439
 20
-13.2076166873449
 21
-13.0673566377171
 62
7
  0
LINE
  6
BYLAYER
  8
0
 10
12.4839381141439
 11
12.4839381141439
 20
-13.0673566377171
 21
-13.0673566377171
 62
7
  0
LINE
  6
BYLAYER
  8
0
 10
18.8307053598015
 11
18.8307053598015
 20
-13.0782826923077
 21
-13.2393784739454
 62
7
  0
LINE
  6
BYLAYER
  8
0
 10
18.8307053598015
 11
18.7120433250621
 20
-13.2393784739454
 21
-13.7262231389578
 62
7
  0
LINE
  6
BYLAYER
  8
0
 10
18.7120433250621
 11
18.3951877419355
 20
-13.7262231389578
 21
-14.2100186724566
 62
7
  0
LINE
  6
BYLAYER
  8
0
 10
18.3951877419355
 11
17.9347688833747
 20
-14.2100186724566
 21
-14.506292617866
 62
7
  0
LINE
  6
BYLAYER
  8
0
 10
17.9347688833747
 11
17.5211033746898
 20
-14.506292617866
 21
-14.6000534119107
 62
7
  0
LINE
  6
BYLAYER
  8
0
 10
17.5211033746898
 11
17.3861793052109
 20
-14.6000534119107
 21
-14.5947174317618
 62
7
  0
LINE
  6
BYLAYER
  8
0
 10
17.3861793052109
 11
17.146314292804
 20
-14.5947174317618
 21
-14.5947174317618
 62
7
  0
LINE
  6
BYLAYER
  8
0
 10
17.146314292804
 11
16.429514292804
 20
-14.5947174317618
 21
-14.2445754962779
 62
7
  0
LINE
  6
BYLAYER
  8
0
 10
16.429514292804
 11
15.8888016377171
 20
-14.2445754962779
 21
-13.4530717741936
 62
7
  0
LINE
  6
BYLAYER
  8
0
 10
15.8888016377171
 11
15.8257862531017
 20
-13.4530717741936
 21
-13.2325179280397
 62
7
  0
LINE
  6
BYLAYER
  8
0
 10
15.8257862531017
 11
15.8750805459057
 20
-13.2325179280397
 21
-13.0549060173697
 62
7
  0
LINE
  6
BYLAYER
  8
0
 10
15.8750805459057
 11
16.0781018858561
 20
-13.0549060173697
 21
-12.5378241315136
 62
7
  0
LINE
  6
BYLAYER
  8
0
 10
16.0781018858561
 11
16.4170636724566
 20
-12.5378241315136
 21
-12.012357133995
 62
7
  0
LINE
  6
BYLAYER
  8
0
 10
16.4170636724566
 11
16.8734170223325
 20
-12.012357133995
 21
-11.6774608560794
 62
7
  0
LINE
  6
BYLAYER
  8
0
 10
16.8734170223325
 11
17.3284999007444
 20
-11.6774608560794
 21
-11.5618479528536
 62
7
  0
LINE
  6
BYLAYER
  8
0
 10
17.3284999007444
 11
17.4796860049628
 20
-11.5618479528536
 21
-11.5618479528536
 62
7
  0
LINE
  6
BYLAYER
  8
0
 10
17.4796860049628
 11
17.6120691315137
 20
-11.5618479528536
 21
-11.5618479528536
 62
7
  0
LINE
  6
BYLAYER
  8
0
 10
17.6120691315137
 11
18.0132840198512
 20
-11.5618479528536
 21
-11.6680593672457
 62
7
  0
LINE
  6
BYLAYER
  8
0
 10
18.0132840198512
 11
18.4421951861042
 20
-11.6680593672457
 21
-11.9739888957816
 62
7
  0
LINE
  6
BYLAYER
  8
0
 10
18.4421951861042
 11
18.7272889826303
 20
-11.9739888957816
 21
-12.4524484491315
 62
7
  0
LINE
  6
BYLAYER
  8
0
 10
18.7272889826303
 11
18.8307053598015
 20
-12.4524484491315
 21
-12.9212524193548
 62
7
  0
LINE
  6
BYLAYER
  8
0
 10
18.8307053598015
 11
18.8307053598015
 20
-12.9212524193548
 21
-13.0782826923077
 62
7
  0
LINE
  6
BYLAYER
  8
0
 10
18.8307053598015
 11
18.8307053598015
 20
-13.0782826923077
 21
-13.0782826923077
 62
7
  0
LINE
  6
BYLAYER
  8
0
 10
15.5002914640199
 11
15.5993882382134
 20
-14.136839516129
 21
-14.3698439826303
 62
7
  0
LINE
  6
BYLAYER
  8
0
 10
15.5993882382134
 11
16.302467146402
 20
-14.3698439826303
 21
-15.2383382754343
 62
7
  0
LINE
  6
BYLAYER
  8
0
 10
16.302467146402
 11
17.2179688833747
 20
-15.2383382754343
 21
-15.6423482009925
 62
7
  0
LINE
  6
BYLAYER
  8
0
 10
17.2179688833747
 11
17.5238984119107
 20
-15.6423482009925
 21
-15.6423482009925
 62
7
  0
LINE
  6
BYLAYER
  8
0
 10
17.5238984119107
 11
17.7198051116626
 20
-15.6423482009925
 21
-15.6423482009925
 62
7
  0
LINE
  6
BYLAYER
  8
0
 10
17.7198051116626
 11
18.3113366253102
 20
-15.6423482009925
 21
-15.4672772332506
 62
7
  0
LINE
  6
BYLAYER
  8
0
 10
18.3113366253102
 11
18.9646130521092
 20
-15.4672772332506
 21
-14.9669655707196
 62
7
  0
LINE
  6
BYLAYER
  8
0
 10
18.9646130521092
 11
19.4097862531017
 20
-14.9669655707196
 21
-14.1673308312655
 62
7
  0
LINE
  6
BYLAYER
  8
0
 10
19.4097862531017
 11
19.5754557320099
 20
-14.1673308312655
 21
-13.3661715260546
 62
7
  0
LINE
  6
BYLAYER
  8
0
 10
19.5754557320099
 11
19.5754557320099
 20
-13.3661715260546
 21
-13.1001348014888
 62
7
  0
LINE
  6
BYLAYER
  8
0
 10
19.5754557320099
 11
19.5754557320099
 20
-13.1001348014888
 21
-12.8465486972705
 62
7
  0
LINE
  6
BYLAYER
  8
0
 10
19.5754557320099
 11
19.4169008933003
 20
-12.8465486972705
 21
-12.0883313275434
 62
7
  0
LINE
  6
BYLAYER
  8
0
 10
19.4169008933003
 11
18.9686785607941
 20
-12.0883313275434
 21
-11.270909987593
 62
7
  0
LINE
  6
BYLAYER
  8
0
 10
18.9686785607941
 11
18.2737306699752
 20
-11.270909987593
 21
-10.7235908808933
 62
7
  0
LINE
  6
BYLAYER
  8
0
 10
18.2737306699752
 11
17.5998726054591
 20
-10.7235908808933
 21
-10.5251432382134
 62
7
  0
LINE
  6
BYLAYER
  8
0
 10
17.5998726054591
 11
17.3749991563275
 20
-10.5251432382134
 21
-10.5251432382134
 62
7
  0
LINE
  6
BYLAYER
  8
0
 10
17.3749991563275
 11
17.0789793052109
 20
-10.5251432382134
 21
-10.5251432382134
 62
7
  0
LINE
  6
BYLAYER
  8
0
 10
17.0789793052109
 11
16.190919751861
 20
-10.5251432382134
 21
-10.9344891439206
 62
7
  0
LINE
  6
BYLAYER
  8
0
 10
16.190919751861
 11
15.5112175186104
 20
-10.9344891439206
 21
-11.8169586228288
 62
7
  0
LINE
  6
BYLAYER
  8
0
 10
15.5112175186104
 11
15.4177108188586
 20
-11.8169586228288
 21
-12.052504032258
 62
7
  0
LINE
  6
BYLAYER
  8
0
 10
15.4177108188586
 11
15.3846785607941
 20
-12.052504032258
 21
-12.052504032258
 62
7
  0
LINE
  6
BYLAYER
  8
0
 10
15.3846785607941
 11
15.2726229776675
 20
-12.052504032258
 21
-11.8197536600496
 62
7
  0
LINE
  6
BYLAYER
  8
0
 10
15.2726229776675
 11
14.5710686352357
 20
-11.8197536600496
 21
-11.0793228908189
 62
7
  0
LINE
  6
BYLAYER
  8
0
 10
14.5710686352357
 11
13.8529981637717
 20
-11.0793228908189
 21
-10.8061715260546
 62
7
  0
LINE
  6
BYLAYER
  8
0
 10
13.8529981637717
 11
13.6144036228288
 20
-10.8061715260546
 21
-10.8061715260546
 62
7
  0
LINE
  6
BYLAYER
  8
0
 10
13.6144036228288
 11
13.4408572208437
 20
-10.8061715260546
 21
-10.8061715260546
 62
7
  0
LINE
  6
BYLAYER
  8
0
 10
13.4408572208437
 11
12.9222507692308
 20
-10.8061715260546
 21
-10.9426201612903
 62
7
  0
LINE
  6
BYLAYER
  8
0
 10
12.9222507692308
 11
12.3269078411911
 20
-10.9426201612903
 21
-11.3562856699752
 62
7
  0
LINE
  6
BYLAYER
  8
0
 10
12.3269078411911
 11
11.9076522580645
 20
-11.3562856699752
 21
-12.0428484491315
 62
7
  0
LINE
  6
BYLAYER
  8
0
 10
11.9076522580645
 11
11.7506219851117
 20
-12.0428484491315
 21
-12.7652385235732
 62
7
  0
LINE
  6
BYLAYER
  8
0
 10
11.7506219851117
 11
11.7506219851117
 20
-12.7652385235732
 21
-13.006628101737
 62
7
  0
LINE
  6
BYLAYER
  8
0
 10
11.7506219851117
 11
11.7506219851117
 20
-13.006628101737
 21
-13.2381080024814
 62
7
  0
LINE
  6
BYLAYER
  8
0
 10
11.7506219851117
 11
11.8954557320099
 20
-13.2381080024814
 21
-13.9328017990074
 62
7
  0
LINE
  6
BYLAYER
  8
0
 10
11.8954557320099
 11
12.3060721091811
 20
-13.9328017990074
 21
-14.6757735111663
 62
7
  0
LINE
  6
BYLAYER
  8
0
 10
12.3060721091811
 11
12.9418160297767
 20
-14.6757735111663
 21
-15.1694787220843
 62
7
  0
LINE
  6
BYLAYER
  8
0
 10
12.9418160297767
 11
13.5579946898263
 20
-15.1694787220843
 21
-15.3498856699752
 62
7
  0
LINE
  6
BYLAYER
  8
0
 10
13.5579946898263
 11
13.7633028784119
 20
-15.3498856699752
 21
-15.3498856699752
 62
7
  0
LINE
  6
BYLAYER
  8
0
 10
13.7633028784119
 11
13.999102382134
 20
-15.3498856699752
 21
-15.3498856699752
 62
7
  0
LINE
  6
BYLAYER
  8
0
 10
13.999102382134
 11
14.7090418362283
 20
-15.3498856699752
 21
-15.0647918734491
 62
7
  0
LINE
  6
BYLAYER
  8
0
 10
14.7090418362283
 11
15.3638428287841
 20
-15.0647918734491
 21
-14.3589179280397
 62
7
  0
LINE
  6
BYLAYER
  8
0
 10
15.3638428287841
 11
15.4619232258065
 20
-14.3589179280397
 21
-14.1477655707196
 62
7
  0
LINE
  6
BYLAYER
  8
0
 10
15.4619232258065
 11
15.5002914640199
 20
-14.1477655707196
 21
-14.136839516129
 62
7
  0
LINE
  6
BYLAYER
  8
0
 10
15.5002914640199
 11
15.5002914640199
 20
-14.136839516129
 21
-14.136839516129
 62
7
  0
LINE
  6
BYLAYER
  8
0
 10
12.5390765756824
 11
12.5390765756824
 20
-19.0515313275434
 21
-18.8790013027295
 62
7
  0
LINE
  6
BYLAYER
  8
0
 10
12.5390765756824
 11
12.7583599503722
 20
-18.8790013027295
 21
-18.3636980769231
 62
7
  0
LINE
  6
BYLAYER
  8
0
 10
12.7583599503722
 11
13.3841941935484
 20
-18.3636980769231
 21
-17.8852385235732
 62
7
  0
LINE
  6
BYLAYER
  8
0
 10
13.3841941935484
 11
14.3576294292804
 20
-17.8852385235732
 21
-17.6039561414392
 62
7
  0
LINE
  6
BYLAYER
  8
0
 10
14.3576294292804
 11
15.3087043672457
 20
-17.6039561414392
 21
-17.5127362903226
 62
7
  0
LINE
  6
BYLAYER
  8
0
 10
15.3087043672457
 11
15.627084516129
 20
-17.5127362903226
 21
-17.5127362903226
 62
7
  0
LINE
  6
BYLAYER
  8
0
 10
15.627084516129
 11
15.9538497766749
 20
-17.5127362903226
 21
-17.5127362903226
 62
7
  0
LINE
  6
BYLAYER
  8
0
 10
15.9538497766749
 11
16.9366865012407
 20
-17.5127362903226
 21
-17.60675117866
 62
7
  0
LINE
  6
BYLAYER
  8
0
 10
16.9366865012407
 11
17.9322279404467
 20
-17.60675117866
 21
-17.894640012407
 62
7
  0
LINE
  6
BYLAYER
  8
0
 10
17.9322279404467
 11
18.5649227295285
 20
-17.894640012407
 21
-18.3774191687345
 62
7
  0
LINE
  6
BYLAYER
  8
0
 10
18.5649227295285
 11
18.7867470471464
 20
-18.3774191687345
 21
-18.8901814516129
 62
7
  0
LINE
  6
BYLAYER
  8
0
 10
18.7867470471464
 11
18.7867470471464
 20
-18.8901814516129
 21
-19.062457382134
 62
7
  0
LINE
  6
BYLAYER
  8
0
 10
18.7867470471464
 11
18.7867470471464
 20
-19.062457382134
 21
-19.2194876550869
 62
7
  0
LINE
  6
BYLAYER
  8
0
 10
18.7867470471464
 11
18.579914292804
 20
-19.2194876550869
 21
-19.6951521712159
 62
7
  0
LINE
  6
BYLAYER
  8
0
 10
18.579914292804
 11
17.9802517617866
 20
-19.6951521712159
 21
-20.1804722704714
 62
7
  0
LINE
  6
BYLAYER
  8
0
 10
17.9802517617866
 11
17.0111361290323
 20
-20.1804722704714
 21
-20.4907214019851
 62
7
  0
LINE
  6
BYLAYER
  8
0
 10
17.0111361290323
 11
16.0267748387097
 20
-20.4907214019851
 21
-20.6007442307692
 62
7
  0
LINE
  6
BYLAYER
  8
0
 10
16.0267748387097
 11
15.6987391066998
 20
-20.6007442307692
 21
-20.6007442307692
 62
7
  0
LINE
  6
BYLAYER
  8
0
 10
15.6987391066998
 11
15.3569822828784
 20
-20.6007442307692
 21
-20.6007442307692
 62
7
  0
LINE
  6
BYLAYER
  8
0
 10
15.3569822828784
 11
14.3339986600497
 20
-20.6007442307692
 21
-20.4851313275434
 62
7
  0
LINE
  6
BYLAYER
  8
0
 10
14.3339986600497
 11
13.3455718610422
 20
-20.4851313275434
 21
-20.1624315756824
 62
7
  0
LINE
  6
BYLAYER
  8
0
 10
13.3455718610422
 11
12.7420979156328
 20
-20.1624315756824
 21
-19.6720295905707
 62
7
  0
LINE
  6
BYLAYER
  8
0
 10
12.7420979156328
 11
12.5390765756824
 20
-19.6720295905707
 21
-19.2057665632754
 62
7
  0
LINE
  6
BYLAYER
  8
0
 10
12.5390765756824
 11
12.5390765756824
 20
-19.2057665632754
 21
-19.0515313275434
 62
7
  0
LINE
  6
BYLAYER
  8
0
 10
12.5390765756824
 11
12.5390765756824
 20
-19.0515313275434
 21
-19.0515313275434
 62
7
  0
LINE
  6
BYLAYER
  8
0
 10
11.7506219851117
 11
11.7506219851117
 20
-18.9908027915633
 21
-19.255569044665
 62
7
  0
LINE
  6
BYLAYER
  8
0
 10
11.7506219851117
 11
12.0070031265509
 20
-19.255569044665
 21
-20.0508841811415
 62
7
  0
LINE
  6
BYLAYER
  8
0
 10
12.0070031265509
 11
12.7652204962779
 20
-20.0508841811415
 21
-20.8848216501241
 62
7
  0
LINE
  6
BYLAYER
  8
0
 10
12.7652204962779
 11
13.999102382134
 20
-20.8848216501241
 21
-21.4308702853598
 62
7
  0
LINE
  6
BYLAYER
  8
0
 10
13.999102382134
 11
15.2644919602978
 20
-21.4308702853598
 21
-21.6267769851116
 62
7
  0
LINE
  6
BYLAYER
  8
0
 10
15.2644919602978
 11
15.6878130521092
 20
-21.6267769851116
 21
-21.6267769851116
 62
7
  0
LINE
  6
BYLAYER
  8
0
 10
15.6878130521092
 11
16.1027490322581
 20
-21.6267769851116
 21
-21.622457382134
 62
7
  0
LINE
  6
BYLAYER
  8
0
 10
16.1027490322581
 11
17.3503520099256
 20
-21.622457382134
 21
-21.4336653225806
 62
7
  0
LINE
  6
BYLAYER
  8
0
 10
17.3503520099256
 11
18.5702587096774
 20
-21.4336653225806
 21
-20.9209030397022
 62
7
  0
LINE
  6
BYLAYER
  8
0
 10
18.5702587096774
 11
19.318820496278
 20
-20.9209030397022
 21
-20.1334648263027
 62
7
  0
LINE
  6
BYLAYER
  8
0
 10
19.318820496278
 11
19.5754557320099
 20
-20.1334648263027
 21
-19.3755015508685
 62
7
  0
LINE
  6
BYLAYER
  8
0
 10
19.5754557320099
 11
19.5754557320099
 20
-19.3755015508685
 21
-19.1231859181142
 62
7
  0
LINE
  6
BYLAYER
  8
0
 10
19.5754557320099
 11
19.5754557320099
 20
-19.1231859181142
 21
-18.8419035359801
 62
7
  0
LINE
  6
BYLAYER
  8
0
 10
19.5754557320099
 11
19.3122140446651
 20
-18.8419035359801
 21
-18.000851426799
 62
7
  0
LINE
  6
BYLAYER
  8
0
 10
19.3122140446651
 11
18.5428165260546
 20
-18.000851426799
 21
-17.1737745037221
 62
7
  0
LINE
  6
BYLAYER
  8
0
 10
18.5428165260546
 11
17.2896234739454
 20
-17.1737745037221
 21
-16.6622826923077
 62
7
  0
LINE
  6
BYLAYER
  8
0
 10
17.2896234739454
 11
16.0089882382134
 20
-16.6622826923077
 21
-16.4872117245658
 62
7
  0
LINE
  6
BYLAYER
  8
0
 10
16.0089882382134
 11
15.5828721091812
 20
-16.4872117245658
 21
-16.4872117245658
 62
7
  0
LINE
  6
BYLAYER
  8
0
 10
15.5828721091812
 11
15.1778458064516
 20
-16.4872117245658
 21
-16.4872117245658
 62
7
  0
LINE
  6
BYLAYER
  8
0
 10
15.1778458064516
 11
13.9645455583127
 20
-16.4872117245658
 21
-16.654151674938
 62
7
  0
LINE
  6
BYLAYER
  8
0
 10
13.9645455583127
 11
12.7611549875931
 20
-16.654151674938
 21
-17.1407422456576
 62
7
  0
LINE
  6
BYLAYER
  8
0
 10
12.7611549875931
 11
12.0097981637717
 20
-17.1407422456576
 21
-17.9264017990075
 62
7
  0
LINE
  6
BYLAYER
  8
0
 10
12.0097981637717
 11
11.7506219851117
 20
-17.9264017990075
 21
-18.7247660669975
 62
7
  0
LINE
  6
BYLAYER
  8
0
 10
11.7506219851117
 11
11.7506219851117
 20
-18.7247660669975
 21
-18.9908027915633
 62
7
  0
LINE
  6
BYLAYER
  8
0
 10
11.7506219851117
 11
11.7506219851117
 20
-18.9908027915633
 21
-18.9908027915633
 62
7
  0
LINE
  6
BYLAYER
  8
0
 10
19.4484085856079
 11
18.5992254590571
 20
-22.6589080024814
 21
-22.6589080024814
 62
7
  0
LINE
  6
BYLAYER
  8
0
 10
18.5992254590571
 11
18.5992254590571
 20
-22.6589080024814
 21
-26.0612305831266
 62
7
  0
LINE
  6
BYLAYER
  8
0
 10
18.5992254590571
 11
18.5773733498759
 20
-26.0612305831266
 21
-26.0612305831266
 62
7
  0
LINE
  6
BYLAYER
  8
0
 10
18.5773733498759
 11
18.014808585608
 20
-26.0612305831266
 21
-25.4547075062034
 62
7
  0
LINE
  6
BYLAYER
  8
0
 10
18.014808585608
 11
17.7487718610422
 20
-25.4547075062034
 21
-25.1790151985112
 62
7
  0
LINE
  6
BYLAYER
  8
0
 10
17.7487718610422
 11
16.9257604466502
 20
-25.1790151985112
 21
-24.3740444789082
 62
7
  0
LINE
  6
BYLAYER
  8
0
 10
16.9257604466502
 11
15.929202630273
 20
-24.3740444789082
 21
-23.5525576302729
 62
7
  0
LINE
  6
BYLAYER
  8
0
 10
15.929202630273
 11
14.9572919602978
 20
-23.5525576302729
 21
-23.0298856699752
 62
7
  0
LINE
  6
BYLAYER
  8
0
 10
14.9572919602978
 11
14.2016155334988
 20
-23.0298856699752
 21
-22.8466836848635
 62
7
  0
LINE
  6
BYLAYER
  8
0
 10
14.2016155334988
 11
13.9508244665012
 20
-22.8466836848635
 21
-22.8466836848635
 62
7
  0
LINE
  6
BYLAYER
  8
0
 10
13.9508244665012
 11
13.7495817866005
 20
-22.8466836848635
 21
-22.8466836848635
 62
7
  0
LINE
  6
BYLAYER
  8
0
 10
13.7495817866005
 11
13.1486487841191
 20
-22.8466836848635
 21
-22.9790668114144
 62
7
  0
LINE
  6
BYLAYER
  8
0
 10
13.1486487841191
 11
12.4427748387097
 20
-22.9790668114144
 21
-23.3937486972705
 62
7
  0
LINE
  6
BYLAYER
  8
0
 10
12.4427748387097
 11
11.9409386104218
 20
-23.3937486972705
 21
-24.1135978287841
 62
7
  0
LINE
  6
BYLAYER
  8
0
 10
11.9409386104218
 11
11.7506219851117
 20
-24.1135978287841
 21
-24.899257382134
 62
7
  0
LINE
  6
BYLAYER
  8
0
 10
11.7506219851117
 11
11.7506219851117
 20
-24.899257382134
 21
-25.1624990694789
 62
7
  0
LINE
  6
BYLAYER
  8
0
 10
11.7506219851117
 11
11.7506219851117
 20
-25.1624990694789
 21
-25.463092617866
 62
7
  0
LINE
  6
BYLAYER
  8
0
 10
11.7506219851117
 11
11.9683807940447
 20
-25.463092617866
 21
-26.3674142059554
 62
7
  0
LINE
  6
BYLAYER
  8
0
 10
11.9683807940447
 11
12.4066934491315
 20
-26.3674142059554
 21
-27.1764504342432
 62
7
  0
LINE
  6
BYLAYER
  8
0
 10
12.4066934491315
 11
12.5172244665012
 20
-27.1764504342432
 21
-27.30756308933
 62
7
  0
LINE
  6
BYLAYER
  8
0
 10
12.5172244665012
 11
13.2396145409429
 20
-27.30756308933
 21
-26.9820683002482
 62
7
  0
LINE
  6
BYLAYER
  8
0
 10
13.2396145409429
 11
13.1664353846154
 20
-26.9820683002482
 21
-26.8951680521092
 62
7
  0
LINE
  6
BYLAYER
  8
0
 10
13.1664353846154
 11
12.8094329032258
 20
-26.8951680521092
 21
-26.3051611042183
 62
7
  0
LINE
  6
BYLAYER
  8
0
 10
12.8094329032258
 11
12.5998051116626
 20
-26.3051611042183
 21
-25.6051313275434
 62
7
  0
LINE
  6
BYLAYER
  8
0
 10
12.5998051116626
 11
12.5998051116626
 20
-25.6051313275434
 21
-25.3721268610422
 62
7
  0
LINE
  6
BYLAYER
  8
0
 10
12.5998051116626
 11
12.5998051116626
 20
-25.3721268610422
 21
-25.1942608560794
 62
7
  0
LINE
  6
BYLAYER
  8
0
 10
12.5998051116626
 11
12.7225326550869
 20
-25.1942608560794
 21
-24.660662841191
 62
7
  0
LINE
  6
BYLAYER
  8
0
 10
12.7225326550869
 11
13.0508224813896
 20
-24.660662841191
 21
-24.1977030397022
 62
7
  0
LINE
  6
BYLAYER
  8
0
 10
13.0508224813896
 11
13.5219133002482
 20
-24.1977030397022
 21
-23.9466578784119
 62
7
  0
LINE
  6
BYLAYER
  8
0
 10
13.5219133002482
 11
13.9383738461539
 20
-23.9466578784119
 21
-23.8722082506204
 62
7
  0
LINE
  6
BYLAYER
  8
0
 10
13.9383738461539
 11
14.0778716129032
 20
-23.8722082506204
 21
-23.8722082506204
 62
7
  0
LINE
  6
BYLAYER
  8
0
 10
14.0778716129032
 11
14.2869912158809
 20
-23.8722082506204
 21
-23.8737328163771
 62
7
  0
LINE
  6
BYLAYER
  8
0
 10
14.2869912158809
 11
14.9184155334988
 20
-23.8737328163771
 21
-24.0444841811415
 62
7
  0
LINE
  6
BYLAYER
  8
0
 10
14.9184155334988
 11
15.7968195037221
 20
-24.0444841811415
 21
-24.5587710297767
 62
7
  0
LINE
  6
BYLAYER
  8
0
 10
15.7968195037221
 11
16.8030329032258
 20
-24.5587710297767
 21
-25.4341258684864
 62
7
  0
LINE
  6
BYLAYER
  8
0
 10
16.8030329032258
 11
17.733526203474
 20
-25.4341258684864
 21
-26.3702092431762
 62
7
  0
LINE
  6
BYLAYER
  8
0
 10
17.733526203474
 11
18.0366606947891
 20
-26.3702092431762
 21
-26.6898598635236
 62
7
  0
LINE
  6
BYLAYER
  8
0
 10
18.0366606947891
 11
18.819779305211
 20
-26.6898598635236
 21
-27.4950846774193
 62
7
  0
LINE
  6
BYLAYER
  8
0
 10
18.819779305211
 11
19.4484085856079
 20
-27.4950846774193
 21
-27.4950846774193
 62
7
  0
LINE
  6
BYLAYER
  8
0
 10
19.4484085856079
 11
19.4484085856079
 20
-27.4950846774193
 21
-22.6589080024814
 62
7
  0
LINE
  6
BYLAYER
  8
0
 10
19.4484085856079
 11
19.4484085856079
 20
-22.6589080024814
 21
-22.6589080024814
 62
7
  0
LINE
  6
BYLAYER
  8
0
 10
20.8200095781638
 11
20.8200095781638
 20
-96.2171730148883
 21
110.234439888337
 62
7
  0
LINE
  6
BYLAYER
  8
0
 10
1.43896739454098
 11
21.8224115632755
 20
112.164540136476
 21
112.164540136476
 62
7
  0
LINE
  6
BYLAYER
  8
0
 10
10.1335659057072
 11
21.8224115632755
 20
-96.2598608560794
 21
-96.2598608560794
 62
7
  0
LINE
  6
BYLAYER
  8
0
 10
1.95045920595537
 11
1.68721751861042
 20
110.576450806452
 21
110.799799689826
 62
7
  0
LINE
  6
BYLAYER
  8
0
 10
1.68721751861042
 11
0.824313300248136
 20
110.799799689826
 21
111.378626488834
 62
7
  0
LINE
  6
BYLAYER
  8
0
 10
0.824313300248136
 11
-0.406773548387108
 20
111.378626488834
 21
111.96456792804
 62
7
  0
LINE
  6
BYLAYER
  8
0
 10
-0.406773548387108
 11
-1.72044104218359
 20
111.96456792804
 21
112.328685049628
 62
7
  0
LINE
  6
BYLAYER
  8
0
 10
-1.72044104218359
 11
-2.75308024813897
 20
112.328685049628
 21
112.458273138958
 62
7
  0
LINE
  6
BYLAYER
  8
0
 10
-2.75308024813897
 11
-3.09610754342431
 20
112.458273138958
 21
112.461068176179
 62
7
  0
LINE
  6
BYLAYER
  8
0
 10
-3.09610754342431
 11
-90.1310764764268
 20
112.461068176179
 21
112.461068176179
 62
7
  0
LINE
  6
BYLAYER
  8
0
 10
-90.1310764764268
 11
-90.8051886352357
 20
112.461068176179
 21
112.41406073201
 62
7
  0
LINE
  6
BYLAYER
  8
0
 10
-90.8051886352357
 11
-92.8027000992556
 20
112.41406073201
 21
111.898503411911
 62
7
  0
LINE
  6
BYLAYER
  8
0
 10
-92.8027000992556
 11
-94.9877077419355
 20
111.898503411911
 21
110.642515322581
 62
7
  0
LINE
  6
BYLAYER
  8
0
 10
-94.9877077419355
 11
-96.6350772704714
 20
110.642515322581
 21
108.734521277916
 62
7
  0
LINE
  6
BYLAYER
  8
0
 10
-96.6350772704714
 11
-97.520113101737
 20
108.734521277916
 21
106.872264205955
 62
7
  0
LINE
  6
BYLAYER
  8
0
 10
-97.520113101737
 11
-97.6938119602978
 20
106.872264205955
 21
106.218733684864
 62
7
  0
LINE
  6
BYLAYER
  8
0
 10
-97.6938119602978
 11
-97.7172394540943
 20
106.218733684864
 21
106.09880117866
 62
7
  0
LINE
  6
BYLAYER
  8
0
 10
-97.7172394540943
 11
-97.8316581141439
 20
106.09880117866
 21
105.094112344913
 62
7
  0
LINE
  6
BYLAYER
  8
0
 10
-97.8316581141439
 11
-97.8316581141439
 20
105.094112344913
 21
104.757437406948
 62
7
  0
LINE
  6
BYLAYER
  8
0
 10
-97.8316581141439
 11
-97.8316581141439
 20
104.757437406948
 21
-93.4749874069479
 62
7
  0
LINE
  6
BYLAYER
  8
0
 10
-97.8316581141439
 11
-97.8316581141439
 20
-93.4749874069479
 21
-96.2171730148883
 62
7
  0
LINE
  6
BYLAYER
  8
0
 10
-97.8316581141439
 11
-96.6309355334987
 20
-96.2171730148883
 21
-96.2171730148883
 62
7
  0
LINE
  6
BYLAYER
  8
0
 10
-96.6309355334987
 11
-95.6328531513647
 20
-96.2171730148883
 21
-96.2171730148883
 62
7
  0
LINE
  6
BYLAYER
  8
0
 10
-95.6328531513647
 11
-78.6215705707196
 20
-96.2171730148883
 21
-96.2171730148883
 62
7
  0
LINE
  6
BYLAYER
  8
0
 10
-78.6215705707196
 11
-74.6236509677419
 20
-96.2171730148883
 21
-96.2171730148883
 62
7
  0
LINE
  6
BYLAYER
  8
0
 10
-74.6236509677419
 11
-73.1239864516129
 20
-96.2171730148883
 21
-92.0927144540943
 62
7
  0
LINE
  6
BYLAYER
  8
0
 10
-73.1239864516129
 11
-73.1239864516129
 20
-92.0927144540943
 21
-75.8090816997519
 62
7
  0
LINE
  6
BYLAYER
  8
0
 10
-73.1239864516129
 11
-73.1072162282879
 20
-75.8090816997519
 21
-75.0701754962779
 62
7
  0
LINE
  6
BYLAYER
  8
0
 10
-73.1072162282879
 11
-72.7710494789082
 20
-75.0701754962779
 21
-72.8603174317618
 62
7
  0
LINE
  6
BYLAYER
  8
0
 10
-72.7710494789082
 11
-71.9081452605459
 20
-72.8603174317618
 21
-70.3043829404466
 62
7
  0
LINE
  6
BYLAYER
  8
0
 10
-71.9081452605459
 11
-70.6094693300248
 20
-70.3043829404466
 21
-68.1428027915633
 62
7
  0
LINE
  6
BYLAYER
  8
0
 10
-70.6094693300248
 11
-68.9469303722084
 20
-68.1428027915633
 21
-66.3730360421836
 62
7
  0
LINE
  6
BYLAYER
  8
0
 10
-68.9469303722084
 11
-66.9934534491315
 20
-66.3730360421836
 21
-64.9971154466501
 62
7
  0
LINE
  6
BYLAYER
  8
0
 10
-66.9934534491315
 11
-64.8224718114144
 20
-64.9971154466501
 21
-64.0142787220844
 62
7
  0
LINE
  6
BYLAYER
  8
0
 10
-64.8224718114144
 11
-62.5048777667494
 20
-64.0142787220844
 21
-63.4255422456576
 62
7
  0
LINE
  6
BYLAYER
  8
0
 10
-62.5048777667494
 11
-60.1158832258065
 20
-63.4255422456576
 21
-63.2283650744417
 62
7
  0
LINE
  6
BYLAYER
  8
0
 10
-60.1158832258065
 11
-57.7253641191067
 20
-63.2283650744417
 21
-63.4242717741936
 62
7
  0
LINE
  6
BYLAYER
  8
0
 10
-57.7253641191067
 11
-55.4095487344913
 20
-63.4242717741936
 21
-64.0142787220844
 62
7
  0
LINE
  6
BYLAYER
  8
0
 10
-55.4095487344913
 11
-53.2380589081886
 20
-64.0142787220844
 21
-64.9971154466501
 62
7
  0
LINE
  6
BYLAYER
  8
0
 10
-53.2380589081886
 11
-51.2863606451613
 20
-64.9971154466501
 21
-66.3730360421836
 62
7
  0
LINE
  6
BYLAYER
  8
0
 10
-51.2863606451613
 11
-49.6250921588089
 20
-66.3730360421836
 21
-68.1415323200992
 62
7
  0
LINE
  6
BYLAYER
  8
0
 10
-49.6250921588089
 11
-48.3276866997519
 20
-68.1415323200992
 21
-70.3043829404466
 62
7
  0
LINE
  6
BYLAYER
  8
0
 10
-48.3276866997519
 11
-47.4678316129032
 20
-70.3043829404466
 21
-72.8603174317618
 62
7
  0
LINE
  6
BYLAYER
  8
0
 10
-47.4678316129032
 11
-47.1329353349876
 20
-72.8603174317618
 21
-75.0701754962779
 62
7
  0
LINE
  6
BYLAYER
  8
0
 10
-47.1329353349876
 11
-47.1148946401985
 20
-75.0701754962779
 21
-75.8090816997519
 62
7
  0
LINE
  6
BYLAYER
  8
0
 10
-47.1148946401985
 11
-47.1148946401985
 20
-75.8090816997519
 21
-92.0927144540943
 62
7
  0
LINE
  6
BYLAYER
  8
0
 10
-47.1148946401985
 11
-45.6149760297767
 20
-92.0927144540943
 21
-96.2171730148883
 62
7
  0
LINE
  6
BYLAYER
  8
0
 10
-45.6149760297767
 11
-37.6110058064516
 20
-96.2171730148883
 21
-96.2171730148883
 62
7
  0
LINE
  6
BYLAYER
  8
0
 10
-37.6110058064516
 11
-36.1110871960298
 20
-96.2171730148883
 21
-92.0927144540943
 62
7
  0
LINE
  6
BYLAYER
  8
0
 10
-36.1110871960298
 11
-36.1110871960298
 20
-92.0927144540943
 21
-82.3090678039702
 62
7
  0
LINE
  6
BYLAYER
  8
0
 10
-36.1110871960298
 11
-36.1110871960298
 20
-82.3090678039702
 21
-82.2577407568238
 62
7
  0
LINE
  6
BYLAYER
  8
0
 10
-36.1110871960298
 11
-36.0490881885856
 20
-82.2577407568238
 21
-81.7548881513648
 62
7
  0
LINE
  6
BYLAYER
  8
0
 10
-36.0490881885856
 11
-36.0366375682382
 20
-81.7548881513648
 21
-81.706610235732
 62
7
  0
LINE
  6
BYLAYER
  8
0
 10
-36.0366375682382
 11
-36.0257115136477
 20
-81.706610235732
 21
-81.665192866005
 62
7
  0
LINE
  6
BYLAYER
  8
0
 10
-36.0257115136477
 11
-35.885197369727
 20
-81.665192866005
 21
-81.273633560794
 62
7
  0
LINE
  6
BYLAYER
  8
0
 10
-35.885197369727
 11
-35.8674107692307
 20
-81.273633560794
 21
-81.2365357940447
 62
7
  0
LINE
  6
BYLAYER
  8
0
 10
-35.8674107692307
 11
-35.8493700744417
 20
-81.2365357940447
 21
-81.1991839330025
 62
7
  0
LINE
  6
BYLAYER
  8
0
 10
-35.8493700744417
 11
-35.6344063027295
 20
-81.1991839330025
 21
-80.8424355459057
 62
7
  0
LINE
  6
BYLAYER
  8
0
 10
-35.6344063027295
 11
-35.6092509677419
 20
-80.8424355459057
 21
-80.8091491935484
 62
7
  0
LINE
  6
BYLAYER
  8
0
 10
-35.6092509677419
 11
-35.4509502233251
 20
-80.8091491935484
 21
-80.6188325682382
 62
7
  0
LINE
  6
BYLAYER
  8
0
 10
-35.4509502233251
 11
-35.2702891811414
 20
-80.6188325682382
 21
-80.4424911290323
 62
7
  0
LINE
  6
BYLAYER
  8
0
 10
-35.2702891811414
 11
-35.0771775186104
 20
-80.4424911290323
 21
-80.2864772332506
 62
7
  0
LINE
  6
BYLAYER
  8
0
 10
-35.0771775186104
 11
-34.8693283870967
 20
-80.2864772332506
 21
-80.1502826923077
 62
7
  0
LINE
  6
BYLAYER
  8
0
 10
-34.8693283870967
 11
-34.8332469975186
 20
-80.1502826923077
 21
-80.1294469602977
 62
7
  0
LINE
  6
BYLAYER
  8
0
 10
-34.8332469975186
 11
-34.4528678411911
 20
-80.1294469602977
 21
-79.9559005583126
 62
7
  0
LINE
  6
BYLAYER
  8
0
 10
-34.4528678411911
 11
-34.4129750372208
 20
-79.9559005583126
 21
-79.9419253722084
 62
7
  0
LINE
  6
BYLAYER
  8
0
 10
-34.4129750372208
 11
-34.1728559305211
 20
-79.9419253722084
 21
-79.8743362903226
 62
7
  0
LINE
  6
BYLAYER
  8
0
 10
-34.1728559305211
 11
-34.1332172208436
 20
-79.8743362903226
 21
-79.864680707196
 62
7
  0
LINE
  6
BYLAYER
  8
0
 10
-34.1332172208436
 11
-33.7208221836228
 20
-79.864680707196
 21
-79.8125913771712
 62
7
  0
LINE
  6
BYLAYER
  8
0
 10
-33.7208221836228
 11
-33.6796589081886
 20
-79.8125913771712
 21
-79.8110668114144
 62
7
  0
LINE
  6
BYLAYER
  8
0
 10
-33.6796589081886
 11
-33.6379874441687
 20
-79.8110668114144
 21
-79.8097963399504
 62
7
  0
LINE
  6
BYLAYER
  8
0
 10
-33.6379874441687
 11
-33.2233055583127
 20
-79.8097963399504
 21
-79.8385089950372
 62
7
  0
LINE
  6
BYLAYER
  8
0
 10
-33.2233055583127
 11
-33.1816340942928
 20
-79.8385089950372
 21
-79.8453695409429
 62
7
  0
LINE
  6
BYLAYER
  8
0
 10
-33.1816340942928
 11
-32.937703573201
 20
-79.8453695409429
 21
-79.902286662531
 62
7
  0
LINE
  6
BYLAYER
  8
0
 10
-32.937703573201
 11
-32.7021581637717
 20
-79.902286662531
 21
-79.9790231389578
 62
7
  0
LINE
  6
BYLAYER
  8
0
 10
-32.7021581637717
 11
-32.4719487344913
 20
-79.9790231389578
 21
-80.0824395161291
 62
7
  0
LINE
  6
BYLAYER
  8
0
 10
-32.4719487344913
 11
-32.2567308684863
 20
-80.0824395161291
 21
-80.2066916253102
 62
7
  0
LINE
  6
BYLAYER
  8
0
 10
-32.2567308684863
 11
-32.0526931513647
 20
-80.2066916253102
 21
-80.3543204094293
 62
7
  0
LINE
  6
BYLAYER
  8
0
 10
-32.0526931513647
 11
-31.8654256575682
 20
-80.3543204094293
 21
-80.5169407568238
 62
7
  0
LINE
  6
BYLAYER
  8
0
 10
-31.8654256575682
 11
-31.6954365756824
 20
-80.5169407568238
 21
-80.7001427419355
 62
7
  0
LINE
  6
BYLAYER
  8
0
 10
-31.6954365756824
 11
-31.544250471464
 20
-80.7001427419355
 21
-80.9016395161291
 62
7
  0
LINE
  6
BYLAYER
  8
0
 10
-31.544250471464
 11
-31.4131378163771
 20
-80.9016395161291
 21
-81.1122836848635
 62
7
  0
LINE
  6
BYLAYER
  8
0
 10
-31.4131378163771
 11
-31.3041313647642
 20
-81.1122836848635
 21
-81.338427605459
 62
7
  0
LINE
  6
BYLAYER
  8
0
 10
-31.3041313647642
 11
-31.220280248139
 20
-81.338427605459
 21
-81.5714320719603
 62
7
  0
LINE
  6
BYLAYER
  8
0
 10
-31.220280248139
 11
-31.1552321091811
 20
-81.5714320719603
 21
-81.8153625930521
 62
7
  0
LINE
  6
BYLAYER
  8
0
 10
-31.1552321091811
 11
-31.1486256575682
 20
-81.8153625930521
 21
-81.8555094913151
 62
7
  0
LINE
  6
BYLAYER
  8
0
 10
-31.1486256575682
 11
-31.1082246650124
 20
-81.8555094913151
 21
-82.2663799627792
 62
7
  0
LINE
  6
BYLAYER
  8
0
 10
-31.1082246650124
 11
-31.1069541935484
 20
-82.2663799627792
 21
-82.3090678039702
 62
7
  0
LINE
  6
BYLAYER
  8
0
 10
-31.1069541935484
 11
-31.1069541935484
 20
-82.3090678039702
 21
-92.0927144540943
 62
7
  0
LINE
  6
BYLAYER
  8
0
 10
-31.1069541935484
 11
-29.6070355831265
 20
-92.0927144540943
 21
-96.2171730148883
 62
7
  0
LINE
  6
BYLAYER
  8
0
 10
-29.6070355831265
 11
-24.6196728039702
 20
-96.2171730148883
 21
-96.2171730148883
 62
7
  0
LINE
  6
BYLAYER
  8
0
 10
-24.6196728039702
 11
-14.6083576674938
 20
-96.2171730148883
 21
-96.2171730148883
 62
7
  0
LINE
  6
BYLAYER
  8
0
 10
-14.6083576674938
 11
2.40528799007447
 20
-96.2171730148883
 21
-96.2171730148883
 62
7
  0
LINE
  6
BYLAYER
  8
0
 10
2.40528799007447
 11
3.40464084367248
 20
-96.2171730148883
 21
-96.2171730148883
 62
7
  0
LINE
  6
BYLAYER
  8
0
 10
3.40464084367248
 11
4.60422
 20
-96.2171730148883
 21
-96.2171730148883
 62
7
  0
LINE
  6
BYLAYER
  8
0
 10
4.60422
 11
4.60422
 20
-96.2171730148883
 21
-93.4749874069479
 62
7
  0
LINE
  6
BYLAYER
  8
0
 10
4.60422
 11
4.60422
 20
-93.4749874069479
 21
104.757437406948
 62
7
  0
LINE
  6
BYLAYER
  8
0
 10
4.60422
 11
4.59329394540946
 20
104.757437406948
 21
105.322797208437
 62
7
  0
LINE
  6
BYLAYER
  8
0
 10
4.59329394540946
 11
3.89148550868488
 20
105.322797208437
 21
107.947591253102
 62
7
  0
LINE
  6
BYLAYER
  8
0
 10
3.89148550868488
 11
2.36971478908191
 20
107.947591253102
 21
110.198358498759
 62
7
  0
LINE
  6
BYLAYER
  8
0
 10
2.36971478908191
 11
1.95045920595537
 20
110.198358498759
 21
110.576450806452
 62
7
  0
LINE
  6
BYLAYER
  8
0
 10
1.95045920595537
 11
1.95045920595537
 20
110.576450806452
 21
110.576450806452
 62
7
  0
LINE
  6
BYLAYER
  8
0
 10
-65.0841889330025
 11
-65.0773283870968
 20
100.183740136476
 21
100.224903411911
 62
7
  0
LINE
  6
BYLAYER
  8
0
 10
-65.0773283870968
 11
-64.9657809925558
 20
100.224903411911
 21
100.628659243176
 62
7
  0
LINE
  6
BYLAYER
  8
0
 10
-64.9657809925558
 11
-64.9505353349876
 20
100.628659243176
 21
100.667535669975
 62
7
  0
LINE
  6
BYLAYER
  8
0
 10
-64.9505353349876
 11
-64.8483894292804
 20
100.667535669975
 21
100.891900930521
 62
7
  0
LINE
  6
BYLAYER
  8
0
 10
-64.8483894292804
 11
-64.7243914143921
 20
100.891900930521
 21
101.108643362283
 62
7
  0
LINE
  6
BYLAYER
  8
0
 10
-64.7243914143921
 11
-64.576762630273
 20
101.108643362283
 21
101.312681079404
 62
7
  0
LINE
  6
BYLAYER
  8
0
 10
-64.576762630273
 11
-64.4141422828784
 20
101.312681079404
 21
101.499948573201
 62
7
  0
LINE
  6
BYLAYER
  8
0
 10
-64.4141422828784
 11
-64.2309402977668
 20
101.499948573201
 21
101.669429466501
 62
7
  0
LINE
  6
BYLAYER
  8
0
 10
-64.2309402977668
 11
-64.029697617866
 20
101.669429466501
 21
101.821123759305
 62
7
  0
LINE
  6
BYLAYER
  8
0
 10
-64.029697617866
 11
-63.8172747890819
 20
101.821123759305
 21
101.950711848635
 62
7
  0
LINE
  6
BYLAYER
  8
0
 10
-63.8172747890819
 11
-63.5911308684864
 20
101.950711848635
 21
102.061242866005
 62
7
  0
LINE
  6
BYLAYER
  8
0
 10
-63.5911308684864
 11
-63.3581264019851
 20
102.061242866005
 21
102.14509398263
 62
7
  0
LINE
  6
BYLAYER
  8
0
 10
-63.3581264019851
 11
-63.1157204466501
 20
102.14509398263
 21
102.208617555831
 62
7
  0
LINE
  6
BYLAYER
  8
0
 10
-63.1157204466501
 11
-63.0755735483871
 20
102.208617555831
 21
102.216748573201
 62
7
  0
LINE
  6
BYLAYER
  8
0
 10
-63.0755735483871
 11
-62.6631785111663
 20
102.216748573201
 21
102.257911848635
 62
7
  0
LINE
  6
BYLAYER
  8
0
 10
-62.6631785111663
 11
-62.6204906699752
 20
102.257911848635
 21
102.257911848635
 62
7
  0
LINE
  6
BYLAYER
  8
0
 10
-62.6204906699752
 11
-56.6187834739454
 20
102.257911848635
 21
102.257911848635
 62
7
  0
LINE
  6
BYLAYER
  8
0
 10
-56.6187834739454
 11
-56.567456426799
 20
102.257911848635
 21
102.257911848635
 62
7
  0
LINE
  6
BYLAYER
  8
0
 10
-56.567456426799
 11
-56.0643497270471
 20
102.257911848635
 21
102.196166935484
 62
7
  0
LINE
  6
BYLAYER
  8
0
 10
-56.0643497270471
 11
-56.0148013399504
 20
102.196166935484
 21
102.183462220844
 62
7
  0
LINE
  6
BYLAYER
  8
0
 10
-56.0148013399504
 11
-55.7749363275434
 20
102.183462220844
 21
102.110537158809
 62
7
  0
LINE
  6
BYLAYER
  8
0
 10
-55.7749363275434
 11
-55.5419318610422
 20
102.110537158809
 21
102.0155058933
 62
7
  0
LINE
  6
BYLAYER
  8
0
 10
-55.5419318610422
 11
-55.3229025806452
 20
102.0155058933
 21
101.898368424318
 62
7
  0
LINE
  6
BYLAYER
  8
0
 10
-55.3229025806452
 11
-55.1145452605459
 20
101.898368424318
 21
101.757600186104
 62
7
  0
LINE
  6
BYLAYER
  8
0
 10
-55.1145452605459
 11
-54.9244827295285
 20
101.757600186104
 21
101.597774875931
 62
7
  0
LINE
  6
BYLAYER
  8
0
 10
-54.9244827295285
 11
-54.7478871960298
 20
101.597774875931
 21
101.418892493797
 62
7
  0
LINE
  6
BYLAYER
  8
0
 10
-54.7478871960298
 11
-54.5918733002481
 20
101.418892493797
 21
101.224256265509
 62
7
  0
LINE
  6
BYLAYER
  8
0
 10
-54.5918733002481
 11
-54.4556787593052
 20
101.224256265509
 21
101.016153039702
 62
7
  0
LINE
  6
BYLAYER
  8
0
 10
-54.4556787593052
 11
-54.3423527047146
 20
101.016153039702
 21
100.794074627792
 62
7
  0
LINE
  6
BYLAYER
  8
0
 10
-54.3423527047146
 11
-54.2503705707196
 20
100.794074627792
 21
100.561324255583
 62
7
  0
LINE
  6
BYLAYER
  8
0
 10
-54.2503705707196
 11
-54.1797323573201
 20
100.561324255583
 21
100.321205148883
 62
7
  0
LINE
  6
BYLAYER
  8
0
 10
-54.1797323573201
 11
-54.1716013399504
 20
100.321205148883
 21
100.281312344913
 62
7
  0
LINE
  6
BYLAYER
  8
0
 10
-54.1716013399504
 11
-54.1195120099255
 20
100.281312344913
 21
99.8691714019851
 62
7
  0
LINE
  6
BYLAYER
  8
0
 10
-54.1195120099255
 11
-54.1164628784119
 20
99.8691714019851
 21
99.8264835607941
 62
7
  0
LINE
  6
BYLAYER
  8
0
 10
-54.1164628784119
 11
-54.1233234243176
 20
99.8264835607941
 21
99.5769629652606
 62
7
  0
LINE
  6
BYLAYER
  8
0
 10
-54.1233234243176
 11
-54.1273889330025
 20
99.5769629652606
 21
99.5357996898263
 62
7
  0
LINE
  6
BYLAYER
  8
0
 10
-54.1273889330025
 11
-54.1977730521092
 20
99.5357996898263
 21
99.1274701612903
 62
7
  0
LINE
  6
BYLAYER
  8
0
 10
-54.1977730521092
 11
-54.2076827295285
 20
99.1274701612903
 21
99.0860527915632
 62
7
  0
LINE
  6
BYLAYER
  8
0
 10
-54.2076827295285
 11
-54.2859437717121
 20
99.0860527915632
 21
98.8489828163772
 62
7
  0
LINE
  6
BYLAYER
  8
0
 10
-54.2859437717121
 11
-54.3878355831266
 20
98.8489828163772
 21
98.6202979528537
 62
7
  0
LINE
  6
BYLAYER
  8
0
 10
-54.3878355831266
 11
-54.4086713151365
 20
98.6202979528537
 21
98.5842165632754
 62
7
  0
LINE
  6
BYLAYER
  8
0
 10
-54.4086713151365
 11
-54.6345611414392
 20
98.5842165632754
 21
98.2328041563276
 62
7
  0
LINE
  6
BYLAYER
  8
0
 10
-54.6345611414392
 11
-54.6597164764268
 20
98.2328041563276
 21
98.1995178039702
 62
7
  0
LINE
  6
BYLAYER
  8
0
 10
-54.6597164764268
 11
-54.8251318610422
 20
98.1995178039702
 21
98.0135207816377
 62
7
  0
LINE
  6
BYLAYER
  8
0
 10
-54.8251318610422
 11
-55.0083338461538
 20
98.0135207816377
 21
97.8442939826303
 62
7
  0
LINE
  6
BYLAYER
  8
0
 10
-55.0083338461538
 11
-55.2070355831266
 20
97.8442939826303
 21
97.6923455955335
 62
7
  0
LINE
  6
BYLAYER
  8
0
 10
-55.2070355831266
 11
-55.4176797518611
 20
97.6923455955335
 21
97.5614870347395
 62
7
  0
LINE
  6
BYLAYER
  8
0
 10
-55.4176797518611
 11
-55.6438236724566
 20
97.5614870347395
 21
97.4509560173697
 62
7
  0
LINE
  6
BYLAYER
  8
0
 10
-55.6438236724566
 11
-55.8768281389578
 20
97.4509560173697
 21
97.3671049007444
 62
7
  0
LINE
  6
BYLAYER
  8
0
 10
-55.8768281389578
 11
-55.9182455086849
 20
97.3671049007444
 21
97.3561788461539
 62
7
  0
LINE
  6
BYLAYER
  8
0
 10
-55.9182455086849
 11
-56.3260668486352
 20
97.3561788461539
 21
97.273090012407
 62
7
  0
LINE
  6
BYLAYER
  8
0
 10
-56.3260668486352
 11
-56.3677383126551
 20
97.273090012407
 21
97.2680081265509
 62
7
  0
LINE
  6
BYLAYER
  8
0
 10
-56.3677383126551
 11
-56.6187834739454
 20
97.2680081265509
 21
97.2540329404466
 62
7
  0
LINE
  6
BYLAYER
  8
0
 10
-56.6187834739454
 11
-62.6204906699752
 20
97.2540329404466
 21
97.2540329404466
 62
7
  0
LINE
  6
BYLAYER
  8
0
 10
-62.6204906699752
 11
-62.6718177171216
 20
97.2540329404466
 21
97.2555575062035
 62
7
  0
LINE
  6
BYLAYER
  8
0
 10
-62.6718177171216
 11
-63.1764489826303
 20
97.2555575062035
 21
97.3173024193549
 62
7
  0
LINE
  6
BYLAYER
  8
0
 10
-63.1764489826303
 11
-63.2244728039702
 20
97.3173024193549
 21
97.328736662531
 62
7
  0
LINE
  6
BYLAYER
  8
0
 10
-63.2244728039702
 11
-63.2656360794044
 20
97.328736662531
 21
97.3396627171217
 62
7
  0
LINE
  6
BYLAYER
  8
0
 10
-63.2656360794044
 11
-63.6574494789082
 20
97.3396627171217
 21
97.4814473325062
 62
7
  0
LINE
  6
BYLAYER
  8
0
 10
-63.6574494789082
 11
-63.6945472456575
 20
97.4814473325062
 21
97.4979634615384
 62
7
  0
LINE
  6
BYLAYER
  8
0
 10
-63.6945472456575
 11
-63.7318991066998
 20
97.4979634615384
 21
97.5175287220844
 62
7
  0
LINE
  6
BYLAYER
  8
0
 10
-63.7318991066998
 11
-64.0876311166253
 20
97.5175287220844
 21
97.7322383995038
 62
7
  0
LINE
  6
BYLAYER
  8
0
 10
-64.0876311166253
 11
-64.120409280397
 20
97.7322383995038
 21
97.7558691687345
 62
7
  0
LINE
  6
BYLAYER
  8
0
 10
-64.120409280397
 11
-64.3119963771712
 20
97.7558691687345
 21
97.9144240074442
 62
7
  0
LINE
  6
BYLAYER
  8
0
 10
-64.3119963771712
 11
-64.48859191067
 20
97.9144240074442
 21
98.0950850496278
 62
7
  0
LINE
  6
BYLAYER
  8
0
 10
-64.48859191067
 11
-64.6430812406948
 20
98.0950850496278
 21
98.2876885235732
 62
7
  0
LINE
  6
BYLAYER
  8
0
 10
-64.6430812406948
 11
-64.7808003473945
 20
98.2876885235732
 21
98.4960458436725
 62
7
  0
LINE
  6
BYLAYER
  8
0
 10
-64.7808003473945
 11
-64.8941264019851
 20
98.4960458436725
 21
98.7193947270472
 62
7
  0
LINE
  6
BYLAYER
  8
0
 10
-64.8941264019851
 11
-64.9861085359802
 20
98.7193947270472
 21
98.9508746277916
 62
7
  0
LINE
  6
BYLAYER
  8
0
 10
-64.9861085359802
 11
-65.0567467493797
 20
98.9508746277916
 21
99.1922642059554
 62
7
  0
LINE
  6
BYLAYER
  8
0
 10
-65.0567467493797
 11
-65.0661482382134
 20
99.1922642059554
 21
99.2336815756824
 62
7
  0
LINE
  6
BYLAYER
  8
0
 10
-65.0661482382134
 11
-65.118491662531
 20
99.2336815756824
 21
99.6442979528537
 62
7
  0
LINE
  6
BYLAYER
  8
0
 10
-65.118491662531
 11
-65.1200162282878
 20
99.6442979528537
 21
99.6857153225806
 62
7
  0
LINE
  6
BYLAYER
  8
0
 10
-65.1200162282878
 11
-65.1212866997518
 20
99.6857153225806
 21
99.7284031637718
 62
7
  0
LINE
  6
BYLAYER
  8
0
 10
-65.1212866997518
 11
-65.0910494789082
 20
99.7284031637718
 21
100.142068672457
 62
7
  0
LINE
  6
BYLAYER
  8
0
 10
-65.0910494789082
 11
-65.0841889330025
 20
100.142068672457
 21
100.183740136476
 62
7
  0
LINE
  6
BYLAYER
  8
0
 10
-65.0841889330025
 11
-65.0841889330025
 20
100.183740136476
 21
100.183740136476
 62
7
  0
LINE
  6
BYLAYER
  8
0
 10
-14.6002266501241
 11
-14.6083576674938
 20
-46.9119541563276
 21
-48.1981794665013
 62
7
  0
LINE
  6
BYLAYER
  8
0
 10
-14.6083576674938
 11
-78.6215705707196
 20
-48.1981794665013
 21
-48.1981794665013
 62
7
  0
LINE
  6
BYLAYER
  8
0
 10
-78.6215705707196
 11
-78.6256360794044
 20
-48.1981794665013
 21
-45.5883769851117
 62
7
  0
LINE
  6
BYLAYER
  8
0
 10
-78.6256360794044
 11
-78.6256360794044
 20
-45.5883769851117
 21
93.1857292183623
 62
7
  0
LINE
  6
BYLAYER
  8
0
 10
-78.6256360794044
 11
-78.5555060545906
 20
93.1857292183623
 21
93.2563674317618
 62
7
  0
LINE
  6
BYLAYER
  8
0
 10
-78.5555060545906
 11
-14.6718812406948
 20
93.2563674317618
 21
93.2563674317618
 62
7
  0
LINE
  6
BYLAYER
  8
0
 10
-14.6718812406948
 11
-14.6002266501241
 20
93.2563674317618
 21
93.1857292183623
 62
7
  0
LINE
  6
BYLAYER
  8
0
 10
-14.6002266501241
 11
-14.6002266501241
 20
93.1857292183623
 21
-46.9119541563276
 62
7
  0
LINE
  6
BYLAYER
  8
0
 10
-14.6002266501241
 11
-14.6002266501241
 20
-46.9119541563276
 21
-46.9119541563276
 62
7
  0
ENDSEC
  0
EOF
