  0
SECTION
  2
HEADER
  9
$CECOLOR
 62
256
  9
$CELTYPE
  6
CONTINUOUS
  9
$CLAYER
  8
0
  9
$TEXTSTYLE
  7
STANDARD
  9
$DWGCODEPAGE
  3
ANSI_1252
  9
$LTSCALE
 40
1
  0
ENDSEC
  0
SECTION
  2
TABLES
  0
TABLE
  2
LTYPE
 70
5
  0
LTYPE
  2
CONTINUOUS
  3
CONTINUOUS
 70
0
 72
65
 73
0
 40
0
  0
LTYPE
  2
DASHED
  3
DASHED
 70
0
 72
65
 73
2
 40
0.75
 49
0.5
 49
-0.25
  0
LTYPE
  2
DOT
  3
DOT
 70
0
 72
65
 73
2
 40
0.25
 49
0
 49
-0.25
  0
LTYPE
  2
DASHDOT
  3
DASHDOT
 70
0
 72
65
 73
4
 40
1
 49
0.5
 49
-0.25
 49
0
 49
-0.25
  0
LTYPE
  2
DIVIDE
  3
DIVIDE
 70
0
 72
65
 73
6
 40
1.25
 49
0.5
 49
-0.25
 49
0
 49
-0.25
 49
0
 49
-0.25
  0
ENDTAB
  0
TABLE
  2
LAYER
 70
3
  0
LAYER
  2
0
  6
CONTINUOUS
 70
0
 62
7
  0
LAYER
  2
_FLOOR1_W
  6
CONTINUOUS
 70
4
 62
7
  0
LAYER
  2
_FLOOR1_WH
  6
CONTINUOUS
 70
5
 62
1
  0
ENDTAB
  0
TABLE
  2
STYLE
 70
3
  0
STYLE
  2
STANDARD
 70
0
 40
0
 41
1
 50
0
 71
0
 42
1
  3
TXT.SHX
  0
STYLE
  2
ANNOTATIVE
 70
0
 40
0
 41
1
 50
0
 71
0
 42
1
  3
ROMANS.SHX
  0
STYLE
  2
ATTRIBUTI_SCATOLA
 70
0
 40
0
 41
1
 50
0
 71
0
 42
1
  3
ROMANS.SHX
  0
ENDTAB
  0
ENDSEC
  0
SECTION
  2
BLOCKS
  0
BLOCK
  2
*MODEL_SPACE
 10
0
 20
0
 70
1
  0
ENDBLK
  0
BLOCK
  2
*PAPER_SPACE
 10
0
 20
0
 70
1
  0
ENDBLK
  0
ENDSEC
  0
SECTION
  2
ENTITIES
  0
LINE
  6
BYLAYER
  8
0
 10
122.820079482802
 11
124.357476429367
 20
140.556279829423
 21
140.556279829423
 62
7
  0
LINE
  6
BYLAYER
  8
0
 10
123.585377192726
 11
122.820079482802
 20
143.430554638584
 21
140.556279829423
 62
7
  0
LINE
  6
BYLAYER
  8
0
 10
124.357476429367
 11
123.585377192726
 20
140.556279829423
 21
143.430554638584
 62
7
  0
LINE
  6
BYLAYER
  8
0
 10
124.357476429367
 11
124.293491696543
 20
140.556279829423
 21
140.795592806522
 62
7
  0
LINE
  6
BYLAYER
  8
0
 10
124.293491696543
 11
123.649865742344
 20
140.795592806522
 21
143.193760745454
 62
7
  0
LINE
  6
BYLAYER
  8
0
 10
123.649865742344
 11
123.585377192726
 20
143.193760745454
 21
143.430554638584
 62
7
  0
LINE
  6
BYLAYER
  8
0
 10
123.585377192726
 11
123.521392459902
 20
143.430554638584
 21
143.193760745454
 62
7
  0
LINE
  6
BYLAYER
  8
0
 10
123.521392459902
 11
122.882804673642
 20
143.193760745454
 21
140.795592806522
 62
7
  0
LINE
  6
BYLAYER
  8
0
 10
122.882804673642
 11
122.820079482802
 20
140.795592806522
 21
140.556279829423
 62
7
  0
LINE
  6
BYLAYER
  8
0
 10
122.820079482802
 11
124.357476429367
 20
140.556279829423
 21
140.556279829423
 62
7
  0
LINE
  6
BYLAYER
  8
0
 10
315.183125284329
 11
315.183125284329
 20
148.010249295072
 21
148.932234027897
 62
7
  0
LINE
  6
BYLAYER
  8
0
 10
315.183125284329
 11
311.512819940818
 20
148.932234027897
 21
148.932234027897
 62
7
  0
LINE
  6
BYLAYER
  8
0
 10
311.512819940818
 11
311.512819940818
 20
148.932234027897
 21
148.952386699652
 62
7
  0
LINE
  6
BYLAYER
  8
0
 10
311.512819940818
 11
312.170300856848
 20
148.952386699652
 21
149.556966852324
 62
7
  0
LINE
  6
BYLAYER
  8
0
 10
312.170300856848
 11
312.462514597306
 20
149.556966852324
 21
149.846661508813
 62
7
  0
LINE
  6
BYLAYER
  8
0
 10
312.462514597306
 11
313.334117650741
 20
149.846661508813
 21
150.733379066064
 62
7
  0
LINE
  6
BYLAYER
  8
0
 10
313.334117650741
 11
314.220835207993
 20
150.733379066064
 21
151.806508837057
 62
7
  0
LINE
  6
BYLAYER
  8
0
 10
314.220835207993
 11
314.787629101123
 20
151.806508837057
 21
152.856966852324
 62
7
  0
LINE
  6
BYLAYER
  8
0
 10
314.787629101123
 11
314.981598566772
 20
152.856966852324
 21
153.670630974461
 62
7
  0
LINE
  6
BYLAYER
  8
0
 10
314.981598566772
 11
314.981598566772
 20
153.670630974461
 21
153.945211127133
 62
7
  0
LINE
  6
BYLAYER
  8
0
 10
314.981598566772
 11
314.981598566772
 20
153.945211127133
 21
154.161852348507
 62
7
  0
LINE
  6
BYLAYER
  8
0
 10
314.981598566772
 11
314.838010780512
 20
154.161852348507
 21
154.80925692866
 62
7
  0
LINE
  6
BYLAYER
  8
0
 10
314.838010780512
 11
314.392132917917
 20
154.80925692866
 21
155.567501203469
 62
7
  0
LINE
  6
BYLAYER
  8
0
 10
314.392132917917
 11
313.613735971352
 20
155.567501203469
 21
156.111623340874
 62
7
  0
LINE
  6
BYLAYER
  8
0
 10
313.613735971352
 11
312.764804673642
 20
156.111623340874
 21
156.3156691424
 62
7
  0
LINE
  6
BYLAYER
  8
0
 10
312.764804673642
 11
312.480148185092
 20
156.3156691424
 21
156.3156691424
 62
7
  0
LINE
  6
BYLAYER
  8
0
 10
312.480148185092
 11
312.155186353031
 20
156.3156691424
 21
156.3156691424
 62
7
  0
LINE
  6
BYLAYER
  8
0
 10
312.155186353031
 11
311.182819940818
 20
156.3156691424
 21
156.08139433324
 62
7
  0
LINE
  6
BYLAYER
  8
0
 10
311.182819940818
 11
310.308697803413
 20
156.08139433324
 21
155.61032563095
 62
7
  0
LINE
  6
BYLAYER
  8
0
 10
310.308697803413
 11
310.167629101123
 20
155.61032563095
 21
155.491928684385
 62
7
  0
LINE
  6
BYLAYER
  8
0
 10
310.167629101123
 11
310.522819940818
 20
155.491928684385
 21
154.708493569881
 62
7
  0
LINE
  6
BYLAYER
  8
0
 10
310.522819940818
 11
310.616026047688
 20
154.708493569881
 21
154.789104256904
 62
7
  0
LINE
  6
BYLAYER
  8
0
 10
310.616026047688
 11
311.253354291963
 20
154.789104256904
 21
155.177043188202
 62
7
  0
LINE
  6
BYLAYER
  8
0
 10
311.253354291963
 11
312.004041314863
 20
155.177043188202
 21
155.403760745454
 62
7
  0
LINE
  6
BYLAYER
  8
0
 10
312.004041314863
 11
312.25594971181
 20
155.403760745454
 21
155.403760745454
 62
7
  0
LINE
  6
BYLAYER
  8
0
 10
312.25594971181
 11
312.44488100952
 20
155.403760745454
 21
155.403760745454
 62
7
  0
LINE
  6
BYLAYER
  8
0
 10
312.44488100952
 11
313.024270322497
 20
155.403760745454
 21
155.270249295072
 62
7
  0
LINE
  6
BYLAYER
  8
0
 10
313.024270322497
 11
313.520529864482
 20
155.270249295072
 21
154.912539371408
 62
7
  0
LINE
  6
BYLAYER
  8
0
 10
313.520529864482
 11
313.792590933184
 20
154.912539371408
 21
154.406203493545
 62
7
  0
LINE
  6
BYLAYER
  8
0
 10
313.792590933184
 11
313.873201620207
 20
154.406203493545
 21
153.95780654698
 62
7
  0
LINE
  6
BYLAYER
  8
0
 10
313.873201620207
 11
313.873201620207
 20
153.95780654698
 21
153.809180592782
 62
7
  0
LINE
  6
BYLAYER
  8
0
 10
313.873201620207
 11
313.870682536238
 20
153.809180592782
 21
153.579943951561
 62
7
  0
LINE
  6
BYLAYER
  8
0
 10
313.870682536238
 11
313.686789406467
 20
153.579943951561
 21
152.897272195835
 62
7
  0
LINE
  6
BYLAYER
  8
0
 10
313.686789406467
 11
313.132590933184
 20
152.897272195835
 21
151.950096623316
 62
7
  0
LINE
  6
BYLAYER
  8
0
 10
313.132590933184
 11
312.187934444634
 20
151.950096623316
 21
150.866890516446
 62
7
  0
LINE
  6
BYLAYER
  8
0
 10
312.187934444634
 11
311.175262688909
 20
150.866890516446
 21
149.85925692866
 62
7
  0
LINE
  6
BYLAYER
  8
0
 10
311.175262688909
 11
310.832667269062
 20
149.85925692866
 21
149.531776012629
 62
7
  0
LINE
  6
BYLAYER
  8
0
 10
310.832667269062
 11
309.966102383566
 20
149.531776012629
 21
148.690401966828
 62
7
  0
LINE
  6
BYLAYER
  8
0
 10
309.966102383566
 11
309.966102383566
 20
148.690401966828
 21
148.010249295072
 62
7
  0
LINE
  6
BYLAYER
  8
0
 10
309.966102383566
 11
315.183125284329
 20
148.010249295072
 21
148.010249295072
 62
7
  0
LINE
  6
BYLAYER
  8
0
 10
315.183125284329
 11
315.183125284329
 20
148.010249295072
 21
148.010249295072
 62
7
  0
LINE
  6
BYLAYER
  8
0
 10
307.789613833947
 11
307.87274360494
 20
146.541623340874
 21
146.680172959194
 62
7
  0
LINE
  6
BYLAYER
  8
0
 10
307.87274360494
 11
308.081827574405
 20
146.680172959194
 21
147.118493569881
 62
7
  0
LINE
  6
BYLAYER
  8
0
 10
308.081827574405
 11
308.409308490436
 20
147.118493569881
 21
147.889333264538
 62
7
  0
LINE
  6
BYLAYER
  8
0
 10
308.409308490436
 11
308.724193986619
 20
147.889333264538
 21
148.753379066064
 62
7
  0
LINE
  6
BYLAYER
  8
0
 10
308.724193986619
 11
308.925720704176
 20
148.753379066064
 21
149.383150058431
 62
7
  0
LINE
  6
BYLAYER
  8
0
 10
308.925720704176
 11
308.981140551505
 20
149.383150058431
 21
149.594753111866
 62
7
  0
LINE
  6
BYLAYER
  8
0
 10
308.981140551505
 11
307.754346658375
 20
149.594753111866
 21
149.468798913393
 62
7
  0
LINE
  6
BYLAYER
  8
0
 10
307.754346658375
 11
307.716560398833
 20
149.468798913393
 21
149.242081356141
 62
7
  0
LINE
  6
BYLAYER
  8
0
 10
307.716560398833
 11
307.424346658375
 20
149.242081356141
 21
147.901928684385
 62
7
  0
LINE
  6
BYLAYER
  8
0
 10
307.424346658375
 11
307.064117650741
 20
147.901928684385
 21
146.649943951561
 62
7
  0
LINE
  6
BYLAYER
  8
0
 10
307.064117650741
 11
306.998621467535
 20
146.649943951561
 21
146.46353173782
 62
7
  0
LINE
  6
BYLAYER
  8
0
 10
306.998621467535
 11
307.789613833947
 20
146.46353173782
 21
146.541623340874
 62
7
  0
LINE
  6
BYLAYER
  8
0
 10
307.789613833947
 11
307.789613833947
 20
146.541623340874
 21
146.541623340874
 62
7
  0
LINE
  6
BYLAYER
  8
0
 10
303.29808711639
 11
304.371216887383
 20
148.010249295072
 21
148.010249295072
 62
7
  0
LINE
  6
BYLAYER
  8
0
 10
304.371216887383
 11
304.371216887383
 20
148.010249295072
 21
156.179638608049
 62
7
  0
LINE
  6
BYLAYER
  8
0
 10
304.371216887383
 11
303.424041314863
 20
156.179638608049
 21
156.179638608049
 62
7
  0
LINE
  6
BYLAYER
  8
0
 10
303.424041314863
 11
301.643048948451
 20
156.179638608049
 21
155.222386699652
 62
7
  0
LINE
  6
BYLAYER
  8
0
 10
301.643048948451
 11
301.854652001886
 20
155.222386699652
 21
154.381012653851
 62
7
  0
LINE
  6
BYLAYER
  8
0
 10
301.854652001886
 11
303.275415360665
 20
154.381012653851
 21
155.151852348507
 62
7
  0
LINE
  6
BYLAYER
  8
0
 10
303.275415360665
 11
303.29808711639
 20
155.151852348507
 21
155.151852348507
 62
7
  0
LINE
  6
BYLAYER
  8
0
 10
303.29808711639
 11
303.29808711639
 20
155.151852348507
 21
148.010249295072
 62
7
  0
LINE
  6
BYLAYER
  8
0
 10
303.29808711639
 11
303.29808711639
 20
148.010249295072
 21
148.010249295072
 62
7
  0
LINE
  6
BYLAYER
  8
0
 10
287.123048948451
 11
312.044346658375
 20
146.508875249271
 21
146.508875249271
 62
7
  0
LINE
  6
BYLAYER
  8
0
 10
295.927247421734
 11
295.927247421734
 20
166.963837081332
 21
145.561699676751
 62
7
  0
LINE
  6
BYLAYER
  8
0
 10
204.48953749807
 11
204.48953749807
 20
-146.874979712562
 21
-147.793437727829
 62
7
  0
LINE
  6
BYLAYER
  8
0
 10
204.48953749807
 11
208.484804673642
 20
-147.793437727829
 21
-147.793437727829
 62
7
  0
LINE
  6
BYLAYER
  8
0
 10
208.484804673642
 11
208.484804673642
 20
-147.793437727829
 21
-147.815353758363
 62
7
  0
LINE
  6
BYLAYER
  8
0
 10
208.484804673642
 11
204.942972612573
 20
-147.815353758363
 21
-155.042353758363
 62
7
  0
LINE
  6
BYLAYER
  8
0
 10
204.942972612573
 11
206.086636734711
 20
-155.042353758363
 21
-155.042353758363
 62
7
  0
LINE
  6
BYLAYER
  8
0
 10
206.086636734711
 11
209.638545131657
 20
-155.042353758363
 21
-147.601987346149
 62
7
  0
LINE
  6
BYLAYER
  8
0
 10
209.638545131657
 11
209.638545131657
 20
-147.601987346149
 21
-146.874979712562
 62
7
  0
LINE
  6
BYLAYER
  8
0
 10
209.638545131657
 11
204.48953749807
 20
-146.874979712562
 21
-146.874979712562
 62
7
  0
LINE
  6
BYLAYER
  8
0
 10
204.48953749807
 11
204.48953749807
 20
-146.874979712562
 21
-146.874979712562
 62
7
  0
LINE
  6
BYLAYER
  8
0
 10
203.091445895016
 11
203.091445895016
 20
-155.042353758363
 21
-154.123895743096
 62
7
  0
LINE
  6
BYLAYER
  8
0
 10
203.091445895016
 11
199.423659635474
 20
-154.123895743096
 21
-154.123895743096
 62
7
  0
LINE
  6
BYLAYER
  8
0
 10
199.423659635474
 11
199.423659635474
 20
-154.123895743096
 21
-154.101979712562
 62
7
  0
LINE
  6
BYLAYER
  8
0
 10
199.423659635474
 11
200.078621467535
 20
-154.101979712562
 21
-153.495132384317
 62
7
  0
LINE
  6
BYLAYER
  8
0
 10
200.078621467535
 11
200.375873375932
 20
-153.495132384317
 21
-153.208208720195
 62
7
  0
LINE
  6
BYLAYER
  8
0
 10
200.375873375932
 11
201.244957345398
 20
-153.208208720195
 21
-152.322498796531
 62
7
  0
LINE
  6
BYLAYER
  8
0
 10
201.244957345398
 11
202.13167490265
 20
-152.322498796531
 21
-151.246849941569
 62
7
  0
LINE
  6
BYLAYER
  8
0
 10
202.13167490265
 11
202.69594971181
 20
-151.246849941569
 21
-150.198659101875
 62
7
  0
LINE
  6
BYLAYER
  8
0
 10
202.69594971181
 11
202.894957345398
 20
-150.198659101875
 21
-149.382727804165
 62
7
  0
LINE
  6
BYLAYER
  8
0
 10
202.894957345398
 11
202.894957345398
 20
-149.382727804165
 21
-149.110918643859
 62
7
  0
LINE
  6
BYLAYER
  8
0
 10
202.894957345398
 11
202.894957345398
 20
-149.110918643859
 21
-148.893773605691
 62
7
  0
LINE
  6
BYLAYER
  8
0
 10
202.894957345398
 11
202.748850475169
 20
-148.893773605691
 21
-148.245613300348
 62
7
  0
LINE
  6
BYLAYER
  8
0
 10
202.748850475169
 11
202.302972612573
 20
-148.245613300348
 21
-147.485857575157
 62
7
  0
LINE
  6
BYLAYER
  8
0
 10
202.302972612573
 11
201.524575666009
 20
-147.485857575157
 21
-146.943246888134
 62
7
  0
LINE
  6
BYLAYER
  8
0
 10
201.524575666009
 11
200.673125284329
 20
-146.943246888134
 21
-146.73819345302
 62
7
  0
LINE
  6
BYLAYER
  8
0
 10
200.673125284329
 11
200.390987879749
 20
-146.73819345302
 21
-146.73819345302
 62
7
  0
LINE
  6
BYLAYER
  8
0
 10
200.390987879749
 11
200.066026047688
 20
-146.73819345302
 21
-146.73819345302
 62
7
  0
LINE
  6
BYLAYER
  8
0
 10
200.066026047688
 11
199.096178719444
 20
-146.73819345302
 21
-146.971712536989
 62
7
  0
LINE
  6
BYLAYER
  8
0
 10
199.096178719444
 11
198.21953749807
 20
-146.971712536989
 21
-147.444796506455
 62
7
  0
LINE
  6
BYLAYER
  8
0
 10
198.21953749807
 11
198.078468795779
 20
-147.444796506455
 21
-147.563697269813
 62
7
  0
LINE
  6
BYLAYER
  8
0
 10
198.078468795779
 11
198.433659635474
 20
-147.563697269813
 21
-148.345369025539
 62
7
  0
LINE
  6
BYLAYER
  8
0
 10
198.433659635474
 11
198.526865742344
 20
-148.345369025539
 21
-148.266269788897
 62
7
  0
LINE
  6
BYLAYER
  8
0
 10
198.526865742344
 11
199.16167490265
 20
-148.266269788897
 21
-147.879338491188
 62
7
  0
LINE
  6
BYLAYER
  8
0
 10
199.16167490265
 11
199.91488100952
 20
-147.879338491188
 21
-147.651361391951
 62
7
  0
LINE
  6
BYLAYER
  8
0
 10
199.91488100952
 11
200.166789406467
 20
-147.651361391951
 21
-147.651361391951
 62
7
  0
LINE
  6
BYLAYER
  8
0
 10
200.166789406467
 11
200.358239788146
 20
-147.651361391951
 21
-147.651361391951
 62
7
  0
LINE
  6
BYLAYER
  8
0
 10
200.358239788146
 11
200.932590933184
 20
-147.651361391951
 21
-147.783865208745
 62
7
  0
LINE
  6
BYLAYER
  8
0
 10
200.932590933184
 11
201.431369559138
 20
-147.783865208745
 21
-148.139056048439
 62
7
  0
LINE
  6
BYLAYER
  8
0
 10
201.431369559138
 11
201.703430627841
 20
-148.139056048439
 21
-148.648666735462
 62
7
  0
LINE
  6
BYLAYER
  8
0
 10
201.703430627841
 11
201.784041314863
 20
-148.648666735462
 21
-149.097315590424
 62
7
  0
LINE
  6
BYLAYER
  8
0
 10
201.784041314863
 11
201.784041314863
 20
-149.097315590424
 21
-149.247452995004
 62
7
  0
LINE
  6
BYLAYER
  8
0
 10
201.784041314863
 11
201.781522230894
 20
-149.247452995004
 21
-149.474422460653
 62
7
  0
LINE
  6
BYLAYER
  8
0
 10
201.781522230894
 11
201.600148185093
 20
-149.474422460653
 21
-150.156338491187
 62
7
  0
LINE
  6
BYLAYER
  8
0
 10
201.600148185093
 11
201.043430627841
 20
-150.156338491187
 21
-151.103514063707
 62
7
  0
LINE
  6
BYLAYER
  8
0
 10
201.043430627841
 11
200.098774139291
 20
-151.103514063707
 21
-152.18974307134
 62
7
  0
LINE
  6
BYLAYER
  8
0
 10
200.098774139291
 11
199.088621467535
 20
-152.18974307134
 21
-153.19460566676
 62
7
  0
LINE
  6
BYLAYER
  8
0
 10
199.088621467535
 11
198.746026047688
 20
-153.19460566676
 21
-153.522590399584
 62
7
  0
LINE
  6
BYLAYER
  8
0
 10
198.746026047688
 11
197.876942078222
 20
-153.522590399584
 21
-154.364216353783
 62
7
  0
LINE
  6
BYLAYER
  8
0
 10
197.876942078222
 11
197.876942078222
 20
-154.364216353783
 21
-155.042353758363
 62
7
  0
LINE
  6
BYLAYER
  8
0
 10
197.876942078222
 11
203.091445895016
 20
-155.042353758363
 21
-155.042353758363
 62
7
  0
LINE
  6
BYLAYER
  8
0
 10
203.091445895016
 11
203.091445895016
 20
-155.042353758363
 21
-155.042353758363
 62
7
  0
LINE
  6
BYLAYER
  8
0
 10
193.816178719444
 11
194.886789406467
 20
-155.042353758363
 21
-155.042353758363
 62
7
  0
LINE
  6
BYLAYER
  8
0
 10
194.886789406467
 11
194.886789406467
 20
-155.042353758363
 21
-146.874979712562
 62
7
  0
LINE
  6
BYLAYER
  8
0
 10
194.886789406467
 11
193.942132917917
 20
-146.874979712562
 21
-146.874979712562
 62
7
  0
LINE
  6
BYLAYER
  8
0
 10
193.942132917917
 11
192.158621467535
 20
-146.874979712562
 21
-147.831475895768
 62
7
  0
LINE
  6
BYLAYER
  8
0
 10
192.158621467535
 11
192.37274360494
 20
-147.831475895768
 21
-148.67360566676
 62
7
  0
LINE
  6
BYLAYER
  8
0
 10
192.37274360494
 11
193.793506963718
 20
-148.67360566676
 21
-147.902765972104
 62
7
  0
LINE
  6
BYLAYER
  8
0
 10
193.793506963718
 11
193.816178719444
 20
-147.902765972104
 21
-147.902765972104
 62
7
  0
LINE
  6
BYLAYER
  8
0
 10
193.816178719444
 11
193.816178719444
 20
-147.902765972104
 21
-155.042353758363
 62
7
  0
LINE
  6
BYLAYER
  8
0
 10
193.816178719444
 11
193.816178719444
 20
-155.042353758363
 21
-155.042353758363
 62
7
  0
LINE
  6
BYLAYER
  8
0
 10
120.781132917917
 11
120.781132917917
 20
12.9022034935453
 21
13.973569905759
 62
7
  0
LINE
  6
BYLAYER
  8
0
 10
120.781132917917
 11
112.613758872115
 20
13.973569905759
 21
13.973569905759
 62
7
  0
LINE
  6
BYLAYER
  8
0
 10
112.613758872115
 11
112.613758872115
 20
13.973569905759
 21
13.0279057836217
 62
7
  0
LINE
  6
BYLAYER
  8
0
 10
112.613758872115
 11
113.570255055322
 20
13.0279057836217
 21
11.2456538752248
 62
7
  0
LINE
  6
BYLAYER
  8
0
 10
113.570255055322
 11
114.412132917917
 20
11.2456538752248
 21
11.4590202874385
 62
7
  0
LINE
  6
BYLAYER
  8
0
 10
114.412132917917
 11
113.64129322326
 20
11.4590202874385
 21
12.880035554614
 62
7
  0
LINE
  6
BYLAYER
  8
0
 10
113.64129322326
 11
113.64129322326
 20
12.880035554614
 21
12.9022034935453
 62
7
  0
LINE
  6
BYLAYER
  8
0
 10
113.64129322326
 11
120.781132917917
 20
12.9022034935453
 21
12.9022034935453
 62
7
  0
LINE
  6
BYLAYER
  8
0
 10
120.781132917917
 11
120.781132917917
 20
12.9022034935453
 21
12.9022034935453
 62
7
  0
LINE
  6
BYLAYER
  8
0
 10
113.264186353031
 11
113.264186353031
 20
6.7206233408736
 21
6.88058517293464
 62
7
  0
LINE
  6
BYLAYER
  8
0
 10
113.264186353031
 11
113.380316124024
 20
6.88058517293464
 21
7.35744776835452
 62
7
  0
LINE
  6
BYLAYER
  8
0
 10
113.380316124024
 11
113.686384826314
 20
7.35744776835452
 21
7.78518822636974
 62
7
  0
LINE
  6
BYLAYER
  8
0
 10
113.686384826314
 11
114.114377192726
 20
7.78518822636974
 21
8.02853173782012
 62
7
  0
LINE
  6
BYLAYER
  8
0
 10
114.114377192726
 11
114.476369559138
 20
8.02853173782012
 21
8.10360044011023
 62
7
  0
LINE
  6
BYLAYER
  8
0
 10
114.476369559138
 11
114.59829322326
 20
8.10360044011023
 21
8.10360044011023
 62
7
  0
LINE
  6
BYLAYER
  8
0
 10
114.59829322326
 11
114.830552765245
 20
8.10360044011023
 21
8.10360044011023
 62
7
  0
LINE
  6
BYLAYER
  8
0
 10
114.830552765245
 11
115.528842841581
 20
8.10360044011023
 21
7.74563860804915
 62
7
  0
LINE
  6
BYLAYER
  8
0
 10
115.528842841581
 11
116.020819940818
 20
7.74563860804915
 21
7.03349356988124
 62
7
  0
LINE
  6
BYLAYER
  8
0
 10
116.020819940818
 11
116.079514597306
 20
7.03349356988124
 21
6.85740960041559
 62
7
  0
LINE
  6
BYLAYER
  8
0
 10
116.079514597306
 11
116.035934444634
 20
6.85740960041559
 21
6.69467677598809
 62
7
  0
LINE
  6
BYLAYER
  8
0
 10
116.035934444634
 11
115.852797040054
 20
6.69467677598809
 21
6.21756227217134
 62
7
  0
LINE
  6
BYLAYER
  8
0
 10
115.852797040054
 11
115.538415360665
 20
6.21756227217134
 21
5.72558517293464
 62
7
  0
LINE
  6
BYLAYER
  8
0
 10
115.538415360665
 11
115.118735971352
 20
5.72558517293464
 21
5.41145540194231
 62
7
  0
LINE
  6
BYLAYER
  8
0
 10
115.118735971352
 11
114.711652001886
 20
5.41145540194231
 21
5.29910425690412
 62
7
  0
LINE
  6
BYLAYER
  8
0
 10
114.711652001886
 11
114.576125284329
 20
5.29910425690412
 21
5.29910425690412
 62
7
  0
LINE
  6
BYLAYER
  8
0
 10
114.576125284329
 11
114.45067490265
 20
5.29910425690412
 21
5.29910425690412
 62
7
  0
LINE
  6
BYLAYER
  8
0
 10
114.45067490265
 11
114.073316124024
 20
5.29910425690412
 21
5.39205845537739
 62
7
  0
LINE
  6
BYLAYER
  8
0
 10
114.073316124024
 11
113.654896276696
 20
5.39205845537739
 21
5.66537906606442
 62
7
  0
LINE
  6
BYLAYER
  8
0
 10
113.654896276696
 11
113.369484062955
 20
5.66537906606442
 21
6.11125692865983
 62
7
  0
LINE
  6
BYLAYER
  8
0
 10
113.369484062955
 11
113.264186353031
 20
6.11125692865983
 21
6.56872257751479
 62
7
  0
LINE
  6
BYLAYER
  8
0
 10
113.264186353031
 11
113.264186353031
 20
6.56872257751479
 21
6.7206233408736
 62
7
  0
LINE
  6
BYLAYER
  8
0
 10
113.264186353031
 11
113.264186353031
 20
6.7206233408736
 21
6.7206233408736
 62
7
  0
LINE
  6
BYLAYER
  8
0
 10
120.113827574405
 11
120.113827574405
 20
6.7097912798049
 21
6.53496685232398
 62
7
  0
LINE
  6
BYLAYER
  8
0
 10
120.113827574405
 11
119.986865742344
 20
6.53496685232398
 21
6.00873021110252
 62
7
  0
LINE
  6
BYLAYER
  8
0
 10
119.986865742344
 11
119.64653749807
 20
6.00873021110252
 21
5.48652410423233
 62
7
  0
LINE
  6
BYLAYER
  8
0
 10
119.64653749807
 11
119.149270322497
 20
5.48652410423233
 21
5.16785998209494
 62
7
  0
LINE
  6
BYLAYER
  8
0
 10
119.149270322497
 11
118.702132917917
 20
5.16785998209494
 21
5.06961570728581
 62
7
  0
LINE
  6
BYLAYER
  8
0
 10
118.702132917917
 11
118.556026047688
 20
5.06961570728581
 21
5.07515769201862
 62
7
  0
LINE
  6
BYLAYER
  8
0
 10
118.556026047688
 11
118.297819940818
 20
5.07515769201862
 21
5.07515769201862
 62
7
  0
LINE
  6
BYLAYER
  8
0
 10
118.297819940818
 11
117.526980246161
 20
5.07515769201862
 21
5.45226456224765
 62
7
  0
LINE
  6
BYLAYER
  8
0
 10
117.526980246161
 11
116.942048948451
 20
5.45226456224765
 21
6.3064859362934
 62
7
  0
LINE
  6
BYLAYER
  8
0
 10
116.942048948451
 11
116.872270322497
 20
6.3064859362934
 21
6.54579891339267
 62
7
  0
LINE
  6
BYLAYER
  8
0
 10
116.872270322497
 11
116.926934444634
 20
6.54579891339267
 21
6.73699738667511
 62
7
  0
LINE
  6
BYLAYER
  8
0
 10
116.926934444634
 11
117.144331391199
 20
6.73699738667511
 21
7.29346303553004
 62
7
  0
LINE
  6
BYLAYER
  8
0
 10
117.144331391199
 11
117.511865742344
 20
7.29346303553004
 21
7.85924929507206
 62
7
  0
LINE
  6
BYLAYER
  8
0
 10
117.511865742344
 11
118.005354291963
 20
7.85924929507206
 21
8.21847066911786
 62
7
  0
LINE
  6
BYLAYER
  8
0
 10
118.005354291963
 11
118.495819940818
 20
8.21847066911786
 21
8.3444248675911
 62
7
  0
LINE
  6
BYLAYER
  8
0
 10
118.495819940818
 11
118.65981230723
 20
8.3444248675911
 21
8.3444248675911
 62
7
  0
LINE
  6
BYLAYER
  8
0
 10
118.65981230723
 11
118.804659635474
 20
8.3444248675911
 21
8.3444248675911
 62
7
  0
LINE
  6
BYLAYER
  8
0
 10
118.804659635474
 11
119.241972612573
 20
8.3444248675911
 21
8.22779127980488
 62
7
  0
LINE
  6
BYLAYER
  8
0
 10
119.241972612573
 11
119.702964978986
 20
8.22779127980488
 21
7.89854700499569
 62
7
  0
LINE
  6
BYLAYER
  8
0
 10
119.702964978986
 11
120.004751238528
 20
7.89854700499569
 21
7.38339433323992
 62
7
  0
LINE
  6
BYLAYER
  8
0
 10
120.004751238528
 11
120.113827574405
 20
7.38339433323992
 21
6.87907372255299
 62
7
  0
LINE
  6
BYLAYER
  8
0
 10
120.113827574405
 11
120.113827574405
 20
6.87907372255299
 21
6.7097912798049
 62
7
  0
LINE
  6
BYLAYER
  8
0
 10
120.113827574405
 11
120.113827574405
 20
6.7097912798049
 21
6.7097912798049
 62
7
  0
LINE
  6
BYLAYER
  8
0
 10
120.917667269062
 11
120.917667269062
 20
6.68258517293467
 21
6.95565387522475
 62
7
  0
LINE
  6
BYLAYER
  8
0
 10
120.917667269062
 11
120.746873375932
 20
6.95565387522475
 21
7.7743561653011
 62
7
  0
LINE
  6
BYLAYER
  8
0
 10
120.746873375932
 11
120.264468795779
 20
7.7743561653011
 21
8.65578364621709
 62
7
  0
LINE
  6
BYLAYER
  8
0
 10
120.264468795779
 11
119.51529322326
 20
8.65578364621709
 21
9.24499738667504
 62
7
  0
LINE
  6
BYLAYER
  8
0
 10
119.51529322326
 11
118.786774139291
 20
9.24499738667504
 21
9.45937143247664
 62
7
  0
LINE
  6
BYLAYER
  8
0
 10
118.786774139291
 11
118.545193986619
 20
9.45937143247664
 21
9.45937143247664
 62
7
  0
LINE
  6
BYLAYER
  8
0
 10
118.545193986619
 11
118.371629101123
 20
9.45937143247664
 21
9.45937143247664
 62
7
  0
LINE
  6
BYLAYER
  8
0
 10
118.371629101123
 11
117.850934444634
 20
9.45937143247664
 21
9.34601265385064
 62
7
  0
LINE
  6
BYLAYER
  8
0
 10
117.850934444634
 11
117.266003146925
 20
9.34601265385064
 21
9.0177760126293
 62
7
  0
LINE
  6
BYLAYER
  8
0
 10
117.266003146925
 11
116.792919177459
 20
9.0177760126293
 21
8.50010425690411
 62
7
  0
LINE
  6
BYLAYER
  8
0
 10
116.792919177459
 11
116.504735971352
 20
8.50010425690411
 21
7.99301265385066
 62
7
  0
LINE
  6
BYLAYER
  8
0
 10
116.504735971352
 11
116.434957345398
 20
7.99301265385066
 21
7.81390578362169
 62
7
  0
LINE
  6
BYLAYER
  8
0
 10
116.434957345398
 11
116.396667269062
 20
7.81390578362169
 21
7.81390578362169
 62
7
  0
LINE
  6
BYLAYER
  8
0
 10
116.396667269062
 11
116.276506963718
 20
7.81390578362169
 21
8.06556227217132
 62
7
  0
LINE
  6
BYLAYER
  8
0
 10
116.276506963718
 11
115.519522230894
 20
8.06556227217132
 21
8.863608073698
 62
7
  0
LINE
  6
BYLAYER
  8
0
 10
115.519522230894
 11
114.741629101123
 20
8.863608073698
 21
9.15884471491941
 62
7
  0
LINE
  6
BYLAYER
  8
0
 10
114.741629101123
 11
114.483422994253
 20
9.15884471491941
 21
9.15884471491941
 62
7
  0
LINE
  6
BYLAYER
  8
0
 10
114.483422994253
 11
114.297262688909
 20
9.15884471491941
 21
9.15884471491941
 62
7
  0
LINE
  6
BYLAYER
  8
0
 10
114.297262688909
 11
113.740041314863
 20
9.15884471491941
 21
9.01122639430872
 62
7
  0
LINE
  6
BYLAYER
  8
0
 10
113.740041314863
 11
113.098934444634
 20
9.01122639430872
 21
8.56560044011025
 62
7
  0
LINE
  6
BYLAYER
  8
0
 10
113.098934444634
 11
112.646506963718
 20
8.56560044011025
 21
7.82347830270564
 62
7
  0
LINE
  6
BYLAYER
  8
0
 10
112.646506963718
 11
112.476972612573
 20
7.82347830270564
 21
7.04608898972853
 62
7
  0
LINE
  6
BYLAYER
  8
0
 10
112.476972612573
 11
112.476972612573
 20
7.04608898972853
 21
6.78611952407968
 62
7
  0
LINE
  6
BYLAYER
  8
0
 10
112.476972612573
 11
112.476972612573
 20
6.78611952407968
 21
6.5362263943087
 62
7
  0
LINE
  6
BYLAYER
  8
0
 10
112.476972612573
 11
112.633911543871
 20
6.5362263943087
 21
5.78579127980484
 62
7
  0
LINE
  6
BYLAYER
  8
0
 10
112.633911543871
 11
113.078277956085
 20
5.78579127980484
 21
4.98497448591178
 62
7
  0
LINE
  6
BYLAYER
  8
0
 10
113.078277956085
 11
113.762964978986
 20
4.98497448591178
 21
4.45319585995748
 62
7
  0
LINE
  6
BYLAYER
  8
0
 10
113.762964978986
 11
114.425987879749
 20
4.45319585995748
 21
4.2607378446904
 62
7
  0
LINE
  6
BYLAYER
  8
0
 10
114.425987879749
 11
114.647163452268
 20
4.2607378446904
 21
4.2607378446904
 62
7
  0
LINE
  6
BYLAYER
  8
0
 10
114.647163452268
 11
114.902850475169
 20
4.2607378446904
 21
4.2607378446904
 62
7
  0
LINE
  6
BYLAYER
  8
0
 10
114.902850475169
 11
115.669407727077
 20
4.2607378446904
 21
4.5683179973621
 62
7
  0
LINE
  6
BYLAYER
  8
0
 10
115.669407727077
 11
116.377522230894
 20
4.5683179973621
 21
5.32530273018654
 62
7
  0
LINE
  6
BYLAYER
  8
0
 10
116.377522230894
 11
116.484079482802
 20
5.32530273018654
 21
5.55076074545374
 62
7
  0
LINE
  6
BYLAYER
  8
0
 10
116.484079482802
 11
116.522369559138
 20
5.55076074545374
 21
5.56713479125523
 62
7
  0
LINE
  6
BYLAYER
  8
0
 10
116.522369559138
 11
116.628926811047
 20
5.56713479125523
 21
5.31547830270563
 62
7
  0
LINE
  6
BYLAYER
  8
0
 10
116.628926811047
 11
117.387422994253
 20
5.31547830270563
 21
4.37812715766748
 62
7
  0
LINE
  6
BYLAYER
  8
0
 10
117.387422994253
 11
118.378178719444
 20
4.37812715766748
 21
3.9433332645377
 62
7
  0
LINE
  6
BYLAYER
  8
0
 10
118.378178719444
 11
118.709186353031
 20
3.9433332645377
 21
3.9433332645377
 62
7
  0
LINE
  6
BYLAYER
  8
0
 10
118.709186353031
 11
118.920789406467
 20
3.9433332645377
 21
3.9433332645377
 62
7
  0
LINE
  6
BYLAYER
  8
0
 10
118.920789406467
 11
119.55660620036
 20
3.9433332645377
 21
4.13201265385069
 62
7
  0
LINE
  6
BYLAYER
  8
0
 10
119.55660620036
 11
120.260186353031
 20
4.13201265385069
 21
4.67311189049192
 62
7
  0
LINE
  6
BYLAYER
  8
0
 10
120.260186353031
 11
120.739819940818
 20
4.67311189049192
 21
5.53564624163693
 62
7
  0
LINE
  6
BYLAYER
  8
0
 10
120.739819940818
 11
120.917667269062
 20
5.53564624163693
 21
6.3966691424003
 62
7
  0
LINE
  6
BYLAYER
  8
0
 10
120.917667269062
 11
120.917667269062
 20
6.3966691424003
 21
6.68258517293467
 62
7
  0
LINE
  6
BYLAYER
  8
0
 10
120.917667269062
 11
120.917667269062
 20
6.68258517293467
 21
6.68258517293467
 62
7
  0
LINE
  6
BYLAYER
  8
0
 10
120.781132917917
 11
119.86267490265
 20
2.79689815003388
 21
2.79689815003388
 62
7
  0
LINE
  6
BYLAYER
  8
0
 10
119.86267490265
 11
119.86267490265
 20
2.79689815003388
 21
-0.871140017905049
 62
7
  0
LINE
  6
BYLAYER
  8
0
 10
119.86267490265
 11
119.840758872115
 20
-0.871140017905049
 21
-0.871140017905049
 62
7
  0
LINE
  6
BYLAYER
  8
0
 10
119.840758872115
 11
119.233911543871
 20
-0.871140017905049
 21
-0.215170552256183
 62
7
  0
LINE
  6
BYLAYER
  8
0
 10
119.233911543871
 11
118.946735971352
 20
-0.215170552256183
 21
0.0825851729346425
 62
7
  0
LINE
  6
BYLAYER
  8
0
 10
118.946735971352
 11
118.061277956085
 20
0.0825851729346425
 21
0.951921050797239
 62
7
  0
LINE
  6
BYLAYER
  8
0
 10
118.061277956085
 11
116.985629101123
 20
0.951921050797239
 21
1.8388905164461
 62
7
  0
LINE
  6
BYLAYER
  8
0
 10
116.985629101123
 11
115.937438261428
 20
1.8388905164461
 21
2.40316532560641
 62
7
  0
LINE
  6
BYLAYER
  8
0
 10
115.937438261428
 11
115.121506963718
 20
2.40316532560641
 21
2.60015769201863
 62
7
  0
LINE
  6
BYLAYER
  8
0
 10
115.121506963718
 11
114.849445895016
 20
2.60015769201863
 21
2.60015769201863
 62
7
  0
LINE
  6
BYLAYER
  8
0
 10
114.849445895016
 11
114.632048948451
 20
2.60015769201863
 21
2.60015769201863
 62
7
  0
LINE
  6
BYLAYER
  8
0
 10
114.632048948451
 11
113.984644368299
 20
2.60015769201863
 21
2.45631799736213
 62
7
  0
LINE
  6
BYLAYER
  8
0
 10
113.984644368299
 11
113.224636734711
 20
2.45631799736213
 21
2.00817295919418
 62
7
  0
LINE
  6
BYLAYER
  8
0
 10
113.224636734711
 11
112.682026047688
 20
2.00817295919418
 21
1.23053173782014
 62
7
  0
LINE
  6
BYLAYER
  8
0
 10
112.682026047688
 11
112.476972612573
 20
1.23053173782014
 21
0.380592806522429
 62
7
  0
LINE
  6
BYLAYER
  8
0
 10
112.476972612573
 11
112.476972612573
 20
0.380592806522429
 21
0.0961882263697476
 62
7
  0
LINE
  6
BYLAYER
  8
0
 10
112.476972612573
 11
112.476972612573
 20
0.0961882263697476
 21
-0.227514063706565
 62
7
  0
LINE
  6
BYLAYER
  8
0
 10
112.476972612573
 11
112.71074360494
 20
-0.227514063706565
 21
-1.19937665912639
 62
7
  0
LINE
  6
BYLAYER
  8
0
 10
112.71074360494
 11
113.183575666008
 20
-1.19937665912639
 21
-2.07400261332492
 62
7
  0
LINE
  6
BYLAYER
  8
0
 10
113.183575666008
 11
113.302728337764
 20
-2.07400261332492
 21
-2.21607894920277
 62
7
  0
LINE
  6
BYLAYER
  8
0
 10
113.302728337764
 11
114.084148185093
 20
-2.21607894920277
 21
-1.86063620111113
 62
7
  0
LINE
  6
BYLAYER
  8
0
 10
114.084148185093
 11
114.004797040054
 20
-1.86063620111113
 21
-1.76667436905009
 62
7
  0
LINE
  6
BYLAYER
  8
0
 10
114.004797040054
 11
113.618117650741
 20
-1.76667436905009
 21
-1.1311094835539
 62
7
  0
LINE
  6
BYLAYER
  8
0
 10
113.618117650741
 11
113.390140551505
 20
-1.1311094835539
 21
-0.37790337668369
 62
7
  0
LINE
  6
BYLAYER
  8
0
 10
113.390140551505
 11
113.390140551505
 20
-0.37790337668369
 21
-0.127758338515775
 62
7
  0
LINE
  6
BYLAYER
  8
0
 10
113.390140551505
 11
113.390140551505
 20
-0.127758338515775
 21
0.0646996767514452
 62
7
  0
LINE
  6
BYLAYER
  8
0
 10
113.390140551505
 11
113.522392459902
 20
0.0646996767514452
 21
0.640310363774347
 62
7
  0
LINE
  6
BYLAYER
  8
0
 10
113.522392459902
 11
113.877835207993
 20
0.640310363774347
 21
1.13908898972855
 62
7
  0
LINE
  6
BYLAYER
  8
0
 10
113.877835207993
 11
114.387697803413
 20
1.13908898972855
 21
1.40963860804916
 62
7
  0
LINE
  6
BYLAYER
  8
0
 10
114.387697803413
 11
114.835842841581
 20
1.40963860804916
 21
1.49050120346899
 62
7
  0
LINE
  6
BYLAYER
  8
0
 10
114.835842841581
 11
114.986232154558
 20
1.49050120346899
 21
1.49050120346899
 62
7
  0
LINE
  6
BYLAYER
  8
0
 10
114.986232154558
 11
115.213201620207
 20
1.49050120346899
 21
1.48898975308734
 62
7
  0
LINE
  6
BYLAYER
  8
0
 10
115.213201620207
 11
115.895117650741
 20
1.48898975308734
 21
1.30434089812542
 62
7
  0
LINE
  6
BYLAYER
  8
0
 10
115.895117650741
 11
116.84229322326
 20
1.30434089812542
 21
0.749386699652206
 62
7
  0
LINE
  6
BYLAYER
  8
0
 10
116.84229322326
 11
117.928522230894
 20
0.749386699652206
 21
-0.195017880500473
 62
7
  0
LINE
  6
BYLAYER
  8
0
 10
117.928522230894
 11
118.933132917917
 20
-0.195017880500473
 21
-1.2046667354623
 62
7
  0
LINE
  6
BYLAYER
  8
0
 10
118.933132917917
 11
119.261369559138
 20
-1.2046667354623
 21
-1.5492774224852
 62
7
  0
LINE
  6
BYLAYER
  8
0
 10
119.261369559138
 11
120.102995513337
 20
-1.5492774224852
 21
-2.41836139195084
 62
7
  0
LINE
  6
BYLAYER
  8
0
 10
120.102995513337
 11
120.781132917917
 20
-2.41836139195084
 21
-2.41836139195084
 62
7
  0
LINE
  6
BYLAYER
  8
0
 10
120.781132917917
 11
120.781132917917
 20
-2.41836139195084
 21
2.79689815003388
 62
7
  0
LINE
  6
BYLAYER
  8
0
 10
120.781132917917
 11
120.781132917917
 20
2.79689815003388
 21
2.79689815003388
 62
7
  0
LINE
  6
BYLAYER
  8
0
 10
293.249461162192
 11
293.486255055321
 20
147.367882882858
 21
147.297348531713
 62
7
  0
LINE
  6
BYLAYER
  8
0
 10
293.486255055321
 11
295.879384826314
 20
147.297348531713
 21
146.584447768355
 62
7
  0
LINE
  6
BYLAYER
  8
0
 10
295.879384826314
 11
296.121216887383
 20
146.584447768355
 21
146.513913417209
 62
7
  0
LINE
  6
BYLAYER
  8
0
 10
296.121216887383
 11
295.879384826314
 20
146.513913417209
 21
146.443379066064
 62
7
  0
LINE
  6
BYLAYER
  8
0
 10
295.879384826314
 11
293.486255055321
 20
146.443379066064
 21
145.722921050797
 62
7
  0
LINE
  6
BYLAYER
  8
0
 10
293.486255055321
 11
293.249461162192
 20
145.722921050797
 21
145.652386699652
 62
7
  0
LINE
  6
BYLAYER
  8
0
 10
293.249461162192
 11
293.249461162192
 20
145.652386699652
 21
147.367882882858
 62
7
  0
LINE
  6
BYLAYER
  8
0
 10
300.239919177459
 11
300.00060620036
 20
147.279714943927
 21
147.21673784469
 62
7
  0
LINE
  6
BYLAYER
  8
0
 10
300.00060620036
 11
297.607476429367
 20
147.21673784469
 21
146.576890516446
 62
7
  0
LINE
  6
BYLAYER
  8
0
 10
297.607476429367
 11
297.370682536238
 20
146.576890516446
 21
146.513913417209
 62
7
  0
LINE
  6
BYLAYER
  8
0
 10
297.370682536238
 11
297.607476429367
 20
146.513913417209
 21
146.445898150034
 62
7
  0
LINE
  6
BYLAYER
  8
0
 10
297.607476429367
 11
300.00060620036
 20
146.445898150034
 21
145.80605082179
 62
7
  0
LINE
  6
BYLAYER
  8
0
 10
300.00060620036
 11
300.239919177459
 20
145.80605082179
 21
145.740554638584
 62
7
  0
LINE
  6
BYLAYER
  8
0
 10
300.239919177459
 11
300.239919177459
 20
145.740554638584
 21
147.279714943927
 62
7
  0
LINE
  6
BYLAYER
  8
0
 10
266.867094749978
 11
266.867094749978
 20
-157.170223987371
 21
-155.632575132409
 62
7
  0
LINE
  6
BYLAYER
  8
0
 10
269.741369559138
 11
266.867094749978
 20
-156.399384292714
 21
-157.170223987371
 62
7
  0
LINE
  6
BYLAYER
  8
0
 10
266.867094749978
 11
269.741369559138
 20
-155.632575132409
 21
-156.398124750729
 62
7
  0
LINE
  6
BYLAYER
  8
0
 10
266.867094749978
 11
267.108926811047
 20
-155.632575132409
 21
-155.695552231646
 62
7
  0
LINE
  6
BYLAYER
  8
0
 10
267.108926811047
 11
269.49953749807
 20
-155.695552231646
 21
-156.333636201111
 62
7
  0
LINE
  6
BYLAYER
  8
0
 10
269.49953749807
 11
269.741369559138
 20
-156.333636201111
 21
-156.398124750729
 62
7
  0
LINE
  6
BYLAYER
  8
0
 10
269.741369559138
 11
269.49953749807
 20
-156.398124750729
 21
-156.462109483554
 62
7
  0
LINE
  6
BYLAYER
  8
0
 10
269.49953749807
 11
267.108926811047
 20
-156.462109483554
 21
-157.105987346149
 62
7
  0
LINE
  6
BYLAYER
  8
0
 10
267.108926811047
 11
266.867094749978
 20
-157.105987346149
 21
-157.170223987371
 62
7
  0
LINE
  6
BYLAYER
  8
0
 10
266.867094749978
 11
266.867094749978
 20
-157.170223987371
 21
-155.632575132409
 62
7
  0
LINE
  6
BYLAYER
  8
0
 10
147.655476429367
 11
147.655476429367
 20
-157.172994979737
 21
-155.635346124775
 62
7
  0
LINE
  6
BYLAYER
  8
0
 10
144.785484062955
 11
147.655476429367
 20
-156.401903376684
 21
-157.172994979737
 62
7
  0
LINE
  6
BYLAYER
  8
0
 10
147.655476429367
 11
144.785484062955
 20
-155.635346124775
 21
-156.400895743096
 62
7
  0
LINE
  6
BYLAYER
  8
0
 10
144.546171085856
 11
269.726255055321
 20
-156.401903376684
 21
-156.401903376684
 62
7
  0
LINE
  6
BYLAYER
  8
0
 10
147.655476429367
 11
147.416163452268
 20
-155.635346124775
 21
-155.698323224012
 62
7
  0
LINE
  6
BYLAYER
  8
0
 10
147.416163452268
 11
145.024797040054
 20
-155.698323224012
 21
-156.336407193478
 62
7
  0
LINE
  6
BYLAYER
  8
0
 10
145.024797040054
 11
144.785484062955
 20
-156.336407193478
 21
-156.400895743096
 62
7
  0
LINE
  6
BYLAYER
  8
0
 10
144.785484062955
 11
145.024797040054
 20
-156.400895743096
 21
-156.46488047592
 62
7
  0
LINE
  6
BYLAYER
  8
0
 10
145.024797040054
 11
147.416163452268
 20
-156.46488047592
 21
-157.108758338516
 62
7
  0
LINE
  6
BYLAYER
  8
0
 10
147.416163452268
 11
147.655476429367
 20
-157.108758338516
 21
-157.172994979737
 62
7
  0
LINE
  6
BYLAYER
  8
0
 10
147.655476429367
 11
147.655476429367
 20
-157.172994979737
 21
-155.635346124775
 62
7
  0
LINE
  6
BYLAYER
  8
0
 10
297.300148185093
 11
297.300148185093
 20
169.016890516446
 21
145.317348531713
 62
7
  0
LINE
  6
BYLAYER
  8
0
 10
269.726255055321
 11
269.726255055321
 20
-134.957445361416
 21
-157.346559865233
 62
7
  0
LINE
  6
BYLAYER
  8
0
 10
144.546171085856
 11
144.546171085856
 20
-135.949460628592
 21
-157.350338491188
 62
7
  0
LINE
  6
BYLAYER
  8
0
 10
124.357476429367
 11
122.820079482802
 20
-132.48219345302
 21
-132.48219345302
 62
7
  0
LINE
  6
BYLAYER
  8
0
 10
123.590919177459
 11
124.357476429367
 20
-135.357727804165
 21
-132.480682002638
 62
7
  0
LINE
  6
BYLAYER
  8
0
 10
122.820079482802
 11
123.590919177459
 20
-132.48219345302
 21
-135.357727804165
 62
7
  0
LINE
  6
BYLAYER
  8
0
 10
122.820079482802
 11
122.884316124024
 20
-132.48219345302
 21
-132.721506430119
 62
7
  0
LINE
  6
BYLAYER
  8
0
 10
122.884316124024
 11
123.526682536238
 20
-132.721506430119
 21
-135.117407193478
 62
7
  0
LINE
  6
BYLAYER
  8
0
 10
123.526682536238
 11
123.590919177459
 20
-135.117407193478
 21
-135.357727804165
 62
7
  0
LINE
  6
BYLAYER
  8
0
 10
123.590919177459
 11
123.653896276695
 20
-135.357727804165
 21
-135.117407193478
 62
7
  0
LINE
  6
BYLAYER
  8
0
 10
123.653896276695
 11
124.293491696543
 20
-135.117407193478
 21
-132.721506430119
 62
7
  0
LINE
  6
BYLAYER
  8
0
 10
124.293491696543
 11
124.357476429367
 20
-132.721506430119
 21
-132.48219345302
 62
7
  0
LINE
  6
BYLAYER
  8
0
 10
124.357476429367
 11
122.820079482802
 20
-132.48219345302
 21
-132.48219345302
 62
7
  0
LINE
  6
BYLAYER
  8
0
 10
123.588148185092
 11
123.588148185092
 20
-134.944849941569
 21
142.501012653851
 62
7
  0
LINE
  6
BYLAYER
  8
0
 10
144.475132917917
 11
122.224316124024
 20
143.430554638584
 21
143.430554638584
 62
7
  0
LINE
  6
BYLAYER
  8
0
 10
145.485285589673
 11
121.311148185092
 20
-135.170559865233
 21
-135.170559865233
 62
7
  0
LINE
  6
BYLAYER
  8
0
 10
89.5560794828024
 11
85.6477207041764
 20
-145.879941544623
 21
-145.879941544623
 62
7
  0
LINE
  6
BYLAYER
  8
0
 10
85.6477207041764
 11
85.1227436049398
 20
-145.879941544623
 21
-149.799384292714
 62
7
  0
LINE
  6
BYLAYER
  8
0
 10
85.1227436049398
 11
85.1978123072299
 20
-149.799384292714
 21
-149.790063682027
 62
7
  0
LINE
  6
BYLAYER
  8
0
 10
85.1978123072299
 11
85.989056582039
 20
-149.790063682027
 21
-149.711972078974
 62
7
  0
LINE
  6
BYLAYER
  8
0
 10
85.989056582039
 11
86.2543161240237
 20
-149.711972078974
 21
-149.711972078974
 62
7
  0
LINE
  6
BYLAYER
  8
0
 10
86.2543161240237
 11
86.5168046736421
 20
-149.711972078974
 21
-149.711972078974
 62
7
  0
LINE
  6
BYLAYER
  8
0
 10
86.5168046736421
 11
87.3080489484512
 20
-149.711972078974
 21
-149.845987346149
 62
7
  0
LINE
  6
BYLAYER
  8
0
 10
87.3080489484512
 11
88.0365680324207
 20
-149.845987346149
 21
-150.220827040806
 62
7
  0
LINE
  6
BYLAYER
  8
0
 10
88.0365680324207
 11
88.4602779560848
 20
-150.220827040806
 21
-150.793162918668
 62
7
  0
LINE
  6
BYLAYER
  8
0
 10
88.4602779560848
 11
88.6023542919627
 20
-150.793162918668
 21
-151.338544598058
 62
7
  0
LINE
  6
BYLAYER
  8
0
 10
88.6023542919627
 11
88.6051252843291
 20
-151.338544598058
 21
-151.521682002638
 62
7
  0
LINE
  6
BYLAYER
  8
0
 10
88.6051252843291
 11
88.6051252843291
 20
-151.521682002638
 21
-151.7063308576
 62
7
  0
LINE
  6
BYLAYER
  8
0
 10
88.6051252843291
 11
88.4479344446344
 20
-151.7063308576
 21
-152.259773605691
 62
7
  0
LINE
  6
BYLAYER
  8
0
 10
88.4479344446344
 11
88.0267436049398
 20
-152.259773605691
 21
-152.817246888134
 62
7
  0
LINE
  6
BYLAYER
  8
0
 10
88.0267436049398
 11
87.4093161240237
 20
-152.817246888134
 21
-153.169918643859
 62
7
  0
LINE
  6
BYLAYER
  8
0
 10
87.4093161240237
 11
86.8543619255505
 20
-153.169918643859
 21
-153.292849941569
 62
7
  0
LINE
  6
BYLAYER
  8
0
 10
86.8543619255505
 11
86.6697130705886
 20
-153.292849941569
 21
-153.292849941569
 62
7
  0
LINE
  6
BYLAYER
  8
0
 10
86.6697130705886
 11
86.4127665057032
 20
-153.292849941569
 21
-153.292849941569
 62
7
  0
LINE
  6
BYLAYER
  8
0
 10
86.4127665057032
 11
85.6434382614284
 20
-153.292849941569
 21
-153.141201086607
 62
7
  0
LINE
  6
BYLAYER
  8
0
 10
85.6434382614284
 11
85.0053542919627
 20
-153.141201086607
 21
-152.889544598058
 62
7
  0
LINE
  6
BYLAYER
  8
0
 10
85.0053542919627
 11
84.9202092537948
 20
-152.889544598058
 21
-152.839162918668
 62
7
  0
LINE
  6
BYLAYER
  8
0
 10
84.9202092537948
 11
84.6468886431078
 20
-152.839162918668
 21
-153.681040781264
 62
7
  0
LINE
  6
BYLAYER
  8
0
 10
84.6468886431078
 11
84.7441252843291
 20
-153.681040781264
 21
-153.7440178805
 62
7
  0
LINE
  6
BYLAYER
  8
0
 10
84.7441252843291
 11
85.475163452268
 20
-153.7440178805
 21
-154.026659101875
 62
7
  0
LINE
  6
BYLAYER
  8
0
 10
85.475163452268
 11
86.3785069637185
 20
-154.026659101875
 21
-154.184101849966
 62
7
  0
LINE
  6
BYLAYER
  8
0
 10
86.3785069637185
 11
86.6807970400543
 20
-154.184101849966
 21
-154.184101849966
 62
7
  0
LINE
  6
BYLAYER
  8
0
 10
86.6807970400543
 11
86.9856062003597
 20
-154.184101849966
 21
-154.184101849966
 62
7
  0
LINE
  6
BYLAYER
  8
0
 10
86.9856062003597
 11
87.9025527652451
 20
-154.184101849966
 21
-153.971994979737
 62
7
  0
LINE
  6
BYLAYER
  8
0
 10
87.9025527652451
 11
88.864590933184
 20
-153.971994979737
 21
-153.388575132409
 62
7
  0
LINE
  6
BYLAYER
  8
0
 10
88.864590933184
 11
89.4933542919627
 20
-153.388575132409
 21
-152.504376659126
 62
7
  0
LINE
  6
BYLAYER
  8
0
 10
89.4933542919627
 11
89.7200718492146
 20
-152.504376659126
 21
-151.672071315615
 62
7
  0
LINE
  6
BYLAYER
  8
0
 10
89.7200718492146
 11
89.7200718492146
 20
-151.672071315615
 21
-151.395979712562
 62
7
  0
LINE
  6
BYLAYER
  8
0
 10
89.7200718492146
 11
89.7200718492146
 20
-151.395979712562
 21
-151.070514063707
 62
7
  0
LINE
  6
BYLAYER
  8
0
 10
89.7200718492146
 11
89.3772245209703
 20
-151.070514063707
 21
-150.097643834699
 62
7
  0
LINE
  6
BYLAYER
  8
0
 10
89.3772245209703
 11
88.7114306278406
 20
-150.097643834699
 21
-149.388521697294
 62
7
  0
LINE
  6
BYLAYER
  8
0
 10
88.7114306278406
 11
88.5502092537948
 20
-149.388521697294
 21
-149.296827040806
 62
7
  0
LINE
  6
BYLAYER
  8
0
 10
88.5502092537948
 11
88.4245069637184
 20
-149.296827040806
 21
-149.221506430119
 62
7
  0
LINE
  6
BYLAYER
  8
0
 10
88.4245069637184
 11
87.719163452268
 20
-149.221506430119
 21
-148.96481177363
 62
7
  0
LINE
  6
BYLAYER
  8
0
 10
87.719163452268
 11
87.026415360665
 20
-148.96481177363
 21
-148.85926215531
 62
7
  0
LINE
  6
BYLAYER
  8
0
 10
87.026415360665
 11
86.7956672690619
 20
-148.85926215531
 21
-148.85926215531
 62
7
  0
LINE
  6
BYLAYER
  8
0
 10
86.7956672690619
 11
86.6286520018864
 20
-148.85926215531
 21
-148.85926215531
 62
7
  0
LINE
  6
BYLAYER
  8
0
 10
86.6286520018864
 11
86.1749649789856
 20
-148.85926215531
 21
-148.901834674394
 62
7
  0
LINE
  6
BYLAYER
  8
0
 10
86.1749649789856
 11
86.1286138339474
 20
-148.901834674394
 21
-148.908636201111
 62
7
  0
LINE
  6
BYLAYER
  8
0
 10
86.1286138339474
 11
86.4399726125734
 20
-148.908636201111
 21
-146.809483529355
 62
7
  0
LINE
  6
BYLAYER
  8
0
 10
86.4399726125734
 11
89.5560794828024
 20
-146.809483529355
 21
-146.809483529355
 62
7
  0
LINE
  6
BYLAYER
  8
0
 10
89.5560794828024
 11
89.5560794828024
 20
-146.809483529355
 21
-145.879941544623
 62
7
  0
LINE
  6
BYLAYER
  8
0
 10
89.5560794828024
 11
89.5560794828024
 20
-145.879941544623
 21
-145.879941544623
 62
7
  0
LINE
  6
BYLAYER
  8
0
 10
83.4347054370008
 11
83.4347054370008
 20
-154.047315590424
 21
-153.128857575157
 62
7
  0
LINE
  6
BYLAYER
  8
0
 10
83.4347054370008
 11
79.7666672690619
 20
-153.128857575157
 21
-153.128857575157
 62
7
  0
LINE
  6
BYLAYER
  8
0
 10
79.7666672690619
 11
79.7666672690619
 20
-153.128857575157
 21
-153.10719345302
 62
7
  0
LINE
  6
BYLAYER
  8
0
 10
79.7666672690619
 11
80.4226367347108
 20
-153.10719345302
 21
-152.500094216378
 62
7
  0
LINE
  6
BYLAYER
  8
0
 10
80.4226367347108
 11
80.7193848263138
 20
-152.500094216378
 21
-152.213170552256
 62
7
  0
LINE
  6
BYLAYER
  8
0
 10
80.7193848263138
 11
81.5884687957795
 20
-152.213170552256
 21
-151.327712536989
 62
7
  0
LINE
  6
BYLAYER
  8
0
 10
81.5884687957795
 11
82.4754382614283
 20
-151.327712536989
 21
-150.25181177363
 62
7
  0
LINE
  6
BYLAYER
  8
0
 10
82.4754382614283
 11
83.0397130705886
 20
-150.25181177363
 21
-149.203620933936
 62
7
  0
LINE
  6
BYLAYER
  8
0
 10
83.0397130705886
 11
83.2379649789856
 20
-149.203620933936
 21
-148.387689636226
 62
7
  0
LINE
  6
BYLAYER
  8
0
 10
83.2379649789856
 11
83.2379649789856
 20
-148.387689636226
 21
-148.11588047592
 62
7
  0
LINE
  6
BYLAYER
  8
0
 10
83.2379649789856
 11
83.2379649789856
 20
-148.11588047592
 21
-147.898735437752
 62
7
  0
LINE
  6
BYLAYER
  8
0
 10
83.2379649789856
 11
83.0931176507413
 20
-147.898735437752
 21
-147.250575132409
 62
7
  0
LINE
  6
BYLAYER
  8
0
 10
83.0931176507413
 11
82.6459802461612
 20
-147.250575132409
 21
-146.490819407218
 62
7
  0
LINE
  6
BYLAYER
  8
0
 10
82.6459802461612
 11
81.8673313911993
 20
-146.490819407218
 21
-145.948460628592
 62
7
  0
LINE
  6
BYLAYER
  8
0
 10
81.8673313911993
 11
81.0171405515047
 20
-145.948460628592
 21
-145.743407193478
 62
7
  0
LINE
  6
BYLAYER
  8
0
 10
81.0171405515047
 11
80.7342474217337
 20
-145.743407193478
 21
-145.743407193478
 62
7
  0
LINE
  6
BYLAYER
  8
0
 10
80.7342474217337
 11
80.4102932232604
 20
-145.743407193478
 21
-145.743407193478
 62
7
  0
LINE
  6
BYLAYER
  8
0
 10
80.4102932232604
 11
79.4386825362375
 20
-145.743407193478
 21
-145.977178185844
 62
7
  0
LINE
  6
BYLAYER
  8
0
 10
79.4386825362375
 11
78.564056582039
 20
-145.977178185844
 21
-146.449758338516
 62
7
  0
LINE
  6
BYLAYER
  8
0
 10
78.564056582039
 11
78.4217283377642
 20
-146.449758338516
 21
-146.568659101875
 62
7
  0
LINE
  6
BYLAYER
  8
0
 10
78.4217283377642
 11
78.7771710858559
 20
-146.568659101875
 21
-147.3503308576
 62
7
  0
LINE
  6
BYLAYER
  8
0
 10
78.7771710858559
 11
78.8713848263138
 20
-147.3503308576
 21
-147.271231620958
 62
7
  0
LINE
  6
BYLAYER
  8
0
 10
78.8713848263138
 11
79.5056901698253
 20
-147.271231620958
 21
-146.884300323249
 62
7
  0
LINE
  6
BYLAYER
  8
0
 10
79.5056901698253
 11
80.2586443682986
 20
-146.884300323249
 21
-146.656323224012
 62
7
  0
LINE
  6
BYLAYER
  8
0
 10
80.2586443682986
 11
80.5100489484512
 20
-146.656323224012
 21
-146.656323224012
 62
7
  0
LINE
  6
BYLAYER
  8
0
 10
80.5100489484512
 11
80.7014993301306
 20
-146.656323224012
 21
-146.656323224012
 62
7
  0
LINE
  6
BYLAYER
  8
0
 10
80.7014993301306
 11
81.2766062003597
 20
-146.656323224012
 21
-146.788827040806
 62
7
  0
LINE
  6
BYLAYER
  8
0
 10
81.2766062003597
 11
81.7756367347108
 20
-146.788827040806
 21
-147.144269788897
 62
7
  0
LINE
  6
BYLAYER
  8
0
 10
81.7756367347108
 11
82.0464382614284
 20
-147.144269788897
 21
-147.654132384317
 62
7
  0
LINE
  6
BYLAYER
  8
0
 10
82.0464382614284
 11
82.128308490436
 20
-147.654132384317
 21
-148.102277422485
 62
7
  0
LINE
  6
BYLAYER
  8
0
 10
82.128308490436
 11
82.128308490436
 20
-148.102277422485
 21
-148.252666735462
 62
7
  0
LINE
  6
BYLAYER
  8
0
 10
82.128308490436
 11
82.1255374980695
 20
-148.252666735462
 21
-148.479384292714
 62
7
  0
LINE
  6
BYLAYER
  8
0
 10
82.1255374980695
 11
81.9424000934894
 20
-148.479384292714
 21
-149.161300323249
 62
7
  0
LINE
  6
BYLAYER
  8
0
 10
81.9424000934894
 11
81.3874458950161
 20
-149.161300323249
 21
-150.108475895768
 62
7
  0
LINE
  6
BYLAYER
  8
0
 10
81.3874458950161
 11
80.4432932232604
 20
-150.108475895768
 21
-151.195208720195
 62
7
  0
LINE
  6
BYLAYER
  8
0
 10
80.4432932232604
 11
79.4318810095199
 20
-151.195208720195
 21
-152.199567498821
 62
7
  0
LINE
  6
BYLAYER
  8
0
 10
79.4318810095199
 11
79.0887817728787
 20
-152.199567498821
 21
-152.527552231646
 62
7
  0
LINE
  6
BYLAYER
  8
0
 10
79.0887817728787
 11
78.2194458950162
 20
-152.527552231646
 21
-153.369682002638
 62
7
  0
LINE
  6
BYLAYER
  8
0
 10
78.2194458950162
 11
78.2194458950162
 20
-153.369682002638
 21
-154.047315590424
 62
7
  0
LINE
  6
BYLAYER
  8
0
 10
78.2194458950162
 11
83.4347054370008
 20
-154.047315590424
 21
-154.047315590424
 62
7
  0
LINE
  6
BYLAYER
  8
0
 10
83.4347054370008
 11
83.4347054370008
 20
-154.047315590424
 21
-154.047315590424
 62
7
  0
LINE
  6
BYLAYER
  8
0
 10
92.7787436049398
 11
92.7787436049398
 20
-157.006231620958
 21
-155.467323224012
 62
7
  0
LINE
  6
BYLAYER
  8
0
 10
95.648987879749
 11
92.7787436049398
 20
-156.23388047592
 21
-157.004720170577
 62
7
  0
LINE
  6
BYLAYER
  8
0
 10
92.7787436049398
 11
95.648987879749
 20
-155.468834674394
 21
-156.23388047592
 62
7
  0
LINE
  6
BYLAYER
  8
0
 10
92.7787436049398
 11
93.018056582039
 20
-155.468834674394
 21
-155.531559865233
 62
7
  0
LINE
  6
BYLAYER
  8
0
 10
93.018056582039
 11
95.4096749026497
 20
-155.531559865233
 21
-156.169643834699
 62
7
  0
LINE
  6
BYLAYER
  8
0
 10
95.4096749026497
 11
95.648987879749
 20
-156.169643834699
 21
-156.23388047592
 62
7
  0
LINE
  6
BYLAYER
  8
0
 10
95.648987879749
 11
95.4096749026497
 20
-156.23388047592
 21
-156.298369025539
 62
7
  0
LINE
  6
BYLAYER
  8
0
 10
95.4096749026497
 11
93.018056582039
 20
-156.298369025539
 21
-156.940735437752
 62
7
  0
LINE
  6
BYLAYER
  8
0
 10
93.018056582039
 11
92.7787436049398
 20
-156.940735437752
 21
-157.006231620958
 62
7
  0
LINE
  6
BYLAYER
  8
0
 10
92.7787436049398
 11
92.7787436049398
 20
-157.006231620958
 21
-155.468834674394
 62
7
  0
LINE
  6
BYLAYER
  8
0
 10
73.421094749978
 11
73.421094749978
 20
-157.011773605691
 21
-155.472613300348
 62
7
  0
LINE
  6
BYLAYER
  8
0
 10
70.5508504751688
 11
73.421094749978
 20
-156.23967436905
 21
-157.01026215531
 62
7
  0
LINE
  6
BYLAYER
  8
0
 10
73.421094749978
 11
70.5508504751688
 20
-155.474124750729
 21
-156.23967436905
 62
7
  0
LINE
  6
BYLAYER
  8
0
 10
70.3105298644818
 11
95.2348504751688
 20
-156.240933911035
 21
-156.240933911035
 62
7
  0
LINE
  6
BYLAYER
  8
0
 10
73.421094749978
 11
73.1820336812756
 20
-155.474124750729
 21
-155.537101849966
 62
7
  0
LINE
  6
BYLAYER
  8
0
 10
73.1820336812756
 11
70.7889039102833
 20
-155.537101849966
 21
-156.175185819432
 62
7
  0
LINE
  6
BYLAYER
  8
0
 10
70.7889039102833
 11
70.5508504751688
 20
-156.175185819432
 21
-156.23967436905
 62
7
  0
LINE
  6
BYLAYER
  8
0
 10
70.5508504751688
 11
70.7889039102833
 20
-156.23967436905
 21
-156.303659101875
 62
7
  0
LINE
  6
BYLAYER
  8
0
 10
70.7889039102833
 11
73.1820336812756
 20
-156.303659101875
 21
-156.946025514088
 62
7
  0
LINE
  6
BYLAYER
  8
0
 10
73.1820336812756
 11
73.421094749978
 20
-156.946025514088
 21
-157.011773605691
 62
7
  0
LINE
  6
BYLAYER
  8
0
 10
73.421094749978
 11
73.421094749978
 20
-157.011773605691
 21
-155.474124750729
 62
7
  0
LINE
  6
BYLAYER
  8
0
 10
95.2348504751688
 11
95.2348504751688
 20
-121.861735437752
 21
-157.639025514088
 62
7
  0
LINE
  6
BYLAYER
  8
0
 10
70.3105298644818
 11
70.3105298644818
 20
-119.862338491188
 21
-157.189117117142
 62
7
  0
LINE
  6
BYLAYER
  8
0
 10
6.45603368127566
 11
6.64320162020698
 20
-146.862636201111
 21
-146.862636201111
 62
7
  0
LINE
  6
BYLAYER
  8
0
 10
6.64320162020698
 11
7.20621688738257
 20
-146.862636201111
 21
-147.049804140042
 62
7
  0
LINE
  6
BYLAYER
  8
0
 10
7.20621688738257
 11
7.72716345226803
 20
-147.049804140042
 21
-147.568987346149
 62
7
  0
LINE
  6
BYLAYER
  8
0
 10
7.72716345226803
 11
8.03046116219168
 20
-147.568987346149
 21
-148.349651468287
 62
7
  0
LINE
  6
BYLAYER
  8
0
 10
8.03046116219168
 11
8.12870543700085
 20
-148.349651468287
 21
-149.079430094241
 62
7
  0
LINE
  6
BYLAYER
  8
0
 10
8.12870543700085
 11
8.12870543700085
 20
-149.079430094241
 21
-149.322521697294
 62
7
  0
LINE
  6
BYLAYER
  8
0
 10
8.12870543700085
 11
8.12870543700085
 20
-149.322521697294
 21
-149.423788872867
 62
7
  0
LINE
  6
BYLAYER
  8
0
 10
8.12870543700085
 11
8.04557566600852
 20
-149.423788872867
 21
-149.701140017905
 62
7
  0
LINE
  6
BYLAYER
  8
0
 10
8.04557566600852
 11
8.03046116219168
 20
-149.701140017905
 21
-149.727086582791
 62
7
  0
LINE
  6
BYLAYER
  8
0
 10
8.03046116219168
 11
7.95791154387112
 20
-149.727086582791
 21
-149.848758338516
 62
7
  0
LINE
  6
BYLAYER
  8
0
 10
7.95791154387112
 11
7.39464436829857
 20
-149.848758338516
 21
-150.335445361417
 62
7
  0
LINE
  6
BYLAYER
  8
0
 10
7.39464436829857
 11
6.66511765074131
 20
-150.335445361417
 21
-150.580048414852
 62
7
  0
LINE
  6
BYLAYER
  8
0
 10
6.66511765074131
 11
6.42303368127565
 20
-150.580048414852
 21
-150.580048414852
 62
7
  0
LINE
  6
BYLAYER
  8
0
 10
6.42303368127565
 11
6.26055276524511
 20
-150.580048414852
 21
-150.580048414852
 62
7
  0
LINE
  6
BYLAYER
  8
0
 10
6.26055276524511
 11
5.77260620035966
 20
-150.580048414852
 21
-150.451575132409
 62
7
  0
LINE
  6
BYLAYER
  8
0
 10
5.77260620035966
 11
5.27659856677188
 20
-150.451575132409
 21
-150.094872842333
 62
7
  0
LINE
  6
BYLAYER
  8
0
 10
5.27659856677188
 11
4.95969780341306
 20
-150.094872842333
 21
-149.546972078974
 62
7
  0
LINE
  6
BYLAYER
  8
0
 10
4.95969780341306
 11
4.84860620035965
 20
-149.546972078974
 21
-149.021994979737
 62
7
  0
LINE
  6
BYLAYER
  8
0
 10
4.84860620035965
 11
4.84860620035965
 20
-149.021994979737
 21
-148.847170552256
 62
7
  0
LINE
  6
BYLAYER
  8
0
 10
4.84860620035965
 11
4.84860620035965
 20
-148.847170552256
 21
-148.64639955989
 62
7
  0
LINE
  6
BYLAYER
  8
0
 10
4.84860620035965
 11
4.96775887211535
 20
-148.64639955989
 21
-148.047613300348
 62
7
  0
LINE
  6
BYLAYER
  8
0
 10
4.96775887211535
 11
5.29977413929096
 20
-148.047613300348
 21
-147.420361391951
 62
7
  0
LINE
  6
BYLAYER
  8
0
 10
5.29977413929096
 11
5.80812528432909
 20
-147.420361391951
 21
-147.008994979737
 62
7
  0
LINE
  6
BYLAYER
  8
0
 10
5.80812528432909
 11
6.29330085684821
 20
-147.008994979737
 21
-146.862636201111
 62
7
  0
LINE
  6
BYLAYER
  8
0
 10
6.29330085684821
 11
6.45603368127566
 20
-146.862636201111
 21
-146.862636201111
 62
7
  0
LINE
  6
BYLAYER
  8
0
 10
6.45603368127566
 11
6.45603368127566
 20
-146.862636201111
 21
-146.862636201111
 62
7
  0
LINE
  6
BYLAYER
  8
0
 10
4.44958329959627
 11
4.51533139119935
 20
-154.450369025539
 21
-154.453140017905
 62
7
  0
LINE
  6
BYLAYER
  8
0
 10
4.51533139119935
 11
5.36552223089399
 20
-154.453140017905
 21
-154.401246888134
 62
7
  0
LINE
  6
BYLAYER
  8
0
 10
5.36552223089399
 11
5.46653749806956
 20
-154.401246888134
 21
-154.384872842333
 62
7
  0
LINE
  6
BYLAYER
  8
0
 10
5.46653749806956
 11
5.68670543700088
 20
-154.384872842333
 21
-154.360437727829
 62
7
  0
LINE
  6
BYLAYER
  8
0
 10
5.68670543700088
 11
6.74698787974893
 20
-154.360437727829
 21
-154.033712536989
 62
7
  0
LINE
  6
BYLAYER
  8
0
 10
6.74698787974893
 11
7.68207184921462
 20
-154.033712536989
 21
-153.450040781264
 62
7
  0
LINE
  6
BYLAYER
  8
0
 10
7.68207184921462
 11
7.8390107805123
 20
-153.450040781264
 21
-153.29688047592
 62
7
  0
LINE
  6
BYLAYER
  8
0
 10
7.8390107805123
 11
7.9946901698253
 20
-153.29688047592
 21
-153.143972078974
 62
7
  0
LINE
  6
BYLAYER
  8
0
 10
7.9946901698253
 11
8.39824742173366
 20
-153.143972078974
 21
-152.620506430119
 62
7
  0
LINE
  6
BYLAYER
  8
0
 10
8.39824742173366
 11
8.84488100951992
 20
-152.620506430119
 21
-151.759483529355
 62
7
  0
LINE
  6
BYLAYER
  8
0
 10
8.84488100951992
 11
9.141629101123
 20
-151.759483529355
 21
-150.707010246913
 62
7
  0
LINE
  6
BYLAYER
  8
0
 10
9.141629101123
 11
9.24944589501615
 20
-150.707010246913
 21
-149.770918643859
 62
7
  0
LINE
  6
BYLAYER
  8
0
 10
9.24944589501615
 11
9.24944589501615
 20
-149.770918643859
 21
-149.459307956836
 62
7
  0
LINE
  6
BYLAYER
  8
0
 10
9.24944589501615
 11
9.24944589501615
 20
-149.459307956836
 21
-149.103865208745
 62
7
  0
LINE
  6
BYLAYER
  8
0
 10
9.24944589501615
 11
9.06076650570313
 20
-149.103865208745
 21
-148.042071315615
 62
7
  0
LINE
  6
BYLAYER
  8
0
 10
9.06076650570313
 11
8.52369780341309
 20
-148.042071315615
 21
-146.958109483554
 62
7
  0
LINE
  6
BYLAYER
  8
0
 10
8.52369780341309
 11
7.67350696371841
 20
-146.958109483554
 21
-146.264101849966
 62
7
  0
LINE
  6
BYLAYER
  8
0
 10
7.67350696371841
 11
6.82911001715355
 20
-146.264101849966
 21
-146.020758338516
 62
7
  0
LINE
  6
BYLAYER
  8
0
 10
6.82911001715355
 11
6.54873597135199
 20
-146.020758338516
 21
-146.020758338516
 62
7
  0
LINE
  6
BYLAYER
  8
0
 10
6.54873597135199
 11
6.26332375761153
 20
-146.020758338516
 21
-146.020758338516
 62
7
  0
LINE
  6
BYLAYER
  8
0
 10
6.26332375761153
 11
5.40633139119932
 20
-146.020758338516
 21
-146.25553696447
 62
7
  0
LINE
  6
BYLAYER
  8
0
 10
5.40633139119932
 11
4.52465200188638
 20
-146.25553696447
 21
-146.891353758363
 62
7
  0
LINE
  6
BYLAYER
  8
0
 10
4.52465200188638
 11
3.95609474997798
 20
-146.891353758363
 21
-147.816361391951
 62
7
  0
LINE
  6
BYLAYER
  8
0
 10
3.95609474997798
 11
3.75532375761156
 20
-147.816361391951
 21
-148.64639955989
 62
7
  0
LINE
  6
BYLAYER
  8
0
 10
3.75532375761156
 11
3.75532375761156
 20
-148.64639955989
 21
-148.923498796531
 62
7
  0
LINE
  6
BYLAYER
  8
0
 10
3.75532375761156
 11
3.75532375761156
 20
-148.923498796531
 21
-149.166842307981
 62
7
  0
LINE
  6
BYLAYER
  8
0
 10
3.75532375761156
 11
3.92460620035965
 20
-149.166842307981
 21
-149.900651468287
 62
7
  0
LINE
  6
BYLAYER
  8
0
 10
3.92460620035965
 11
4.41129322326042
 20
-149.900651468287
 21
-150.694918643859
 62
7
  0
LINE
  6
BYLAYER
  8
0
 10
4.41129322326042
 11
5.1725603988329
 20
-150.694918643859
 21
-151.226697269813
 62
7
  0
LINE
  6
BYLAYER
  8
0
 10
5.1725603988329
 11
5.92173597135199
 20
-151.226697269813
 21
-151.421926277447
 62
7
  0
LINE
  6
BYLAYER
  8
0
 10
5.92173597135199
 11
6.17162910112299
 20
-151.421926277447
 21
-151.421926277447
 62
7
  0
LINE
  6
BYLAYER
  8
0
 10
6.17162910112299
 11
6.44520162020699
 20
-151.421926277447
 21
-151.421926277447
 62
7
  0
LINE
  6
BYLAYER
  8
0
 10
6.44520162020699
 11
7.26642299425279
 20
-151.421926277447
 21
-151.188155285081
 62
7
  0
LINE
  6
BYLAYER
  8
0
 10
7.26642299425279
 11
7.97730849043596
 20
-151.188155285081
 21
-150.679804140042
 62
7
  0
LINE
  6
BYLAYER
  8
0
 10
7.97730849043596
 11
8.09066726906192
 20
-150.679804140042
 21
-150.541506430119
 62
7
  0
LINE
  6
BYLAYER
  8
0
 10
8.09066726906192
 11
8.12870543700085
 20
-150.541506430119
 21
-150.541506430119
 62
7
  0
LINE
  6
BYLAYER
  8
0
 10
8.12870543700085
 11
8.09192681104665
 20
-150.541506430119
 21
-150.783590399584
 62
7
  0
LINE
  6
BYLAYER
  8
0
 10
8.09192681104665
 11
7.73522452097035
 20
-150.783590399584
 21
-151.807346124775
 62
7
  0
LINE
  6
BYLAYER
  8
0
 10
7.73522452097035
 11
7.18178177287874
 20
-151.807346124775
 21
-152.594559865233
 62
7
  0
LINE
  6
BYLAYER
  8
0
 10
7.18178177287874
 11
7.04625505532148
 20
-152.594559865233
 21
-152.717491162943
 62
7
  0
LINE
  6
BYLAYER
  8
0
 10
7.04625505532148
 11
6.93012528432911
 20
-152.717491162943
 21
-152.826819407218
 62
7
  0
LINE
  6
BYLAYER
  8
0
 10
6.93012528432911
 11
6.25904131486347
 20
-152.826819407218
 21
-153.244987346149
 62
7
  0
LINE
  6
BYLAYER
  8
0
 10
6.25904131486347
 11
5.50054513165738
 20
-153.244987346149
 21
-153.488078949203
 62
7
  0
LINE
  6
BYLAYER
  8
0
 10
5.50054513165738
 11
5.3405832995963
 20
-153.488078949203
 21
-153.510246888134
 62
7
  0
LINE
  6
BYLAYER
  8
0
 10
5.3405832995963
 11
5.24662146753523
 20
-153.510246888134
 21
-153.518307956836
 62
7
  0
LINE
  6
BYLAYER
  8
0
 10
5.24662146753523
 11
4.50827795608483
 20
-153.518307956836
 21
-153.549796506455
 62
7
  0
LINE
  6
BYLAYER
  8
0
 10
4.50827795608483
 11
4.44958329959627
 20
-153.549796506455
 21
-153.543246888134
 62
7
  0
LINE
  6
BYLAYER
  8
0
 10
4.44958329959627
 11
4.44958329959627
 20
-153.543246888134
 21
-154.450369025539
 62
7
  0
LINE
  6
BYLAYER
  8
0
 10
4.44958329959627
 11
4.44958329959627
 20
-154.450369025539
 21
-154.450369025539
 62
7
  0
LINE
  6
BYLAYER
  8
0
 10
-0.00440906681592423
 11
0.182758872115372
 20
-146.862636201111
 21
-146.862636201111
 62
7
  0
LINE
  6
BYLAYER
  8
0
 10
0.182758872115372
 11
0.746026047687877
 20
-146.862636201111
 21
-147.049804140042
 62
7
  0
LINE
  6
BYLAYER
  8
0
 10
0.746026047687877
 11
1.26672070417642
 20
-147.049804140042
 21
-147.568987346149
 62
7
  0
LINE
  6
BYLAYER
  8
0
 10
1.26672070417642
 11
1.57001841410012
 20
-147.568987346149
 21
-148.349651468287
 62
7
  0
LINE
  6
BYLAYER
  8
0
 10
1.57001841410012
 11
1.66826268890925
 20
-148.349651468287
 21
-149.079430094241
 62
7
  0
LINE
  6
BYLAYER
  8
0
 10
1.66826268890925
 11
1.66826268890925
 20
-149.079430094241
 21
-149.322521697294
 62
7
  0
LINE
  6
BYLAYER
  8
0
 10
1.66826268890925
 11
1.66826268890925
 20
-149.322521697294
 21
-149.423788872867
 62
7
  0
LINE
  6
BYLAYER
  8
0
 10
1.66826268890925
 11
1.58513291791691
 20
-149.423788872867
 21
-149.701140017905
 62
7
  0
LINE
  6
BYLAYER
  8
0
 10
1.58513291791691
 11
1.57001841410012
 20
-149.701140017905
 21
-149.727086582791
 62
7
  0
LINE
  6
BYLAYER
  8
0
 10
1.57001841410012
 11
1.49772070417644
 20
-149.727086582791
 21
-149.848758338516
 62
7
  0
LINE
  6
BYLAYER
  8
0
 10
1.49772070417644
 11
0.934705437000872
 20
-149.848758338516
 21
-150.335445361417
 62
7
  0
LINE
  6
BYLAYER
  8
0
 10
0.934705437000872
 11
0.204926811046647
 20
-150.335445361417
 21
-150.580048414852
 62
7
  0
LINE
  6
BYLAYER
  8
0
 10
0.204926811046647
 11
-0.0371571584189923
 20
-150.580048414852
 21
-150.580048414852
 62
7
  0
LINE
  6
BYLAYER
  8
0
 10
-0.0371571584189923
 11
-0.199889982846486
 20
-150.580048414852
 21
-150.580048414852
 62
7
  0
LINE
  6
BYLAYER
  8
0
 10
-0.199889982846486
 11
-0.687584639335
 20
-150.580048414852
 21
-150.451575132409
 62
7
  0
LINE
  6
BYLAYER
  8
0
 10
-0.687584639335
 11
-1.18384418131973
 20
-150.451575132409
 21
-150.094872842333
 62
7
  0
LINE
  6
BYLAYER
  8
0
 10
-1.18384418131973
 11
-1.50074494467854
 20
-150.094872842333
 21
-149.546972078974
 62
7
  0
LINE
  6
BYLAYER
  8
0
 10
-1.50074494467854
 11
-1.61158463933502
 20
-149.546972078974
 21
-149.021994979737
 62
7
  0
LINE
  6
BYLAYER
  8
0
 10
-1.61158463933502
 11
-1.61158463933502
 20
-149.021994979737
 21
-148.847170552256
 62
7
  0
LINE
  6
BYLAYER
  8
0
 10
-1.61158463933502
 11
-1.61158463933502
 20
-148.847170552256
 21
-148.64639955989
 62
7
  0
LINE
  6
BYLAYER
  8
0
 10
-1.61158463933502
 11
-1.49268387597623
 20
-148.64639955989
 21
-148.047613300348
 62
7
  0
LINE
  6
BYLAYER
  8
0
 10
-1.49268387597623
 11
-1.16066860880068
 20
-148.047613300348
 21
-147.420361391951
 62
7
  0
LINE
  6
BYLAYER
  8
0
 10
-1.16066860880068
 11
-0.652317463762486
 20
-147.420361391951
 21
-147.008994979737
 62
7
  0
LINE
  6
BYLAYER
  8
0
 10
-0.652317463762486
 11
-0.167141891243418
 20
-147.008994979737
 21
-146.862636201111
 62
7
  0
LINE
  6
BYLAYER
  8
0
 10
-0.167141891243418
 11
-0.00440906681592423
 20
-146.862636201111
 21
-146.862636201111
 62
7
  0
LINE
  6
BYLAYER
  8
0
 10
-0.00440906681592423
 11
-0.00440906681592423
 20
-146.862636201111
 21
-146.862636201111
 62
7
  0
LINE
  6
BYLAYER
  8
0
 10
-2.01060754009838
 11
-1.94511135689228
 20
-154.450369025539
 21
-154.453140017905
 62
7
  0
LINE
  6
BYLAYER
  8
0
 10
-1.94511135689228
 11
-1.09492051719762
 20
-154.453140017905
 21
-154.401246888134
 62
7
  0
LINE
  6
BYLAYER
  8
0
 10
-1.09492051719762
 11
-0.993905250022024
 20
-154.401246888134
 21
-154.384872842333
 62
7
  0
LINE
  6
BYLAYER
  8
0
 10
-0.993905250022024
 11
-0.773737311090756
 20
-154.384872842333
 21
-154.360437727829
 62
7
  0
LINE
  6
BYLAYER
  8
0
 10
-0.773737311090756
 11
0.286797040054282
 20
-154.360437727829
 21
-154.033712536989
 62
7
  0
LINE
  6
BYLAYER
  8
0
 10
0.286797040054282
 11
1.22162910112301
 20
-154.033712536989
 21
-153.450040781264
 62
7
  0
LINE
  6
BYLAYER
  8
0
 10
1.22162910112301
 11
1.3785680324207
 20
-153.450040781264
 21
-153.29688047592
 62
7
  0
LINE
  6
BYLAYER
  8
0
 10
1.3785680324207
 11
1.5342474217337
 20
-153.29688047592
 21
-153.143972078974
 62
7
  0
LINE
  6
BYLAYER
  8
0
 10
1.5342474217337
 11
1.93780467364206
 20
-153.143972078974
 21
-152.620506430119
 62
7
  0
LINE
  6
BYLAYER
  8
0
 10
1.93780467364206
 11
2.38443826142836
 20
-152.620506430119
 21
-151.759483529355
 62
7
  0
LINE
  6
BYLAYER
  8
0
 10
2.38443826142836
 11
2.68118635303138
 20
-151.759483529355
 21
-150.707010246913
 62
7
  0
LINE
  6
BYLAYER
  8
0
 10
2.68118635303138
 11
2.78900314692451
 20
-150.707010246913
 21
-149.770918643859
 62
7
  0
LINE
  6
BYLAYER
  8
0
 10
2.78900314692451
 11
2.78900314692451
 20
-149.770918643859
 21
-149.459307956836
 62
7
  0
LINE
  6
BYLAYER
  8
0
 10
2.78900314692451
 11
2.78900314692451
 20
-149.459307956836
 21
-149.103865208745
 62
7
  0
LINE
  6
BYLAYER
  8
0
 10
2.78900314692451
 11
2.60032375761153
 20
-149.103865208745
 21
-148.042071315615
 62
7
  0
LINE
  6
BYLAYER
  8
0
 10
2.60032375761153
 11
2.06325505532146
 20
-148.042071315615
 21
-146.958109483554
 62
7
  0
LINE
  6
BYLAYER
  8
0
 10
2.06325505532146
 11
1.21306421562683
 20
-146.958109483554
 21
-146.264101849966
 62
7
  0
LINE
  6
BYLAYER
  8
0
 10
1.21306421562683
 11
0.368667269061916
 20
-146.264101849966
 21
-146.020758338516
 62
7
  0
LINE
  6
BYLAYER
  8
0
 10
0.368667269061916
 11
0.0887970400542883
 20
-146.020758338516
 21
-146.020758338516
 62
7
  0
LINE
  6
BYLAYER
  8
0
 10
0.0887970400542883
 11
-0.197118990480064
 20
-146.020758338516
 21
-146.020758338516
 62
7
  0
LINE
  6
BYLAYER
  8
0
 10
-0.197118990480064
 11
-1.05411135689225
 20
-146.020758338516
 21
-146.25553696447
 62
7
  0
LINE
  6
BYLAYER
  8
0
 10
-1.05411135689225
 11
-1.93579074620523
 20
-146.25553696447
 21
-146.891353758363
 62
7
  0
LINE
  6
BYLAYER
  8
0
 10
-1.93579074620523
 11
-2.50409608971668
 20
-146.891353758363
 21
-147.816361391951
 62
7
  0
LINE
  6
BYLAYER
  8
0
 10
-2.50409608971668
 11
-2.70511899048007
 20
-147.816361391951
 21
-148.64639955989
 62
7
  0
LINE
  6
BYLAYER
  8
0
 10
-2.70511899048007
 11
-2.70511899048007
 20
-148.64639955989
 21
-148.923498796531
 62
7
  0
LINE
  6
BYLAYER
  8
0
 10
-2.70511899048007
 11
-2.70511899048007
 20
-148.923498796531
 21
-149.166842307981
 62
7
  0
LINE
  6
BYLAYER
  8
0
 10
-2.70511899048007
 11
-2.53533273093808
 20
-149.166842307981
 21
-149.900651468287
 62
7
  0
LINE
  6
BYLAYER
  8
0
 10
-2.53533273093808
 11
-2.04914952483119
 20
-149.900651468287
 21
-150.694918643859
 62
7
  0
LINE
  6
BYLAYER
  8
0
 10
-2.04914952483119
 11
-1.28763044086175
 20
-150.694918643859
 21
-151.226697269813
 62
7
  0
LINE
  6
BYLAYER
  8
0
 10
-1.28763044086175
 11
-0.538706776739588
 20
-151.226697269813
 21
-151.421926277447
 62
7
  0
LINE
  6
BYLAYER
  8
0
 10
-0.538706776739588
 11
-0.288561738571644
 20
-151.421926277447
 21
-151.421926277447
 62
7
  0
LINE
  6
BYLAYER
  8
0
 10
-0.288561738571644
 11
-0.0152411278846216
 20
-151.421926277447
 21
-151.421926277447
 62
7
  0
LINE
  6
BYLAYER
  8
0
 10
-0.0152411278846216
 11
0.805980246161184
 20
-151.421926277447
 21
-151.188155285081
 62
7
  0
LINE
  6
BYLAYER
  8
0
 10
0.805980246161184
 11
1.51686574234436
 20
-151.188155285081
 21
-150.679804140042
 62
7
  0
LINE
  6
BYLAYER
  8
0
 10
1.51686574234436
 11
1.63022452097034
 20
-150.679804140042
 21
-150.541506430119
 62
7
  0
LINE
  6
BYLAYER
  8
0
 10
1.63022452097034
 11
1.66826268890925
 20
-150.541506430119
 21
-150.541506430119
 62
7
  0
LINE
  6
BYLAYER
  8
0
 10
1.66826268890925
 11
1.631735971352
 20
-150.541506430119
 21
-150.783590399584
 62
7
  0
LINE
  6
BYLAYER
  8
0
 10
1.631735971352
 11
1.27478177287874
 20
-150.783590399584
 21
-151.807346124775
 62
7
  0
LINE
  6
BYLAYER
  8
0
 10
1.27478177287874
 11
0.721339024787113
 20
-151.807346124775
 21
-152.594559865233
 62
7
  0
LINE
  6
BYLAYER
  8
0
 10
0.721339024787113
 11
0.586316124023782
 20
-152.594559865233
 21
-152.717491162943
 62
7
  0
LINE
  6
BYLAYER
  8
0
 10
0.586316124023782
 11
0.469682536237514
 20
-152.717491162943
 21
-152.826819407218
 62
7
  0
LINE
  6
BYLAYER
  8
0
 10
0.469682536237514
 11
-0.200897616434233
 20
-152.826819407218
 21
-153.244987346149
 62
7
  0
LINE
  6
BYLAYER
  8
0
 10
-0.200897616434233
 11
-0.9596457080373
 20
-153.244987346149
 21
-153.488078949203
 62
7
  0
LINE
  6
BYLAYER
  8
0
 10
-0.9596457080373
 11
-1.11935563170141
 20
-153.488078949203
 21
-153.510246888134
 62
7
  0
LINE
  6
BYLAYER
  8
0
 10
-1.11935563170141
 11
-1.2138212805564
 20
-153.510246888134
 21
-153.518307956836
 62
7
  0
LINE
  6
BYLAYER
  8
0
 10
-1.2138212805564
 11
-1.95166097521289
 20
-153.518307956836
 21
-153.549796506455
 62
7
  0
LINE
  6
BYLAYER
  8
0
 10
-1.95166097521289
 11
-2.01060754009838
 20
-153.549796506455
 21
-153.543246888134
 62
7
  0
LINE
  6
BYLAYER
  8
0
 10
-2.01060754009838
 11
-2.01060754009838
 20
-153.543246888134
 21
-154.450369025539
 62
7
  0
LINE
  6
BYLAYER
  8
0
 10
-2.01060754009838
 11
-2.01060754009838
 20
-154.450369025539
 21
-154.450369025539
 62
7
  0
LINE
  6
BYLAYER
  8
0
 10
-71.9510594484953
 11
-71.978391509564
 20
29.8095393714079
 21
29.8095393714079
 62
7
  0
LINE
  6
BYLAYER
  8
0
 10
-71.978391509564
 11
-74.755505250022
 20
29.8095393714079
 21
31.8104477683545
 62
7
  0
LINE
  6
BYLAYER
  8
0
 10
-74.755505250022
 11
-74.8498197538388
 20
31.8104477683545
 21
31.8663714324766
 62
7
  0
LINE
  6
BYLAYER
  8
0
 10
-74.8498197538388
 11
-75.8433968530755
 20
31.8663714324766
 21
32.4253561653011
 62
7
  0
LINE
  6
BYLAYER
  8
0
 10
-75.8433968530755
 11
-75.9636831126174
 20
32.4253561653011
 21
32.4880813561408
 62
7
  0
LINE
  6
BYLAYER
  8
0
 10
-75.9636831126174
 11
-75.9636831126174
 20
32.4880813561408
 21
32.5266233408736
 62
7
  0
LINE
  6
BYLAYER
  8
0
 10
-75.9636831126174
 11
-75.8570754790296
 20
32.5266233408736
 21
32.5195699057591
 62
7
  0
LINE
  6
BYLAYER
  8
0
 10
-75.8570754790296
 11
-74.9741869294113
 20
32.5195699057591
 21
32.4880813561408
 62
7
  0
LINE
  6
BYLAYER
  8
0
 10
-74.9741869294113
 11
-74.6789754790297
 20
32.4880813561408
 21
32.4880813561408
 62
7
  0
LINE
  6
BYLAYER
  8
0
 10
-74.6789754790297
 11
-71.9510594484953
 20
32.4880813561408
 21
32.4880813561408
 62
7
  0
LINE
  6
BYLAYER
  8
0
 10
-71.9510594484953
 11
-71.9510594484953
 20
32.4880813561408
 21
29.8095393714079
 62
7
  0
LINE
  6
BYLAYER
  8
0
 10
-71.9510594484953
 11
-71.9510594484953
 20
29.8095393714079
 21
29.8095393714079
 62
7
  0
LINE
  6
BYLAYER
  8
0
 10
-68.8623098301747
 11
-71.0873411278846
 20
33.5269515851484
 21
33.5269515851484
 62
7
  0
LINE
  6
BYLAYER
  8
0
 10
-71.0873411278846
 11
-71.0873411278846
 20
33.5269515851484
 21
34.6748981500339
 62
7
  0
LINE
  6
BYLAYER
  8
0
 10
-71.0873411278846
 11
-71.9510594484953
 20
34.6748981500339
 21
34.6748981500339
 62
7
  0
LINE
  6
BYLAYER
  8
0
 10
-71.9510594484953
 11
-71.9510594484953
 20
34.6748981500339
 21
33.5269515851484
 62
7
  0
LINE
  6
BYLAYER
  8
0
 10
-71.9510594484953
 11
-77.0296838759762
 20
33.5269515851484
 21
33.5269515851484
 62
7
  0
LINE
  6
BYLAYER
  8
0
 10
-77.0296838759762
 11
-77.0296838759762
 20
33.5269515851484
 21
32.3351729591942
 62
7
  0
LINE
  6
BYLAYER
  8
0
 10
-77.0296838759762
 11
-71.8143991431518
 20
32.3351729591942
 21
28.6887989133926
 62
7
  0
LINE
  6
BYLAYER
  8
0
 10
-71.8143991431518
 11
-71.0873411278846
 20
28.6887989133926
 21
28.6887989133926
 62
7
  0
LINE
  6
BYLAYER
  8
0
 10
-71.0873411278846
 11
-71.0873411278846
 20
28.6887989133926
 21
32.4880813561408
 62
7
  0
LINE
  6
BYLAYER
  8
0
 10
-71.0873411278846
 11
-68.8623098301747
 20
32.4880813561408
 21
32.4880813561408
 62
7
  0
LINE
  6
BYLAYER
  8
0
 10
-68.8623098301747
 11
-68.8623098301747
 20
32.4880813561408
 21
33.5269515851484
 62
7
  0
LINE
  6
BYLAYER
  8
0
 10
-68.8623098301747
 11
-68.8623098301747
 20
33.5269515851484
 21
33.5269515851484
 62
7
  0
LINE
  6
BYLAYER
  8
0
 10
-77.0296838759762
 11
-77.0296838759762
 20
27.4821576920186
 21
23.5732950965988
 62
7
  0
LINE
  6
BYLAYER
  8
0
 10
-77.0296838759762
 11
-73.1100144103274
 20
23.5732950965988
 21
23.0485699057591
 62
7
  0
LINE
  6
BYLAYER
  8
0
 10
-73.1100144103274
 11
-73.119612120251
 20
23.0485699057591
 21
23.1236386080491
 62
7
  0
LINE
  6
BYLAYER
  8
0
 10
-73.119612120251
 11
-73.1974770057472
 20
23.1236386080491
 21
23.916142424843
 62
7
  0
LINE
  6
BYLAYER
  8
0
 10
-73.1974770057472
 11
-73.1974770057472
 20
23.916142424843
 21
24.1798905164461
 62
7
  0
LINE
  6
BYLAYER
  8
0
 10
-73.1974770057472
 11
-73.1974770057472
 20
24.1798905164461
 21
24.4438905164461
 62
7
  0
LINE
  6
BYLAYER
  8
0
 10
-73.1974770057472
 11
-73.0635625019304
 20
24.4438905164461
 21
25.2351347912553
 62
7
  0
LINE
  6
BYLAYER
  8
0
 10
-73.0635625019304
 11
-72.6890754790297
 20
25.2351347912553
 21
25.9621424248431
 62
7
  0
LINE
  6
BYLAYER
  8
0
 10
-72.6890754790297
 11
-72.1164373110907
 20
25.9621424248431
 21
26.3873637988888
 62
7
  0
LINE
  6
BYLAYER
  8
0
 10
-72.1164373110907
 11
-71.5711312042205
 20
26.3873637988888
 21
26.527928684385
 62
7
  0
LINE
  6
BYLAYER
  8
0
 10
-71.5711312042205
 11
-71.3879686088007
 20
26.527928684385
 21
26.5306996767515
 62
7
  0
LINE
  6
BYLAYER
  8
0
 10
-71.3879686088007
 11
-71.2034960897167
 20
26.5306996767515
 21
26.5306996767515
 62
7
  0
LINE
  6
BYLAYER
  8
0
 10
-71.2034960897167
 11
-70.6500029599457
 20
26.5306996767515
 21
26.3750202874385
 62
7
  0
LINE
  6
BYLAYER
  8
0
 10
-70.6500029599457
 11
-70.0923785324648
 20
26.3750202874385
 21
25.952821814156
 62
7
  0
LINE
  6
BYLAYER
  8
0
 10
-70.0923785324648
 11
-69.7397067767396
 20
25.952821814156
 21
25.3364019668278
 62
7
  0
LINE
  6
BYLAYER
  8
0
 10
-69.7397067767396
 11
-69.6167754790297
 20
25.3364019668278
 21
24.7814477683545
 62
7
  0
LINE
  6
BYLAYER
  8
0
 10
-69.6167754790297
 11
-69.6167754790297
 20
24.7814477683545
 21
24.5955393714079
 62
7
  0
LINE
  6
BYLAYER
  8
0
 10
-69.6167754790297
 11
-69.6167754790297
 20
24.5955393714079
 21
24.3398523485072
 62
7
  0
LINE
  6
BYLAYER
  8
0
 10
-69.6167754790297
 11
-69.7684243339915
 20
24.3398523485072
 21
23.5690126538506
 62
7
  0
LINE
  6
BYLAYER
  8
0
 10
-69.7684243339915
 11
-70.0198289141442
 20
23.5690126538506
 21
22.930928684385
 62
7
  0
LINE
  6
BYLAYER
  8
0
 10
-70.0198289141442
 11
-70.0704625019304
 20
22.930928684385
 21
22.8462874630109
 62
7
  0
LINE
  6
BYLAYER
  8
0
 10
-70.0704625019304
 11
-69.228584639335
 20
22.8462874630109
 21
22.572714943927
 62
7
  0
LINE
  6
BYLAYER
  8
0
 10
-69.228584639335
 11
-69.1658594484953
 20
22.572714943927
 21
22.6699515851484
 62
7
  0
LINE
  6
BYLAYER
  8
0
 10
-69.1658594484953
 11
-68.8829663187243
 20
22.6699515851484
 21
23.4012416614843
 62
7
  0
LINE
  6
BYLAYER
  8
0
 10
-68.8829663187243
 11
-68.7257754790297
 20
23.4012416614843
 21
24.3058447149194
 62
7
  0
LINE
  6
BYLAYER
  8
0
 10
-68.7257754790297
 11
-68.7257754790297
 20
24.3058447149194
 21
24.6063714324766
 62
7
  0
LINE
  6
BYLAYER
  8
0
 10
-68.7257754790297
 11
-68.7257754790297
 20
24.6063714324766
 21
24.9126920431637
 62
7
  0
LINE
  6
BYLAYER
  8
0
 10
-68.7257754790297
 11
-68.9373785324648
 20
24.9126920431637
 21
25.8296386080492
 62
7
  0
LINE
  6
BYLAYER
  8
0
 10
-68.9373785324648
 11
-69.52105028819
 20
25.8296386080492
 21
26.7904172340033
 62
7
  0
LINE
  6
BYLAYER
  8
0
 10
-69.52105028819
 11
-70.4052487614724
 20
26.7904172340033
 21
27.4204401347667
 62
7
  0
LINE
  6
BYLAYER
  8
0
 10
-70.4052487614724
 11
-71.2376800591823
 20
27.4204401347667
 21
27.6458981500339
 62
7
  0
LINE
  6
BYLAYER
  8
0
 10
-71.2376800591823
 11
-71.5137212805564
 20
27.6458981500339
 21
27.6458981500339
 62
7
  0
LINE
  6
BYLAYER
  8
0
 10
-71.5137212805564
 11
-71.8390105935335
 20
27.6458981500339
 21
27.6458981500339
 62
7
  0
LINE
  6
BYLAYER
  8
0
 10
-71.8390105935335
 11
-72.8121075400984
 20
27.6458981500339
 21
27.3030508217896
 62
7
  0
LINE
  6
BYLAYER
  8
0
 10
-72.8121075400984
 11
-73.5214060133808
 20
27.3030508217896
 21
26.6375088370567
 62
7
  0
LINE
  6
BYLAYER
  8
0
 10
-73.5214060133808
 11
-73.6129495248312
 20
26.6375088370567
 21
26.4762874630109
 62
7
  0
LINE
  6
BYLAYER
  8
0
 10
-73.6129495248312
 11
-73.6881441813197
 20
26.4762874630109
 21
26.3503332645377
 62
7
  0
LINE
  6
BYLAYER
  8
0
 10
-73.6881441813197
 11
-73.9450655553655
 20
26.3503332645377
 21
25.6467531118659
 62
7
  0
LINE
  6
BYLAYER
  8
0
 10
-73.9450655553655
 11
-74.0502876927701
 20
25.6467531118659
 21
24.953501203469
 62
7
  0
LINE
  6
BYLAYER
  8
0
 10
-74.0502876927701
 11
-74.0502876927701
 20
24.953501203469
 21
24.7212416614843
 62
7
  0
LINE
  6
BYLAYER
  8
0
 10
-74.0502876927701
 11
-74.0502876927701
 20
24.7212416614843
 21
24.5547302111026
 62
7
  0
LINE
  6
BYLAYER
  8
0
 10
-74.0502876927701
 11
-74.0079418912434
 20
24.5547302111026
 21
24.1010431882018
 62
7
  0
LINE
  6
BYLAYER
  8
0
 10
-74.0079418912434
 11
-74.0011151736861
 20
24.1010431882018
 21
24.0544401347667
 62
7
  0
LINE
  6
BYLAYER
  8
0
 10
-74.0011151736861
 11
-76.100343417961
 20
24.0544401347667
 21
24.3657989133927
 62
7
  0
LINE
  6
BYLAYER
  8
0
 10
-76.100343417961
 11
-76.100343417961
 20
24.3657989133927
 21
27.4821576920186
 62
7
  0
LINE
  6
BYLAYER
  8
0
 10
-76.100343417961
 11
-77.0296838759762
 20
27.4821576920186
 21
27.4821576920186
 62
7
  0
LINE
  6
BYLAYER
  8
0
 10
-77.0296838759762
 11
-77.0296838759762
 20
27.4821576920186
 21
27.4821576920186
 62
7
  0
LINE
  6
BYLAYER
  8
0
 10
-68.8623098301747
 11
-69.7807678454419
 20
21.3607836462171
 21
21.3607836462171
 62
7
  0
LINE
  6
BYLAYER
  8
0
 10
-69.7807678454419
 11
-69.7807678454419
 20
21.3607836462171
 21
17.6922416614843
 62
7
  0
LINE
  6
BYLAYER
  8
0
 10
-69.7807678454419
 11
-69.8026838759762
 20
17.6922416614843
 21
17.6922416614843
 62
7
  0
LINE
  6
BYLAYER
  8
0
 10
-69.8026838759762
 11
-70.4095312042205
 20
17.6922416614843
 21
18.3482111271331
 62
7
  0
LINE
  6
BYLAYER
  8
0
 10
-70.4095312042205
 11
-70.6964548683426
 20
18.3482111271331
 21
18.6464706691178
 62
7
  0
LINE
  6
BYLAYER
  8
0
 10
-70.6964548683426
 11
-71.582064028648
 20
18.6464706691178
 21
19.5155546385835
 62
7
  0
LINE
  6
BYLAYER
  8
0
 10
-71.582064028648
 11
-72.6576373110907
 20
19.5155546385835
 21
20.4025241042324
 62
7
  0
LINE
  6
BYLAYER
  8
0
 10
-72.6576373110907
 11
-73.7058785324648
 20
20.4025241042324
 21
20.9670508217896
 62
7
  0
LINE
  6
BYLAYER
  8
0
 10
-73.7058785324648
 11
-74.5218350210144
 20
20.9670508217896
 21
21.1637912798049
 62
7
  0
LINE
  6
BYLAYER
  8
0
 10
-74.5218350210144
 11
-74.7937701355182
 20
21.1637912798049
 21
21.1637912798049
 62
7
  0
LINE
  6
BYLAYER
  8
0
 10
-74.7937701355182
 11
-75.011091509564
 20
21.1637912798049
 21
21.1637912798049
 62
7
  0
LINE
  6
BYLAYER
  8
0
 10
-75.011091509564
 11
-75.6588991431518
 20
21.1637912798049
 21
21.0202034935454
 62
7
  0
LINE
  6
BYLAYER
  8
0
 10
-75.6588991431518
 11
-76.4187556317014
 20
21.0202034935454
 21
20.5720584553774
 62
7
  0
LINE
  6
BYLAYER
  8
0
 10
-76.4187556317014
 11
-76.9613411278846
 20
20.5720584553774
 21
19.7944172340033
 62
7
  0
LINE
  6
BYLAYER
  8
0
 10
-76.9613411278846
 11
-77.1663693721594
 20
19.7944172340033
 21
18.9442263943087
 62
7
  0
LINE
  6
BYLAYER
  8
0
 10
-77.1663693721594
 11
-77.1663693721594
 20
18.9442263943087
 21
18.660073722553
 62
7
  0
LINE
  6
BYLAYER
  8
0
 10
-77.1663693721594
 11
-77.1663693721594
 20
18.660073722553
 21
18.3361195240797
 62
7
  0
LINE
  6
BYLAYER
  8
0
 10
-77.1663693721594
 11
-76.9326487614724
 20
18.3361195240797
 21
17.3645088370568
 62
7
  0
LINE
  6
BYLAYER
  8
0
 10
-76.9326487614724
 11
-76.4597663187243
 20
17.3645088370568
 21
16.4898828828583
 62
7
  0
LINE
  6
BYLAYER
  8
0
 10
-76.4597663187243
 11
-76.3408907462052
 20
16.4898828828583
 21
16.3478065469805
 62
7
  0
LINE
  6
BYLAYER
  8
0
 10
-76.3408907462052
 11
-75.5591182271213
 20
16.3478065469805
 21
16.7027454782782
 62
7
  0
LINE
  6
BYLAYER
  8
0
 10
-75.5591182271213
 11
-75.63841899048
 20
16.7027454782782
 21
16.7972111271331
 62
7
  0
LINE
  6
BYLAYER
  8
0
 10
-75.63841899048
 11
-76.0251487614724
 20
16.7972111271331
 21
17.4327760126292
 62
7
  0
LINE
  6
BYLAYER
  8
0
 10
-76.0251487614724
 11
-76.2534029599457
 20
17.4327760126292
 21
18.1857302111026
 62
7
  0
LINE
  6
BYLAYER
  8
0
 10
-76.2534029599457
 11
-76.2534029599457
 20
18.1857302111026
 21
18.4358752492705
 62
7
  0
LINE
  6
BYLAYER
  8
0
 10
-76.2534029599457
 11
-76.2534029599457
 20
18.4358752492705
 21
18.6285851729346
 62
7
  0
LINE
  6
BYLAYER
  8
0
 10
-76.2534029599457
 11
-76.1208487614724
 20
18.6285851729346
 21
19.2041958599575
 62
7
  0
LINE
  6
BYLAYER
  8
0
 10
-76.1208487614724
 11
-75.7655067767396
 20
19.2041958599575
 21
19.7027225775147
 62
7
  0
LINE
  6
BYLAYER
  8
0
 10
-75.7655067767396
 11
-75.2557197538388
 20
19.7027225775147
 21
19.9735241042324
 62
7
  0
LINE
  6
BYLAYER
  8
0
 10
-75.2557197538388
 11
-74.8074487614724
 20
19.9735241042324
 21
20.0538828828583
 62
7
  0
LINE
  6
BYLAYER
  8
0
 10
-74.8074487614724
 11
-74.6571098301747
 20
20.0538828828583
 21
20.0538828828583
 62
7
  0
LINE
  6
BYLAYER
  8
0
 10
-74.6571098301747
 11
-74.4302663187243
 20
20.0538828828583
 21
20.0526233408736
 62
7
  0
LINE
  6
BYLAYER
  8
0
 10
-74.4302663187243
 11
-73.7482495248312
 20
20.0526233408736
 21
19.8682263943087
 62
7
  0
LINE
  6
BYLAYER
  8
0
 10
-73.7482495248312
 11
-72.8011495248312
 20
19.8682263943087
 21
19.3132721958354
 62
7
  0
LINE
  6
BYLAYER
  8
0
 10
-72.8011495248312
 11
-71.7146182271213
 20
19.3132721958354
 21
18.3688676156828
 62
7
  0
LINE
  6
BYLAYER
  8
0
 10
-71.7146182271213
 11
-70.7101083034571
 20
18.3688676156828
 21
17.358966852324
 62
7
  0
LINE
  6
BYLAYER
  8
0
 10
-70.7101083034571
 11
-70.3820731889533
 20
17.358966852324
 21
17.014608073698
 62
7
  0
LINE
  6
BYLAYER
  8
0
 10
-70.3820731889533
 11
-69.5401953263579
 20
17.014608073698
 21
16.1452721958354
 62
7
  0
LINE
  6
BYLAYER
  8
0
 10
-69.5401953263579
 11
-68.8623098301747
 20
16.1452721958354
 21
16.1452721958354
 62
7
  0
LINE
  6
BYLAYER
  8
0
 10
-68.8623098301747
 11
-68.8623098301747
 20
16.1452721958354
 21
21.3607836462171
 62
7
  0
LINE
  6
BYLAYER
  8
0
 10
-68.8623098301747
 11
-68.8623098301747
 20
21.3607836462171
 21
21.3607836462171
 62
7
  0
LINE
  6
BYLAYER
  8
0
 10
51.2231787194436
 11
51.2231787194436
 20
-157.013285056073
 21
-155.475384292714
 62
7
  0
LINE
  6
BYLAYER
  8
0
 10
54.0946825362375
 11
51.2246901698253
 20
-156.241941544623
 21
-157.013285056073
 62
7
  0
LINE
  6
BYLAYER
  8
0
 10
51.2231787194436
 11
54.0946825362375
 20
-155.475384292714
 21
-156.241941544623
 62
7
  0
LINE
  6
BYLAYER
  8
0
 10
51.2231787194436
 11
51.4624916965428
 20
-155.475384292714
 21
-155.538361391951
 62
7
  0
LINE
  6
BYLAYER
  8
0
 10
51.4624916965428
 11
53.8553695591383
 20
-155.538361391951
 21
-156.177956811798
 62
7
  0
LINE
  6
BYLAYER
  8
0
 10
53.8553695591383
 11
54.0946825362375
 20
-156.177956811798
 21
-156.241941544623
 62
7
  0
LINE
  6
BYLAYER
  8
0
 10
54.0946825362375
 11
53.8553695591383
 20
-156.241941544623
 21
-156.306430094241
 62
7
  0
LINE
  6
BYLAYER
  8
0
 10
53.8553695591383
 11
51.4624916965428
 20
-156.306430094241
 21
-156.948796506455
 62
7
  0
LINE
  6
BYLAYER
  8
0
 10
51.4624916965428
 11
51.2231787194436
 20
-156.948796506455
 21
-157.013285056073
 62
7
  0
LINE
  6
BYLAYER
  8
0
 10
51.2231787194436
 11
51.2231787194436
 20
-157.013285056073
 21
-155.475384292714
 62
7
  0
LINE
  6
BYLAYER
  8
0
 10
-41.7473937996404
 11
-41.7473937996404
 20
-157.015552231646
 21
-155.478155285081
 62
7
  0
LINE
  6
BYLAYER
  8
0
 10
-44.6186457080373
 11
-41.7473937996404
 20
-156.244964445386
 21
-157.015552231646
 62
7
  0
LINE
  6
BYLAYER
  8
0
 10
-41.7473937996404
 11
-44.6186457080373
 20
-155.478155285081
 21
-156.244964445386
 62
7
  0
LINE
  6
BYLAYER
  8
0
 10
-44.8577067767396
 11
53.6054764293673
 20
-156.246223987371
 21
-156.246223987371
 62
7
  0
LINE
  6
BYLAYER
  8
0
 10
-41.7473937996404
 11
-41.9862029599457
 20
-155.478155285081
 21
-155.541384292714
 62
7
  0
LINE
  6
BYLAYER
  8
0
 10
-41.9862029599457
 11
-44.3793327309381
 20
-155.541384292714
 21
-156.180727804165
 62
7
  0
LINE
  6
BYLAYER
  8
0
 10
-44.3793327309381
 11
-44.6186457080373
 20
-156.180727804165
 21
-156.244964445386
 62
7
  0
LINE
  6
BYLAYER
  8
0
 10
-44.6186457080373
 11
-44.3793327309381
 20
-156.244964445386
 21
-156.309201086607
 62
7
  0
LINE
  6
BYLAYER
  8
0
 10
-44.3793327309381
 11
-41.9862029599457
 20
-156.309201086607
 21
-156.951567498821
 62
7
  0
LINE
  6
BYLAYER
  8
0
 10
-41.9862029599457
 11
-41.7473937996404
 20
-156.951567498821
 21
-157.015552231646
 62
7
  0
LINE
  6
BYLAYER
  8
0
 10
-41.7473937996404
 11
-41.7473937996404
 20
-157.015552231646
 21
-155.478155285081
 62
7
  0
LINE
  6
BYLAYER
  8
0
 10
53.9211176507413
 11
53.9211176507413
 20
-119.818506430119
 21
-157.190628567523
 62
7
  0
LINE
  6
BYLAYER
  8
0
 10
-44.8577067767396
 11
-44.8577067767396
 20
-121.861735437752
 21
-157.19339955989
 62
7
  0
LINE
  6
BYLAYER
  8
0
 10
-67.2085312042205
 11
-64.9018060133808
 20
131.454829447744
 21
131.454829447744
 62
7
  0
LINE
  6
BYLAYER
  8
0
 10
-66.051012120251
 11
-67.2085312042205
 20
135.770020287438
 21
131.454829447744
 62
7
  0
LINE
  6
BYLAYER
  8
0
 10
-64.9018060133808
 11
-66.051012120251
 20
131.454829447744
 21
135.770020287438
 62
7
  0
LINE
  6
BYLAYER
  8
0
 10
-64.9018060133808
 11
-67.2085312042205
 20
-113.920071315615
 21
-113.920071315615
 62
7
  0
LINE
  6
BYLAYER
  8
0
 10
-66.0525235706327
 11
-65.2857144103274
 20
-116.796613300348
 21
-113.920071315615
 62
7
  0
LINE
  6
BYLAYER
  8
0
 10
-66.8233632652892
 11
-66.0525235706327
 20
-113.920071315615
 21
-116.796613300348
 62
7
  0
LINE
  6
BYLAYER
  8
0
 10
-66.0552945629991
 11
-66.0552945629991
 20
-116.384239254546
 21
135.28887524927
 62
7
  0
LINE
  6
BYLAYER
  8
0
 10
-64.9018060133808
 11
-64.9987907462053
 20
131.454829447744
 21
131.815058455377
 62
7
  0
LINE
  6
BYLAYER
  8
0
 10
-64.9987907462053
 11
-65.9552869294113
 20
131.815058455377
 21
135.409791279805
 62
7
  0
LINE
  6
BYLAYER
  8
0
 10
-65.9552869294113
 11
-66.051012120251
 20
135.409791279805
 21
135.770020287438
 62
7
  0
LINE
  6
BYLAYER
  8
0
 10
-66.051012120251
 11
-66.1479968530755
 20
135.770020287438
 21
135.409791279805
 62
7
  0
LINE
  6
BYLAYER
  8
0
 10
-66.1479968530755
 11
-67.1130579217778
 20
135.409791279805
 21
131.815058455377
 62
7
  0
LINE
  6
BYLAYER
  8
0
 10
-67.1130579217778
 11
-67.2085312042205
 20
131.815058455377
 21
131.454829447744
 62
7
  0
LINE
  6
BYLAYER
  8
0
 10
-67.2085312042205
 11
-64.9018060133808
 20
131.454829447744
 21
131.454829447744
 62
7
  0
LINE
  6
BYLAYER
  8
0
 10
-66.8233632652892
 11
-66.7591266240678
 20
-113.920071315615
 21
-114.159132384317
 62
7
  0
LINE
  6
BYLAYER
  8
0
 10
-66.7591266240678
 11
-66.1167602118541
 20
-114.159132384317
 21
-116.556292689661
 62
7
  0
LINE
  6
BYLAYER
  8
0
 10
-66.1167602118541
 11
-66.0525235706327
 20
-116.556292689661
 21
-116.796613300348
 62
7
  0
LINE
  6
BYLAYER
  8
0
 10
-66.0525235706327
 11
-65.9895464713961
 20
-116.796613300348
 21
-116.556292689661
 62
7
  0
LINE
  6
BYLAYER
  8
0
 10
-65.9895464713961
 11
-65.3499510515487
 20
-116.556292689661
 21
-114.159132384317
 62
7
  0
LINE
  6
BYLAYER
  8
0
 10
-65.3499510515487
 11
-65.2857144103274
 20
-114.159132384317
 21
-113.920071315615
 62
7
  0
LINE
  6
BYLAYER
  8
0
 10
-65.2857144103274
 11
-66.8233632652892
 20
-113.920071315615
 21
-113.920071315615
 62
7
  0
LINE
  6
BYLAYER
  8
0
 10
-43.8490655553656
 11
-66.1003861660526
 20
135.770020287438
 21
135.770020287438
 62
7
  0
LINE
  6
BYLAYER
  8
0
 10
-44.157905250022
 11
-68.3320426546022
 20
-116.608185819432
 21
-116.608185819432
 62
7
  0
LINE
  6
BYLAYER
  8
0
 10
226.869079482802
 11
226.869079482802
 20
78.493608073698
 21
77.3348294477438
 62
7
  0
LINE
  6
BYLAYER
  8
0
 10
226.869079482802
 11
226.319919177459
 20
77.3348294477438
 21
73.8584935698812
 62
7
  0
LINE
  6
BYLAYER
  8
0
 10
226.319919177459
 11
224.735415360665
 20
73.8584935698812
 21
69.5055164706446
 62
7
  0
LINE
  6
BYLAYER
  8
0
 10
224.735415360665
 11
222.206255055321
 20
69.5055164706446
 21
65.623608073698
 62
7
  0
LINE
  6
BYLAYER
  8
0
 10
222.206255055321
 11
219.76022452097
 20
65.623608073698
 21
63.0944477683545
 62
7
  0
LINE
  6
BYLAYER
  8
0
 10
219.76022452097
 11
218.833201620207
 20
63.0944477683545
 21
62.399180592782
 62
7
  0
LINE
  6
BYLAYER
  8
0
 10
218.833201620207
 11
217.896102383566
 20
62.399180592782
 21
61.6913179973621
 62
7
  0
LINE
  6
BYLAYER
  8
0
 10
217.896102383566
 11
214.737171085856
 20
61.6913179973621
 21
60.0262034935454
 62
7
  0
LINE
  6
BYLAYER
  8
0
 10
214.737171085856
 11
210.230529864482
 20
60.0262034935454
 21
58.6810126538507
 62
7
  0
LINE
  6
BYLAYER
  8
0
 10
210.230529864482
 11
205.534957345398
 20
58.6810126538507
 21
58.4039134172095
 62
7
  0
LINE
  6
BYLAYER
  8
0
 10
205.534957345398
 11
201.995644368299
 20
58.4039134172095
 21
58.8850584553774
 62
7
  0
LINE
  6
BYLAYER
  8
0
 10
201.995644368299
 11
200.872132917917
 20
58.8850584553774
 21
59.2276538752247
 62
7
  0
LINE
  6
BYLAYER
  8
0
 10
200.872132917917
 11
199.778850475169
 20
59.2276538752247
 21
59.5601729591942
 62
7
  0
LINE
  6
BYLAYER
  8
0
 10
199.778850475169
 11
196.652667269062
 20
59.5601729591942
 21
61.074142424843
 62
7
  0
LINE
  6
BYLAYER
  8
0
 10
196.652667269062
 11
192.979842841581
 20
61.074142424843
 21
63.8123866996522
 62
7
  0
LINE
  6
BYLAYER
  8
0
 10
192.979842841581
 11
190.009842841581
 20
63.8123866996522
 21
67.3013179973621
 62
7
  0
LINE
  6
BYLAYER
  8
0
 10
190.009842841581
 11
188.296865742344
 20
67.3013179973621
 21
70.3216996767515
 62
7
  0
LINE
  6
BYLAYER
  8
0
 10
188.296865742344
 11
187.89381230723
 20
70.3216996767515
 21
71.3897912798049
 62
7
  0
LINE
  6
BYLAYER
  8
0
 10
187.89381230723
 11
187.478163452268
 20
71.3897912798049
 21
72.4906309744614
 62
7
  0
LINE
  6
BYLAYER
  8
0
 10
187.478163452268
 11
186.765262688909
 20
72.4906309744614
 21
75.9946767759881
 62
7
  0
LINE
  6
BYLAYER
  8
0
 10
186.765262688909
 11
186.742590933184
 20
75.9946767759881
 21
80.7053637988889
 62
7
  0
LINE
  6
BYLAYER
  8
0
 10
186.742590933184
 11
187.795568032421
 20
80.7053637988889
 21
85.2951347912553
 62
7
  0
LINE
  6
BYLAYER
  8
0
 10
187.795568032421
 11
189.256636734711
 20
85.2951347912553
 21
88.5573485317133
 62
7
  0
LINE
  6
BYLAYER
  8
0
 10
189.256636734711
 11
189.904041314863
 20
88.5573485317133
 21
89.5397912798049
 62
7
  0
LINE
  6
BYLAYER
  8
0
 10
189.904041314863
 11
190.536331391199
 20
89.5397912798049
 21
90.5020813561408
 62
7
  0
LINE
  6
BYLAYER
  8
0
 10
190.536331391199
 11
192.88915581868
 20
90.5020813561408
 21
93.0967378446904
 62
7
  0
LINE
  6
BYLAYER
  8
0
 10
192.88915581868
 11
196.582132917917
 20
93.0967378446904
 21
95.8601729591942
 62
7
  0
LINE
  6
BYLAYER
  8
0
 10
196.582132917917
 11
200.801598566772
 20
95.8601729591942
 21
97.7268141805683
 62
7
  0
LINE
  6
BYLAYER
  8
0
 10
200.801598566772
 11
204.214957345398
 20
97.7268141805683
 21
98.5026920431637
 62
7
  0
LINE
  6
BYLAYER
  8
0
 10
204.214957345398
 11
205.366178719444
 20
98.5026920431637
 21
98.5807836462171
 62
7
  0
LINE
  6
BYLAYER
  8
0
 10
205.366178719444
 11
206.527476429367
 20
98.5807836462171
 21
98.6588752492706
 62
7
  0
LINE
  6
BYLAYER
  8
0
 10
206.527476429367
 11
210.05167490265
 20
98.6588752492706
 21
98.3414706691179
 62
7
  0
LINE
  6
BYLAYER
  8
0
 10
210.05167490265
 11
214.520529864482
 20
98.3414706691179
 21
97.044142424843
 62
7
  0
LINE
  6
BYLAYER
  8
0
 10
214.520529864482
 11
218.576255055322
 20
97.044142424843
 21
94.7643714324766
 62
7
  0
LINE
  6
BYLAYER
  8
0
 10
218.576255055322
 11
221.27167490265
 20
94.7643714324766
 21
92.4720050202629
 62
7
  0
LINE
  6
BYLAYER
  8
0
 10
221.27167490265
 11
222.029919177459
 20
92.4720050202629
 21
91.5878065469804
 62
7
  0
LINE
  6
BYLAYER
  8
0
 10
222.029919177459
 11
222.606789406467
 20
91.5878065469804
 21
90.9152111271331
 62
7
  0
LINE
  6
BYLAYER
  8
0
 10
222.606789406467
 11
224.09808711639
 20
90.9152111271331
 21
88.6833027301866
 62
7
  0
LINE
  6
BYLAYER
  8
0
 10
224.09808711639
 11
225.614575666009
 20
88.6833027301866
 21
85.4714706691178
 62
7
  0
LINE
  6
BYLAYER
  8
0
 10
225.614575666009
 11
226.55167490265
 20
85.4714706691178
 21
82.0455164706446
 62
7
  0
LINE
  6
BYLAYER
  8
0
 10
226.55167490265
 11
226.869079482802
 20
82.0455164706446
 21
79.38032563095
 62
7
  0
LINE
  6
BYLAYER
  8
0
 10
226.869079482802
 11
226.869079482802
 20
79.38032563095
 21
78.493608073698
 62
7
  0
LINE
  6
BYLAYER
  8
0
 10
223.075339024787
 11
223.075339024787
 20
78.493608073698
 21
77.3398676156827
 62
7
  0
LINE
  6
BYLAYER
  8
0
 10
223.075339024787
 11
222.397705437001
 20
77.3398676156827
 21
73.8786462416369
 62
7
  0
LINE
  6
BYLAYER
  8
0
 10
222.397705437001
 11
220.473125284329
 20
73.8786462416369
 21
69.691928684385
 62
7
  0
LINE
  6
BYLAYER
  8
0
 10
220.473125284329
 11
217.472896276696
 20
69.691928684385
 21
66.1904019668278
 62
7
  0
LINE
  6
BYLAYER
  8
0
 10
217.472896276696
 11
214.611216887383
 20
66.1904019668278
 21
64.1247531118659
 62
7
  0
LINE
  6
BYLAYER
  8
0
 10
214.611216887383
 11
213.563277956085
 20
64.1247531118659
 21
63.643608073698
 62
7
  0
LINE
  6
BYLAYER
  8
0
 10
213.563277956085
 11
212.50274360494
 20
63.643608073698
 21
63.1549057836217
 62
7
  0
LINE
  6
BYLAYER
  8
0
 10
212.50274360494
 11
209.026407727077
 20
63.1549057836217
 21
62.3261271576675
 62
7
  0
LINE
  6
BYLAYER
  8
0
 10
209.026407727077
 11
204.356026047688
 20
62.3261271576675
 21
62.3538370813316
 62
7
  0
LINE
  6
BYLAYER
  8
0
 10
204.356026047688
 11
199.877094749978
 20
62.3538370813316
 21
63.6763561653011
 62
7
  0
LINE
  6
BYLAYER
  8
0
 10
199.877094749978
 11
196.791216887383
 20
63.6763561653011
 21
65.4749821194995
 62
7
  0
LINE
  6
BYLAYER
  8
0
 10
196.791216887383
 11
195.917094749978
 20
65.4749821194995
 21
66.2483408981255
 62
7
  0
LINE
  6
BYLAYER
  8
0
 10
195.917094749978
 11
195.042972612573
 20
66.2483408981255
 21
67.0216996767515
 62
7
  0
LINE
  6
BYLAYER
  8
0
 10
195.042972612573
 11
192.881598566772
 20
67.0216996767515
 21
69.8581882263698
 62
7
  0
LINE
  6
BYLAYER
  8
0
 10
192.881598566772
 11
191.017476429367
 20
69.8581882263698
 21
74.1305546385835
 62
7
  0
LINE
  6
BYLAYER
  8
0
 10
191.017476429367
 11
190.410377192726
 20
74.1305546385835
 21
78.7505546385835
 62
7
  0
LINE
  6
BYLAYER
  8
0
 10
190.410377192726
 11
190.798316124024
 20
78.7505546385835
 21
82.2949057836217
 62
7
  0
LINE
  6
BYLAYER
  8
0
 10
190.798316124024
 11
191.150987879749
 20
82.2949057836217
 21
83.405821814156
 62
7
  0
LINE
  6
BYLAYER
  8
0
 10
191.150987879749
 11
191.496102383566
 20
83.405821814156
 21
84.5016233408736
 62
7
  0
LINE
  6
BYLAYER
  8
0
 10
191.496102383566
 11
193.17129322326
 20
84.5016233408736
 21
87.5824630355301
 62
7
  0
LINE
  6
BYLAYER
  8
0
 10
193.17129322326
 11
196.247094749978
 20
87.5824630355301
 21
90.9907836462171
 62
7
  0
LINE
  6
BYLAYER
  8
0
 10
196.247094749978
 11
200.136560398833
 20
90.9907836462171
 21
93.4292569286598
 62
7
  0
LINE
  6
BYLAYER
  8
0
 10
200.136560398833
 11
203.461751238528
 20
93.4292569286598
 21
94.5452111271331
 62
7
  0
LINE
  6
BYLAYER
  8
0
 10
203.461751238528
 11
204.600377192726
 20
94.5452111271331
 21
94.6938370813316
 62
7
  0
LINE
  6
BYLAYER
  8
0
 10
204.600377192726
 11
205.751598566772
 20
94.6938370813316
 21
94.8424630355301
 62
7
  0
LINE
  6
BYLAYER
  8
0
 10
205.751598566772
 11
209.293430627841
 20
94.8424630355301
 21
94.6157454782782
 62
7
  0
LINE
  6
BYLAYER
  8
0
 10
209.293430627841
 11
213.719461162192
 20
94.6157454782782
 21
93.2378065469805
 62
7
  0
LINE
  6
BYLAYER
  8
0
 10
213.719461162192
 11
217.588774139291
 20
93.2378065469805
 21
90.6910126538507
 62
7
  0
LINE
  6
BYLAYER
  8
0
 10
217.588774139291
 11
220.012132917917
 20
90.6910126538507
 21
88.0938370813316
 62
7
  0
LINE
  6
BYLAYER
  8
0
 10
220.012132917917
 11
220.624270322497
 20
88.0938370813316
 21
87.1088752492705
 62
7
  0
LINE
  6
BYLAYER
  8
0
 10
220.624270322497
 11
221.024804673642
 20
87.1088752492705
 21
86.4639897530874
 62
7
  0
LINE
  6
BYLAYER
  8
0
 10
221.024804673642
 11
222.45060620036
 20
86.4639897530874
 21
82.972539371408
 62
7
  0
LINE
  6
BYLAYER
  8
0
 10
222.45060620036
 11
223.075339024787
 20
82.972539371408
 21
79.6120813561408
 62
7
  0
LINE
  6
BYLAYER
  8
0
 10
223.075339024787
 11
223.075339024787
 20
79.6120813561408
 21
78.493608073698
 62
7
  0
LINE
  6
BYLAYER
  8
0
 10
228.257094749978
 11
228.257094749978
 20
-9.46373543775235
 21
-9.62646826217986
 62
7
  0
LINE
  6
BYLAYER
  8
0
 10
228.257094749978
 11
228.121064215627
 20
-9.62646826217986
 21
-10.1141629186684
 62
7
  0
LINE
  6
BYLAYER
  8
0
 10
228.121064215627
 11
227.758316124024
 20
-10.1141629186684
 21
-10.6502239873707
 62
7
  0
LINE
  6
BYLAYER
  8
0
 10
227.758316124024
 11
227.221751238528
 20
-10.6502239873707
 21
-11.0137278041646
 62
7
  0
LINE
  6
BYLAYER
  8
0
 10
227.221751238528
 11
226.735568032421
 20
-11.0137278041646
 21
-11.148750704928
 62
7
  0
LINE
  6
BYLAYER
  8
0
 10
226.735568032421
 11
226.571827574405
 20
-11.148750704928
 21
-11.148750704928
 62
7
  0
LINE
  6
BYLAYER
  8
0
 10
226.571827574405
 11
226.40808711639
 20
-11.148750704928
 21
-11.148750704928
 62
7
  0
LINE
  6
BYLAYER
  8
0
 10
226.40808711639
 11
225.919384826314
 20
-11.148750704928
 21
-11.0137278041646
 62
7
  0
LINE
  6
BYLAYER
  8
0
 10
225.919384826314
 11
225.382819940818
 20
-11.0137278041646
 21
-10.6502239873707
 62
7
  0
LINE
  6
BYLAYER
  8
0
 10
225.382819940818
 11
225.020071849215
 20
-10.6502239873707
 21
-10.1141629186684
 62
7
  0
LINE
  6
BYLAYER
  8
0
 10
225.020071849215
 11
224.886560398833
 20
-10.1141629186684
 21
-9.62646826217986
 62
7
  0
LINE
  6
BYLAYER
  8
0
 10
224.886560398833
 11
224.886560398833
 20
-9.62646826217986
 21
-9.46373543775235
 62
7
  0
LINE
  6
BYLAYER
  8
0
 10
224.886560398833
 11
224.886560398833
 20
-9.46373543775235
 21
-9.29974307134017
 62
7
  0
LINE
  6
BYLAYER
  8
0
 10
224.886560398833
 11
225.020071849215
 20
-9.29974307134017
 21
-8.8120484148516
 62
7
  0
LINE
  6
BYLAYER
  8
0
 10
225.020071849215
 11
225.382819940818
 20
-8.8120484148516
 21
-8.27598734614935
 62
7
  0
LINE
  6
BYLAYER
  8
0
 10
225.382819940818
 11
225.919384826314
 20
-8.27598734614935
 21
-7.91248352935543
 62
7
  0
LINE
  6
BYLAYER
  8
0
 10
225.919384826314
 11
226.40808711639
 20
-7.91248352935543
 21
-7.7787201705768
 62
7
  0
LINE
  6
BYLAYER
  8
0
 10
226.40808711639
 11
226.571827574405
 20
-7.7787201705768
 21
-7.7787201705768
 62
7
  0
LINE
  6
BYLAYER
  8
0
 10
226.571827574405
 11
226.735568032421
 20
-7.7787201705768
 21
-7.7787201705768
 62
7
  0
LINE
  6
BYLAYER
  8
0
 10
226.735568032421
 11
227.221751238528
 20
-7.7787201705768
 21
-7.91248352935543
 62
7
  0
LINE
  6
BYLAYER
  8
0
 10
227.221751238528
 11
227.758316124024
 20
-7.91248352935543
 21
-8.27598734614935
 62
7
  0
LINE
  6
BYLAYER
  8
0
 10
227.758316124024
 11
228.121064215627
 20
-8.27598734614935
 21
-8.8120484148516
 62
7
  0
LINE
  6
BYLAYER
  8
0
 10
228.121064215627
 11
228.257094749978
 20
-8.8120484148516
 21
-9.29974307134017
 62
7
  0
LINE
  6
BYLAYER
  8
0
 10
228.257094749978
 11
228.257094749978
 20
-9.29974307134017
 21
-9.46373543775235
 62
7
  0
LINE
  6
BYLAYER
  8
0
 10
218.339461162192
 11
218.339461162192
 20
-9.46373543775235
 21
-9.62646826217986
 62
7
  0
LINE
  6
BYLAYER
  8
0
 10
218.339461162192
 11
218.203430627841
 20
-9.62646826217986
 21
-10.1141629186684
 62
7
  0
LINE
  6
BYLAYER
  8
0
 10
218.203430627841
 11
217.840682536238
 20
-10.1141629186684
 21
-10.6502239873707
 62
7
  0
LINE
  6
BYLAYER
  8
0
 10
217.840682536238
 11
217.304117650741
 20
-10.6502239873707
 21
-11.0137278041646
 62
7
  0
LINE
  6
BYLAYER
  8
0
 10
217.304117650741
 11
216.815415360665
 20
-11.0137278041646
 21
-11.148750704928
 62
7
  0
LINE
  6
BYLAYER
  8
0
 10
216.815415360665
 11
216.65167490265
 20
-11.148750704928
 21
-11.148750704928
 62
7
  0
LINE
  6
BYLAYER
  8
0
 10
216.65167490265
 11
216.487934444634
 20
-11.148750704928
 21
-11.148750704928
 62
7
  0
LINE
  6
BYLAYER
  8
0
 10
216.487934444634
 11
216.001751238528
 20
-11.148750704928
 21
-11.0137278041646
 62
7
  0
LINE
  6
BYLAYER
  8
0
 10
216.001751238528
 11
215.465186353031
 20
-11.0137278041646
 21
-10.6502239873707
 62
7
  0
LINE
  6
BYLAYER
  8
0
 10
215.465186353031
 11
215.102438261428
 20
-10.6502239873707
 21
-10.1141629186684
 62
7
  0
LINE
  6
BYLAYER
  8
0
 10
215.102438261428
 11
214.968926811047
 20
-10.1141629186684
 21
-9.62646826217986
 62
7
  0
LINE
  6
BYLAYER
  8
0
 10
214.968926811047
 11
214.968926811047
 20
-9.62646826217986
 21
-9.46373543775235
 62
7
  0
LINE
  6
BYLAYER
  8
0
 10
214.968926811047
 11
214.968926811047
 20
-9.46373543775235
 21
-9.29974307134017
 62
7
  0
LINE
  6
BYLAYER
  8
0
 10
214.968926811047
 11
215.102438261428
 20
-9.29974307134017
 21
-8.8120484148516
 62
7
  0
LINE
  6
BYLAYER
  8
0
 10
215.102438261428
 11
215.465186353031
 20
-8.8120484148516
 21
-8.27598734614935
 62
7
  0
LINE
  6
BYLAYER
  8
0
 10
215.465186353031
 11
216.001751238528
 20
-8.27598734614935
 21
-7.91248352935543
 62
7
  0
LINE
  6
BYLAYER
  8
0
 10
216.001751238528
 11
216.487934444634
 20
-7.91248352935543
 21
-7.7787201705768
 62
7
  0
LINE
  6
BYLAYER
  8
0
 10
216.487934444634
 11
216.65167490265
 20
-7.7787201705768
 21
-7.7787201705768
 62
7
  0
LINE
  6
BYLAYER
  8
0
 10
216.65167490265
 11
216.815415360665
 20
-7.7787201705768
 21
-7.7787201705768
 62
7
  0
LINE
  6
BYLAYER
  8
0
 10
216.815415360665
 11
217.304117650741
 20
-7.7787201705768
 21
-7.91248352935543
 62
7
  0
LINE
  6
BYLAYER
  8
0
 10
217.304117650741
 11
217.840682536238
 20
-7.91248352935543
 21
-8.27598734614935
 62
7
  0
LINE
  6
BYLAYER
  8
0
 10
217.840682536238
 11
218.203430627841
 20
-8.27598734614935
 21
-8.8120484148516
 62
7
  0
LINE
  6
BYLAYER
  8
0
 10
218.203430627841
 11
218.339461162192
 20
-8.8120484148516
 21
-9.29974307134017
 62
7
  0
LINE
  6
BYLAYER
  8
0
 10
218.339461162192
 11
218.339461162192
 20
-9.29974307134017
 21
-9.46373543775235
 62
7
  0
LINE
  6
BYLAYER
  8
0
 10
208.424346658375
 11
208.424346658375
 20
-9.46373543775235
 21
-9.62646826217986
 62
7
  0
LINE
  6
BYLAYER
  8
0
 10
208.424346658375
 11
208.288316124024
 20
-9.62646826217986
 21
-10.1141629186684
 62
7
  0
LINE
  6
BYLAYER
  8
0
 10
208.288316124024
 11
207.925568032421
 20
-10.1141629186684
 21
-10.6502239873707
 62
7
  0
LINE
  6
BYLAYER
  8
0
 10
207.925568032421
 11
207.389003146925
 20
-10.6502239873707
 21
-11.0137278041646
 62
7
  0
LINE
  6
BYLAYER
  8
0
 10
207.389003146925
 11
206.900300856848
 20
-11.0137278041646
 21
-11.148750704928
 62
7
  0
LINE
  6
BYLAYER
  8
0
 10
206.900300856848
 11
206.736560398833
 20
-11.148750704928
 21
-11.148750704928
 62
7
  0
LINE
  6
BYLAYER
  8
0
 10
206.736560398833
 11
206.572819940818
 20
-11.148750704928
 21
-11.148750704928
 62
7
  0
LINE
  6
BYLAYER
  8
0
 10
206.572819940818
 11
206.086636734711
 20
-11.148750704928
 21
-11.0137278041646
 62
7
  0
LINE
  6
BYLAYER
  8
0
 10
206.086636734711
 11
205.550071849215
 20
-11.0137278041646
 21
-10.6502239873707
 62
7
  0
LINE
  6
BYLAYER
  8
0
 10
205.550071849215
 11
205.187323757612
 20
-10.6502239873707
 21
-10.1141629186684
 62
7
  0
LINE
  6
BYLAYER
  8
0
 10
205.187323757612
 11
205.05381230723
 20
-10.1141629186684
 21
-9.62646826217986
 62
7
  0
LINE
  6
BYLAYER
  8
0
 10
205.05381230723
 11
205.05381230723
 20
-9.62646826217986
 21
-9.46373543775235
 62
7
  0
LINE
  6
BYLAYER
  8
0
 10
205.05381230723
 11
205.05381230723
 20
-9.46373543775235
 21
-9.29974307134017
 62
7
  0
LINE
  6
BYLAYER
  8
0
 10
205.05381230723
 11
205.187323757612
 20
-9.29974307134017
 21
-8.8120484148516
 62
7
  0
LINE
  6
BYLAYER
  8
0
 10
205.187323757612
 11
205.550071849215
 20
-8.8120484148516
 21
-8.27598734614935
 62
7
  0
LINE
  6
BYLAYER
  8
0
 10
205.550071849215
 11
206.086636734711
 20
-8.27598734614935
 21
-7.91248352935543
 62
7
  0
LINE
  6
BYLAYER
  8
0
 10
206.086636734711
 11
206.572819940818
 20
-7.91248352935543
 21
-7.7787201705768
 62
7
  0
LINE
  6
BYLAYER
  8
0
 10
206.572819940818
 11
206.736560398833
 20
-7.7787201705768
 21
-7.7787201705768
 62
7
  0
LINE
  6
BYLAYER
  8
0
 10
206.736560398833
 11
206.900300856848
 20
-7.7787201705768
 21
-7.7787201705768
 62
7
  0
LINE
  6
BYLAYER
  8
0
 10
206.900300856848
 11
207.389003146925
 20
-7.7787201705768
 21
-7.91248352935543
 62
7
  0
LINE
  6
BYLAYER
  8
0
 10
207.389003146925
 11
207.925568032421
 20
-7.91248352935543
 21
-8.27598734614935
 62
7
  0
LINE
  6
BYLAYER
  8
0
 10
207.925568032421
 11
208.288316124024
 20
-8.27598734614935
 21
-8.8120484148516
 62
7
  0
LINE
  6
BYLAYER
  8
0
 10
208.288316124024
 11
208.424346658375
 20
-8.8120484148516
 21
-9.29974307134017
 62
7
  0
LINE
  6
BYLAYER
  8
0
 10
208.424346658375
 11
208.424346658375
 20
-9.29974307134017
 21
-9.46373543775235
 62
7
  0
LINE
  6
BYLAYER
  8
0
 10
198.504193986619
 11
198.504193986619
 20
-9.46373543775235
 21
-9.62646826217986
 62
7
  0
LINE
  6
BYLAYER
  8
0
 10
198.504193986619
 11
198.368163452268
 20
-9.62646826217986
 21
-10.1141629186684
 62
7
  0
LINE
  6
BYLAYER
  8
0
 10
198.368163452268
 11
198.005415360665
 20
-10.1141629186684
 21
-10.6502239873707
 62
7
  0
LINE
  6
BYLAYER
  8
0
 10
198.005415360665
 11
197.468850475169
 20
-10.6502239873707
 21
-11.0137278041646
 62
7
  0
LINE
  6
BYLAYER
  8
0
 10
197.468850475169
 11
196.980148185092
 20
-11.0137278041646
 21
-11.148750704928
 62
7
  0
LINE
  6
BYLAYER
  8
0
 10
196.980148185092
 11
196.818926811047
 20
-11.148750704928
 21
-11.148750704928
 62
7
  0
LINE
  6
BYLAYER
  8
0
 10
196.818926811047
 11
196.655186353031
 20
-11.148750704928
 21
-11.148750704928
 62
7
  0
LINE
  6
BYLAYER
  8
0
 10
196.655186353031
 11
196.166484062955
 20
-11.148750704928
 21
-11.0137278041646
 62
7
  0
LINE
  6
BYLAYER
  8
0
 10
196.166484062955
 11
195.629919177459
 20
-11.0137278041646
 21
-10.6502239873707
 62
7
  0
LINE
  6
BYLAYER
  8
0
 10
195.629919177459
 11
195.267171085856
 20
-10.6502239873707
 21
-10.1141629186684
 62
7
  0
LINE
  6
BYLAYER
  8
0
 10
195.267171085856
 11
195.133659635474
 20
-10.1141629186684
 21
-9.62646826217986
 62
7
  0
LINE
  6
BYLAYER
  8
0
 10
195.133659635474
 11
195.133659635474
 20
-9.62646826217986
 21
-9.46373543775235
 62
7
  0
LINE
  6
BYLAYER
  8
0
 10
195.133659635474
 11
195.133659635474
 20
-9.46373543775235
 21
-9.29974307134017
 62
7
  0
LINE
  6
BYLAYER
  8
0
 10
195.133659635474
 11
195.267171085856
 20
-9.29974307134017
 21
-8.8120484148516
 62
7
  0
LINE
  6
BYLAYER
  8
0
 10
195.267171085856
 11
195.629919177459
 20
-8.8120484148516
 21
-8.27598734614935
 62
7
  0
LINE
  6
BYLAYER
  8
0
 10
195.629919177459
 11
196.166484062955
 20
-8.27598734614935
 21
-7.91248352935543
 62
7
  0
LINE
  6
BYLAYER
  8
0
 10
196.166484062955
 11
196.655186353031
 20
-7.91248352935543
 21
-7.7787201705768
 62
7
  0
LINE
  6
BYLAYER
  8
0
 10
196.655186353031
 11
196.818926811047
 20
-7.7787201705768
 21
-7.7787201705768
 62
7
  0
LINE
  6
BYLAYER
  8
0
 10
196.818926811047
 11
196.980148185092
 20
-7.7787201705768
 21
-7.7787201705768
 62
7
  0
LINE
  6
BYLAYER
  8
0
 10
196.980148185092
 11
197.468850475169
 20
-7.7787201705768
 21
-7.91248352935543
 62
7
  0
LINE
  6
BYLAYER
  8
0
 10
197.468850475169
 11
198.005415360665
 20
-7.91248352935543
 21
-8.27598734614935
 62
7
  0
LINE
  6
BYLAYER
  8
0
 10
198.005415360665
 11
198.368163452268
 20
-8.27598734614935
 21
-8.8120484148516
 62
7
  0
LINE
  6
BYLAYER
  8
0
 10
198.368163452268
 11
198.504193986619
 20
-8.8120484148516
 21
-9.29974307134017
 62
7
  0
LINE
  6
BYLAYER
  8
0
 10
198.504193986619
 11
198.504193986619
 20
-9.29974307134017
 21
-9.46373543775235
 62
7
  0
LINE
  6
BYLAYER
  8
0
 10
188.584041314864
 11
188.584041314864
 20
-9.46373543775235
 21
-9.62646826217986
 62
7
  0
LINE
  6
BYLAYER
  8
0
 10
188.584041314864
 11
188.450529864482
 20
-9.62646826217986
 21
-10.1141629186684
 62
7
  0
LINE
  6
BYLAYER
  8
0
 10
188.450529864482
 11
188.087781772879
 20
-10.1141629186684
 21
-10.6502239873707
 62
7
  0
LINE
  6
BYLAYER
  8
0
 10
188.087781772879
 11
187.548697803413
 20
-10.6502239873707
 21
-11.0137278041646
 62
7
  0
LINE
  6
BYLAYER
  8
0
 10
187.548697803413
 11
187.062514597306
 20
-11.0137278041646
 21
-11.148750704928
 62
7
  0
LINE
  6
BYLAYER
  8
0
 10
187.062514597306
 11
186.898774139291
 20
-11.148750704928
 21
-11.148750704928
 62
7
  0
LINE
  6
BYLAYER
  8
0
 10
186.898774139291
 11
186.735033681276
 20
-11.148750704928
 21
-11.148750704928
 62
7
  0
LINE
  6
BYLAYER
  8
0
 10
186.735033681276
 11
186.246331391199
 20
-11.148750704928
 21
-11.0137278041646
 62
7
  0
LINE
  6
BYLAYER
  8
0
 10
186.246331391199
 11
185.712285589673
 20
-11.0137278041646
 21
-10.6502239873707
 62
7
  0
LINE
  6
BYLAYER
  8
0
 10
185.712285589673
 11
185.3470184141
 20
-10.6502239873707
 21
-10.1141629186684
 62
7
  0
LINE
  6
BYLAYER
  8
0
 10
185.3470184141
 11
185.213506963718
 20
-10.1141629186684
 21
-9.62646826217986
 62
7
  0
LINE
  6
BYLAYER
  8
0
 10
185.213506963718
 11
185.213506963718
 20
-9.62646826217986
 21
-9.46373543775235
 62
7
  0
LINE
  6
BYLAYER
  8
0
 10
185.213506963718
 11
185.213506963718
 20
-9.46373543775235
 21
-9.29974307134017
 62
7
  0
LINE
  6
BYLAYER
  8
0
 10
185.213506963718
 11
185.3470184141
 20
-9.29974307134017
 21
-8.8120484148516
 62
7
  0
LINE
  6
BYLAYER
  8
0
 10
185.3470184141
 11
185.712285589673
 20
-8.8120484148516
 21
-8.27598734614935
 62
7
  0
LINE
  6
BYLAYER
  8
0
 10
185.712285589673
 11
186.246331391199
 20
-8.27598734614935
 21
-7.91248352935543
 62
7
  0
LINE
  6
BYLAYER
  8
0
 10
186.246331391199
 11
186.735033681276
 20
-7.91248352935543
 21
-7.7787201705768
 62
7
  0
LINE
  6
BYLAYER
  8
0
 10
186.735033681276
 11
186.898774139291
 20
-7.7787201705768
 21
-7.7787201705768
 62
7
  0
LINE
  6
BYLAYER
  8
0
 10
186.898774139291
 11
187.062514597306
 20
-7.7787201705768
 21
-7.7787201705768
 62
7
  0
LINE
  6
BYLAYER
  8
0
 10
187.062514597306
 11
187.548697803413
 20
-7.7787201705768
 21
-7.91248352935543
 62
7
  0
LINE
  6
BYLAYER
  8
0
 10
187.548697803413
 11
188.087781772879
 20
-7.91248352935543
 21
-8.27598734614935
 62
7
  0
LINE
  6
BYLAYER
  8
0
 10
188.087781772879
 11
188.450529864482
 20
-8.27598734614935
 21
-8.8120484148516
 62
7
  0
LINE
  6
BYLAYER
  8
0
 10
188.450529864482
 11
188.584041314864
 20
-8.8120484148516
 21
-9.29974307134017
 62
7
  0
LINE
  6
BYLAYER
  8
0
 10
188.584041314864
 11
188.584041314864
 20
-9.29974307134017
 21
-9.46373543775235
 62
7
  0
LINE
  6
BYLAYER
  8
0
 10
235.766484062955
 11
231.753583299596
 20
102.419867615683
 21
102.419867615683
 62
7
  0
LINE
  6
BYLAYER
  8
0
 10
231.753583299596
 11
221.639461162192
 20
102.419867615683
 21
102.419867615683
 62
7
  0
LINE
  6
BYLAYER
  8
0
 10
221.639461162192
 11
208.310987879749
 20
102.419867615683
 21
102.419867615683
 62
7
  0
LINE
  6
BYLAYER
  8
0
 10
208.310987879749
 11
194.660071849215
 20
102.419867615683
 21
102.419867615683
 62
7
  0
LINE
  6
BYLAYER
  8
0
 10
194.660071849215
 11
183.568545131657
 20
102.419867615683
 21
102.419867615683
 62
7
  0
LINE
  6
BYLAYER
  8
0
 10
183.568545131657
 11
177.930835207993
 20
102.419867615683
 21
102.419867615683
 62
7
  0
LINE
  6
BYLAYER
  8
0
 10
177.930835207993
 11
177.882972612573
 20
102.419867615683
 21
102.419867615683
 62
7
  0
LINE
  6
BYLAYER
  8
0
 10
177.882972612573
 11
177.739384826314
 20
102.419867615683
 21
102.414829447744
 62
7
  0
LINE
  6
BYLAYER
  8
0
 10
177.739384826314
 11
177.70915581868
 20
102.414829447744
 21
102.293913417209
 62
7
  0
LINE
  6
BYLAYER
  8
0
 10
177.70915581868
 11
177.70915581868
 20
102.293913417209
 21
102.253608073698
 62
7
  0
LINE
  6
BYLAYER
  8
0
 10
177.70915581868
 11
177.70915581868
 20
102.253608073698
 21
101.140172959194
 62
7
  0
LINE
  6
BYLAYER
  8
0
 10
177.70915581868
 11
177.70915581868
 20
101.140172959194
 21
96.0818523485072
 62
7
  0
LINE
  6
BYLAYER
  8
0
 10
177.70915581868
 11
177.70915581868
 20
96.0818523485072
 21
87.8343714324767
 62
7
  0
LINE
  6
BYLAYER
  8
0
 10
177.70915581868
 11
177.70915581868
 20
87.8343714324767
 21
77.103073722553
 62
7
  0
LINE
  6
BYLAYER
  8
0
 10
177.70915581868
 11
177.70915581868
 20
77.103073722553
 21
64.5882645622476
 62
7
  0
LINE
  6
BYLAYER
  8
0
 10
177.70915581868
 11
177.70915581868
 20
64.5882645622476
 21
50.9978065469805
 62
7
  0
LINE
  6
BYLAYER
  8
0
 10
177.70915581868
 11
177.70915581868
 20
50.9978065469805
 21
37.0325088370568
 62
7
  0
LINE
  6
BYLAYER
  8
0
 10
177.70915581868
 11
177.70915581868
 20
37.0325088370568
 21
23.3997302111026
 62
7
  0
LINE
  6
BYLAYER
  8
0
 10
177.70915581868
 11
177.70915581868
 20
23.3997302111026
 21
10.8015393714079
 62
7
  0
LINE
  6
BYLAYER
  8
0
 10
177.70915581868
 11
177.70915581868
 20
10.8015393714079
 21
-0.0582316209584803
 62
7
  0
LINE
  6
BYLAYER
  8
0
 10
177.70915581868
 11
177.70915581868
 20
-0.0582316209584803
 21
-8.47423925454629
 62
7
  0
LINE
  6
BYLAYER
  8
0
 10
177.70915581868
 11
177.70915581868
 20
-8.47423925454629
 21
-13.7426514682867
 62
7
  0
LINE
  6
BYLAYER
  8
0
 10
177.70915581868
 11
177.70915581868
 20
-13.7426514682867
 21
-14.9785140637066
 62
7
  0
LINE
  6
BYLAYER
  8
0
 10
177.70915581868
 11
177.70915581868
 20
-14.9785140637066
 21
-15.0246133003478
 62
7
  0
LINE
  6
BYLAYER
  8
0
 10
177.70915581868
 11
177.701598566772
 20
-15.0246133003478
 21
-15.1656820026379
 62
7
  0
LINE
  6
BYLAYER
  8
0
 10
177.701598566772
 11
177.797323757612
 20
-15.1656820026379
 21
-15.2231171171417
 62
7
  0
LINE
  6
BYLAYER
  8
0
 10
177.797323757612
 11
177.830071849215
 20
-15.2231171171417
 21
-15.2231171171417
 62
7
  0
LINE
  6
BYLAYER
  8
0
 10
177.830071849215
 11
183.049613833947
 20
-15.2231171171417
 21
-15.2231171171417
 62
7
  0
LINE
  6
BYLAYER
  8
0
 10
183.049613833947
 11
193.891751238528
 20
-15.2231171171417
 21
-15.2231171171417
 62
7
  0
LINE
  6
BYLAYER
  8
0
 10
193.891751238528
 11
207.472132917917
 20
-15.2231171171417
 21
-15.2231171171417
 62
7
  0
LINE
  6
BYLAYER
  8
0
 10
207.472132917917
 11
220.901369559138
 20
-15.2231171171417
 21
-15.2231171171417
 62
7
  0
LINE
  6
BYLAYER
  8
0
 10
220.901369559138
 11
231.290071849215
 20
-15.2231171171417
 21
-15.2231171171417
 62
7
  0
LINE
  6
BYLAYER
  8
0
 10
231.290071849215
 11
235.751369559138
 20
-15.2231171171417
 21
-15.2231171171417
 62
7
  0
LINE
  6
BYLAYER
  8
0
 10
235.751369559138
 11
235.756407727077
 20
-15.2231171171417
 21
-15.2231171171417
 62
7
  0
LINE
  6
BYLAYER
  8
0
 10
235.756407727077
 11
235.766484062955
 20
-15.2231171171417
 21
-14.9470255140883
 62
7
  0
LINE
  6
BYLAYER
  8
0
 10
235.766484062955
 11
235.771522230894
 20
-14.9470255140883
 21
-14.3318652087447
 62
7
  0
LINE
  6
BYLAYER
  8
0
 10
235.771522230894
 11
235.766484062955
 20
-14.3318652087447
 21
-13.6965522316455
 62
7
  0
LINE
  6
BYLAYER
  8
0
 10
235.766484062955
 11
235.766484062955
 20
-13.6965522316455
 21
-13.4421247507294
 62
7
  0
LINE
  6
BYLAYER
  8
0
 10
235.766484062955
 11
235.766484062955
 20
-13.4421247507294
 21
-13.3589949797371
 62
7
  0
LINE
  6
BYLAYER
  8
0
 10
235.766484062955
 11
235.766484062955
 20
-13.3589949797371
 21
-7.72657513240887
 62
7
  0
LINE
  6
BYLAYER
  8
0
 10
235.766484062955
 11
235.766484062955
 20
-7.72657513240887
 21
0.979127157667449
 62
7
  0
LINE
  6
BYLAYER
  8
0
 10
235.766484062955
 11
235.766484062955
 20
0.979127157667449
 21
12.0547836462171
 62
7
  0
LINE
  6
BYLAYER
  8
0
 10
235.766484062955
 11
235.766484062955
 20
12.0547836462171
 21
24.7950508217896
 62
7
  0
LINE
  6
BYLAYER
  8
0
 10
235.766484062955
 11
235.766484062955
 20
24.7950508217896
 21
38.4960966233163
 62
7
  0
LINE
  6
BYLAYER
  8
0
 10
235.766484062955
 11
235.766484062955
 20
38.4960966233163
 21
52.4538370813316
 62
7
  0
LINE
  6
BYLAYER
  8
0
 10
235.766484062955
 11
235.766484062955
 20
52.4538370813316
 21
65.9662034935454
 62
7
  0
LINE
  6
BYLAYER
  8
0
 10
235.766484062955
 11
235.766484062955
 20
65.9662034935454
 21
78.3248294477438
 62
7
  0
LINE
  6
BYLAYER
  8
0
 10
235.766484062955
 11
235.766484062955
 20
78.3248294477438
 21
88.8294096004156
 62
7
  0
LINE
  6
BYLAYER
  8
0
 10
235.766484062955
 11
235.766484062955
 20
88.8294096004156
 21
96.7746004401103
 62
7
  0
LINE
  6
BYLAYER
  8
0
 10
235.766484062955
 11
235.766484062955
 20
96.7746004401103
 21
101.457577539347
 62
7
  0
LINE
  6
BYLAYER
  8
0
 10
235.766484062955
 11
235.766484062955
 20
101.457577539347
 21
102.419867615683
 62
7
  0
LINE
  6
BYLAYER
  8
0
 10
177.731827574405
 11
177.731827574405
 20
-95.1168728423326
 21
-75.6020331476761
 62
7
  0
LINE
  6
BYLAYER
  8
0
 10
177.731827574405
 11
177.731827574405
 20
-75.6020331476761
 21
-55.9423461247753
 62
7
  0
LINE
  6
BYLAYER
  8
0
 10
235.517094749978
 11
235.544804673642
 20
-55.9423461247753
 21
-55.9423461247753
 62
7
  0
LINE
  6
BYLAYER
  8
0
 10
235.544804673642
 11
235.635491696543
 20
-55.9423461247753
 21
-55.9352926896608
 62
7
  0
LINE
  6
BYLAYER
  8
0
 10
235.635491696543
 11
235.74129322326
 20
-55.9352926896608
 21
-55.953178185844
 62
7
  0
LINE
  6
BYLAYER
  8
0
 10
235.74129322326
 11
235.74129322326
 20
-55.953178185844
 21
-55.9597278041646
 62
7
  0
LINE
  6
BYLAYER
  8
0
 10
235.74129322326
 11
235.74129322326
 20
-55.9597278041646
 21
-57.9498041400425
 62
7
  0
LINE
  6
BYLAYER
  8
0
 10
235.74129322326
 11
235.74129322326
 20
-57.9498041400425
 21
-68.9750789492028
 62
7
  0
LINE
  6
BYLAYER
  8
0
 10
235.74129322326
 11
235.74129322326
 20
-68.9750789492028
 21
-93.6872926896608
 62
7
  0
LINE
  6
BYLAYER
  8
0
 10
235.74129322326
 11
235.74129322326
 20
-93.6872926896608
 21
-93.7502697888974
 62
7
  0
LINE
  6
BYLAYER
  8
0
 10
235.74129322326
 11
235.74129322326
 20
-93.7502697888974
 21
-93.9429797125615
 62
7
  0
LINE
  6
BYLAYER
  8
0
 10
235.74129322326
 11
235.74129322326
 20
-93.9429797125615
 21
-94.4306743690501
 62
7
  0
LINE
  6
BYLAYER
  8
0
 10
235.74129322326
 11
235.74129322326
 20
-94.4306743690501
 21
-94.9037583385157
 62
7
  0
LINE
  6
BYLAYER
  8
0
 10
235.74129322326
 11
235.738774139291
 20
-94.9037583385157
 21
-95.1168728423326
 62
7
  0
LINE
  6
BYLAYER
  8
0
 10
235.738774139291
 11
235.738774139291
 20
-95.1168728423326
 21
-95.1168728423326
 62
7
  0
LINE
  6
BYLAYER
  8
0
 10
235.738774139291
 11
235.421369559138
 20
-95.1168728423326
 21
-95.1168728423326
 62
7
  0
LINE
  6
BYLAYER
  8
0
 10
235.421369559138
 11
233.29274360494
 20
-95.1168728423326
 21
-95.1168728423326
 62
7
  0
LINE
  6
BYLAYER
  8
0
 10
233.29274360494
 11
224.322285589673
 20
-95.1168728423326
 21
-95.1168728423326
 62
7
  0
LINE
  6
BYLAYER
  8
0
 10
224.322285589673
 11
211.472438261428
 20
-95.1168728423326
 21
-95.1168728423326
 62
7
  0
LINE
  6
BYLAYER
  8
0
 10
211.472438261428
 11
197.640148185093
 20
-95.1168728423326
 21
-95.1168728423326
 62
7
  0
LINE
  6
BYLAYER
  8
0
 10
197.640148185093
 11
185.719842841581
 20
-95.1168728423326
 21
-95.1168728423326
 62
7
  0
LINE
  6
BYLAYER
  8
0
 10
185.719842841581
 11
178.598392459902
 20
-95.1168728423326
 21
-95.1168728423326
 62
7
  0
LINE
  6
BYLAYER
  8
0
 10
178.598392459902
 11
177.731827574405
 20
-95.1168728423326
 21
-95.1168728423326
 62
7
  0
LINE
  6
BYLAYER
  8
0
 10
177.228010780512
 11
236.242590933184
 20
-94.9667354377524
 21
-94.9667354377524
 62
7
  0
LINE
  6
BYLAYER
  8
0
 10
177.734346658375
 11
177.734346658375
 20
-55.6400560484394
 21
-36.1252163537829
 62
7
  0
LINE
  6
BYLAYER
  8
0
 10
177.734346658375
 11
177.734346658375
 20
-36.1252163537829
 21
-16.4640178805005
 62
7
  0
LINE
  6
BYLAYER
  8
0
 10
177.734346658375
 11
177.734346658375
 20
-16.4640178805005
 21
-16.4640178805005
 62
7
  0
LINE
  6
BYLAYER
  8
0
 10
177.734346658375
 11
177.895568032421
 20
-16.4640178805005
 21
-16.4627583385158
 62
7
  0
LINE
  6
BYLAYER
  8
0
 10
177.895568032421
 11
178.326331391199
 20
-16.4627583385158
 21
-16.4627583385158
 62
7
  0
LINE
  6
BYLAYER
  8
0
 10
178.326331391199
 11
178.93846879578
 20
-16.4627583385158
 21
-16.4627583385158
 62
7
  0
LINE
  6
BYLAYER
  8
0
 10
178.93846879578
 11
179.646331391199
 20
-16.4627583385158
 21
-16.4627583385158
 62
7
  0
LINE
  6
BYLAYER
  8
0
 10
179.646331391199
 11
180.364270322497
 20
-16.4627583385158
 21
-16.4627583385158
 62
7
  0
LINE
  6
BYLAYER
  8
0
 10
180.364270322497
 11
181.006636734711
 20
-16.4627583385158
 21
-16.4627583385158
 62
7
  0
LINE
  6
BYLAYER
  8
0
 10
181.006636734711
 11
181.485262688909
 20
-16.4627583385158
 21
-16.4627583385158
 62
7
  0
LINE
  6
BYLAYER
  8
0
 10
181.485262688909
 11
181.656560398833
 20
-16.4627583385158
 21
-16.4640178805005
 62
7
  0
LINE
  6
BYLAYER
  8
0
 10
181.656560398833
 11
181.714499330131
 20
-16.4640178805005
 21
-16.4640178805005
 62
7
  0
LINE
  6
BYLAYER
  8
0
 10
181.714499330131
 11
191.80846879578
 20
-16.4640178805005
 21
-16.4640178805005
 62
7
  0
LINE
  6
BYLAYER
  8
0
 10
191.80846879578
 11
205.129384826314
 20
-16.4640178805005
 21
-16.4640178805005
 62
7
  0
LINE
  6
BYLAYER
  8
0
 10
205.129384826314
 11
218.782819940818
 20
-16.4640178805005
 21
-16.4640178805005
 62
7
  0
LINE
  6
BYLAYER
  8
0
 10
218.782819940818
 11
229.879384826314
 20
-16.4640178805005
 21
-16.4640178805005
 62
7
  0
LINE
  6
BYLAYER
  8
0
 10
229.879384826314
 11
235.519613833947
 20
-16.4640178805005
 21
-16.4640178805005
 62
7
  0
LINE
  6
BYLAYER
  8
0
 10
235.519613833947
 11
235.549842841581
 20
-16.4640178805005
 21
-16.4640178805005
 62
7
  0
LINE
  6
BYLAYER
  8
0
 10
235.549842841581
 11
235.638010780512
 20
-16.4640178805005
 21
-16.456964445386
 62
7
  0
LINE
  6
BYLAYER
  8
0
 10
235.638010780512
 11
235.74129322326
 20
-16.456964445386
 21
-16.4748499415692
 62
7
  0
LINE
  6
BYLAYER
  8
0
 10
235.74129322326
 11
235.74129322326
 20
-16.4748499415692
 21
-16.4819033766837
 62
7
  0
LINE
  6
BYLAYER
  8
0
 10
235.74129322326
 11
235.74129322326
 20
-16.4819033766837
 21
-18.4729873461494
 62
7
  0
LINE
  6
BYLAYER
  8
0
 10
235.74129322326
 11
235.74129322326
 20
-18.4729873461494
 21
-29.4982621553096
 62
7
  0
LINE
  6
BYLAYER
  8
0
 10
235.74129322326
 11
235.74129322326
 20
-29.4982621553096
 21
-54.2104758957676
 62
7
  0
LINE
  6
BYLAYER
  8
0
 10
235.74129322326
 11
235.74129322326
 20
-54.2104758957676
 21
-54.2734529950043
 62
7
  0
LINE
  6
BYLAYER
  8
0
 10
235.74129322326
 11
235.74129322326
 20
-54.2734529950043
 21
-54.4661629186684
 62
7
  0
LINE
  6
BYLAYER
  8
0
 10
235.74129322326
 11
235.74129322326
 20
-54.4661629186684
 21
-54.9538575751569
 62
7
  0
LINE
  6
BYLAYER
  8
0
 10
235.74129322326
 11
235.74129322326
 20
-54.9538575751569
 21
-55.4269415446226
 62
7
  0
LINE
  6
BYLAYER
  8
0
 10
235.74129322326
 11
235.74129322326
 20
-55.4269415446226
 21
-55.6400560484394
 62
7
  0
LINE
  6
BYLAYER
  8
0
 10
235.74129322326
 11
235.74129322326
 20
-55.6400560484394
 21
-55.6400560484394
 62
7
  0
LINE
  6
BYLAYER
  8
0
 10
235.74129322326
 11
235.423888643108
 20
-55.6400560484394
 21
-55.6400560484394
 62
7
  0
LINE
  6
BYLAYER
  8
0
 10
207.487247421734
 11
207.41167490265
 20
117.164066088965
 21
117.148951585148
 62
7
  0
LINE
  6
BYLAYER
  8
0
 10
207.41167490265
 11
206.653430627841
 20
117.148951585148
 21
117.002844714919
 62
7
  0
LINE
  6
BYLAYER
  8
0
 10
206.653430627841
 11
206.577858108757
 20
117.002844714919
 21
116.987730211103
 62
7
  0
LINE
  6
BYLAYER
  8
0
 10
206.577858108757
 11
206.565262688909
 20
116.987730211103
 21
116.985211127133
 62
7
  0
LINE
  6
BYLAYER
  8
0
 10
206.565262688909
 11
206.358697803413
 20
116.985211127133
 21
116.949943951561
 62
7
  0
LINE
  6
BYLAYER
  8
0
 10
206.358697803413
 11
206.348621467535
 20
116.949943951561
 21
116.960020287438
 62
7
  0
LINE
  6
BYLAYER
  8
0
 10
206.348621467535
 11
206.320911543871
 20
116.960020287438
 21
116.992768379042
 62
7
  0
LINE
  6
BYLAYER
  8
0
 10
206.320911543871
 11
206.036255055321
 20
116.992768379042
 21
117.320249295072
 62
7
  0
LINE
  6
BYLAYER
  8
0
 10
206.036255055321
 11
206.008545131657
 20
117.320249295072
 21
117.352997386675
 62
7
  0
LINE
  6
BYLAYER
  8
0
 10
206.008545131657
 11
205.663430627841
 20
117.352997386675
 21
117.751012653851
 62
7
  0
LINE
  6
BYLAYER
  8
0
 10
205.663430627841
 11
205.643277956085
 20
117.751012653851
 21
117.773684409576
 62
7
  0
LINE
  6
BYLAYER
  8
0
 10
205.643277956085
 11
205.655873375932
 20
117.773684409576
 21
117.94246303553
 62
7
  0
LINE
  6
BYLAYER
  8
0
 10
205.655873375932
 11
205.66594971181
 20
117.94246303553
 21
117.970172959194
 62
7
  0
LINE
  6
BYLAYER
  8
0
 10
205.66594971181
 11
205.681064215627
 20
117.970172959194
 21
118.015516470645
 62
7
  0
LINE
  6
BYLAYER
  8
0
 10
205.681064215627
 11
205.837247421734
 20
118.015516470645
 21
118.468951585148
 62
7
  0
LINE
  6
BYLAYER
  8
0
 10
205.837247421734
 11
205.85488100952
 20
118.468951585148
 21
118.514295096599
 62
7
  0
LINE
  6
BYLAYER
  8
0
 10
205.85488100952
 11
205.862438261428
 20
118.514295096599
 21
118.534447768355
 62
7
  0
LINE
  6
BYLAYER
  8
0
 10
205.862438261428
 11
205.970758872115
 20
118.534447768355
 21
118.879562272171
 62
7
  0
LINE
  6
BYLAYER
  8
0
 10
205.970758872115
 11
205.988392459902
 20
118.879562272171
 21
118.894676775988
 62
7
  0
LINE
  6
BYLAYER
  8
0
 10
205.988392459902
 11
206.000987879749
 20
118.894676775988
 21
118.907272195835
 62
7
  0
LINE
  6
BYLAYER
  8
0
 10
206.000987879749
 11
206.300758872115
 20
118.907272195835
 21
118.955134791255
 62
7
  0
LINE
  6
BYLAYER
  8
0
 10
206.300758872115
 11
206.318392459902
 20
118.955134791255
 21
118.957653875225
 62
7
  0
LINE
  6
BYLAYER
  8
0
 10
206.318392459902
 11
206.366255055321
 20
118.957653875225
 21
118.967730211103
 62
7
  0
LINE
  6
BYLAYER
  8
0
 10
206.366255055321
 11
206.847400093489
 20
118.967730211103
 21
119.060936317973
 62
7
  0
LINE
  6
BYLAYER
  8
0
 10
206.847400093489
 11
206.895262688909
 20
119.060936317973
 21
119.068493569881
 62
7
  0
LINE
  6
BYLAYER
  8
0
 10
206.895262688909
 11
206.907858108757
 20
119.068493569881
 21
119.071012653851
 62
7
  0
LINE
  6
BYLAYER
  8
0
 10
206.907858108757
 11
207.116942078222
 20
119.071012653851
 21
119.106279829423
 62
7
  0
LINE
  6
BYLAYER
  8
0
 10
207.116942078222
 11
207.1270184141
 20
119.106279829423
 21
119.096203493545
 62
7
  0
LINE
  6
BYLAYER
  8
0
 10
207.1270184141
 11
207.152209253795
 20
119.096203493545
 21
119.063455401942
 62
7
  0
LINE
  6
BYLAYER
  8
0
 10
207.152209253795
 11
207.436865742344
 20
119.063455401942
 21
118.738493569881
 62
7
  0
LINE
  6
BYLAYER
  8
0
 10
207.436865742344
 11
207.464575666009
 20
118.738493569881
 21
118.703226394309
 62
7
  0
LINE
  6
BYLAYER
  8
0
 10
207.464575666009
 11
207.809690169825
 20
118.703226394309
 21
118.305211127133
 62
7
  0
LINE
  6
BYLAYER
  8
0
 10
207.809690169825
 11
207.827323757612
 20
118.305211127133
 21
118.282539371408
 62
7
  0
LINE
  6
BYLAYER
  8
0
 10
207.827323757612
 11
207.814728337764
 20
118.282539371408
 21
118.116279829423
 62
7
  0
LINE
  6
BYLAYER
  8
0
 10
207.814728337764
 11
207.807171085856
 20
118.116279829423
 21
118.088569905759
 62
7
  0
LINE
  6
BYLAYER
  8
0
 10
207.807171085856
 11
207.779461162192
 20
118.088569905759
 21
118.010478302706
 62
7
  0
LINE
  6
BYLAYER
  8
0
 10
207.779461162192
 11
207.514957345398
 20
118.010478302706
 21
117.242157692019
 62
7
  0
LINE
  6
BYLAYER
  8
0
 10
207.514957345398
 11
207.487247421734
 20
117.242157692019
 21
117.164066088965
 62
7
  0
LINE
  6
BYLAYER
  8
0
 10
207.487247421734
 11
207.41167490265
 20
117.164066088965
 21
117.148951585148
 62
7
  0
LINE
  6
BYLAYER
  8
0
 10
207.41167490265
 11
206.653430627841
 20
117.148951585148
 21
117.002844714919
 62
7
  0
LINE
  6
BYLAYER
  8
0
 10
206.653430627841
 11
206.577858108757
 20
117.002844714919
 21
116.987730211103
 62
7
  0
LINE
  6
BYLAYER
  8
0
 10
206.577858108757
 11
206.565262688909
 20
116.987730211103
 21
116.985211127133
 62
7
  0
LINE
  6
BYLAYER
  8
0
 10
206.565262688909
 11
206.358697803413
 20
116.985211127133
 21
116.949943951561
 62
7
  0
LINE
  6
BYLAYER
  8
0
 10
206.358697803413
 11
206.348621467535
 20
116.949943951561
 21
116.960020287438
 62
7
  0
LINE
  6
BYLAYER
  8
0
 10
206.348621467535
 11
206.320911543871
 20
116.960020287438
 21
116.992768379042
 62
7
  0
LINE
  6
BYLAYER
  8
0
 10
206.320911543871
 11
206.036255055321
 20
116.992768379042
 21
117.320249295072
 62
7
  0
LINE
  6
BYLAYER
  8
0
 10
206.036255055321
 11
206.008545131657
 20
117.320249295072
 21
117.352997386675
 62
7
  0
LINE
  6
BYLAYER
  8
0
 10
206.008545131657
 11
205.663430627841
 20
117.352997386675
 21
117.751012653851
 62
7
  0
LINE
  6
BYLAYER
  8
0
 10
205.663430627841
 11
205.643277956085
 20
117.751012653851
 21
117.773684409576
 62
7
  0
LINE
  6
BYLAYER
  8
0
 10
205.643277956085
 11
205.655873375932
 20
117.773684409576
 21
117.94246303553
 62
7
  0
LINE
  6
BYLAYER
  8
0
 10
205.655873375932
 11
205.66594971181
 20
117.94246303553
 21
117.970172959194
 62
7
  0
LINE
  6
BYLAYER
  8
0
 10
205.66594971181
 11
205.681064215627
 20
117.970172959194
 21
118.015516470645
 62
7
  0
LINE
  6
BYLAYER
  8
0
 10
205.681064215627
 11
205.837247421734
 20
118.015516470645
 21
118.468951585148
 62
7
  0
LINE
  6
BYLAYER
  8
0
 10
205.837247421734
 11
205.85488100952
 20
118.468951585148
 21
118.514295096599
 62
7
  0
LINE
  6
BYLAYER
  8
0
 10
205.85488100952
 11
205.862438261428
 20
118.514295096599
 21
118.534447768355
 62
7
  0
LINE
  6
BYLAYER
  8
0
 10
205.862438261428
 11
205.970758872115
 20
118.534447768355
 21
118.879562272171
 62
7
  0
LINE
  6
BYLAYER
  8
0
 10
205.970758872115
 11
205.988392459902
 20
118.879562272171
 21
118.894676775988
 62
7
  0
LINE
  6
BYLAYER
  8
0
 10
205.988392459902
 11
206.000987879749
 20
118.894676775988
 21
118.907272195835
 62
7
  0
LINE
  6
BYLAYER
  8
0
 10
206.000987879749
 11
206.300758872115
 20
118.907272195835
 21
118.955134791255
 62
7
  0
LINE
  6
BYLAYER
  8
0
 10
206.300758872115
 11
206.318392459902
 20
118.955134791255
 21
118.957653875225
 62
7
  0
LINE
  6
BYLAYER
  8
0
 10
206.318392459902
 11
206.366255055321
 20
118.957653875225
 21
118.967730211103
 62
7
  0
LINE
  6
BYLAYER
  8
0
 10
206.366255055321
 11
206.847400093489
 20
118.967730211103
 21
119.060936317973
 62
7
  0
LINE
  6
BYLAYER
  8
0
 10
206.847400093489
 11
206.895262688909
 20
119.060936317973
 21
119.068493569881
 62
7
  0
LINE
  6
BYLAYER
  8
0
 10
206.895262688909
 11
206.907858108757
 20
119.068493569881
 21
119.071012653851
 62
7
  0
LINE
  6
BYLAYER
  8
0
 10
206.907858108757
 11
207.116942078222
 20
119.071012653851
 21
119.106279829423
 62
7
  0
LINE
  6
BYLAYER
  8
0
 10
207.116942078222
 11
207.1270184141
 20
119.106279829423
 21
119.096203493545
 62
7
  0
LINE
  6
BYLAYER
  8
0
 10
207.1270184141
 11
207.152209253795
 20
119.096203493545
 21
119.063455401942
 62
7
  0
LINE
  6
BYLAYER
  8
0
 10
207.152209253795
 11
207.436865742344
 20
119.063455401942
 21
118.738493569881
 62
7
  0
LINE
  6
BYLAYER
  8
0
 10
207.436865742344
 11
207.464575666009
 20
118.738493569881
 21
118.703226394309
 62
7
  0
LINE
  6
BYLAYER
  8
0
 10
207.464575666009
 11
207.809690169825
 20
118.703226394309
 21
118.305211127133
 62
7
  0
LINE
  6
BYLAYER
  8
0
 10
207.809690169825
 11
207.827323757612
 20
118.305211127133
 21
118.282539371408
 62
7
  0
LINE
  6
BYLAYER
  8
0
 10
207.827323757612
 11
207.814728337764
 20
118.282539371408
 21
118.116279829423
 62
7
  0
LINE
  6
BYLAYER
  8
0
 10
207.814728337764
 11
207.807171085856
 20
118.116279829423
 21
118.088569905759
 62
7
  0
LINE
  6
BYLAYER
  8
0
 10
207.807171085856
 11
207.779461162192
 20
118.088569905759
 21
118.010478302706
 62
7
  0
LINE
  6
BYLAYER
  8
0
 10
207.779461162192
 11
207.514957345398
 20
118.010478302706
 21
117.242157692019
 62
7
  0
LINE
  6
BYLAYER
  8
0
 10
207.514957345398
 11
207.487247421734
 20
117.242157692019
 21
117.164066088965
 62
7
  0
LINE
  6
BYLAYER
  8
0
 10
208.179995513337
 11
208.179995513337
 20
118.028111890492
 21
117.889562272171
 62
7
  0
LINE
  6
BYLAYER
  8
0
 10
208.179995513337
 11
208.064117650741
 20
117.889562272171
 21
117.47139433324
 62
7
  0
LINE
  6
BYLAYER
  8
0
 10
208.064117650741
 11
207.754270322497
 20
117.47139433324
 21
117.012921050797
 62
7
  0
LINE
  6
BYLAYER
  8
0
 10
207.754270322497
 11
207.293277956085
 20
117.012921050797
 21
116.700554638584
 62
7
  0
LINE
  6
BYLAYER
  8
0
 10
207.293277956085
 11
206.875110017154
 20
116.700554638584
 21
116.584676775988
 62
7
  0
LINE
  6
BYLAYER
  8
0
 10
206.875110017154
 11
206.736560398833
 20
116.584676775988
 21
116.584676775988
 62
7
  0
LINE
  6
BYLAYER
  8
0
 10
206.736560398833
 11
206.598010780512
 20
116.584676775988
 21
116.584676775988
 62
7
  0
LINE
  6
BYLAYER
  8
0
 10
206.598010780512
 11
206.179842841581
 20
116.584676775988
 21
116.700554638584
 62
7
  0
LINE
  6
BYLAYER
  8
0
 10
206.179842841581
 11
205.721369559138
 20
116.700554638584
 21
117.012921050797
 62
7
  0
LINE
  6
BYLAYER
  8
0
 10
205.721369559138
 11
205.409003146925
 20
117.012921050797
 21
117.47139433324
 62
7
  0
LINE
  6
BYLAYER
  8
0
 10
205.409003146925
 11
205.293125284329
 20
117.47139433324
 21
117.889562272171
 62
7
  0
LINE
  6
BYLAYER
  8
0
 10
205.293125284329
 11
205.293125284329
 20
117.889562272171
 21
118.028111890492
 62
7
  0
LINE
  6
BYLAYER
  8
0
 10
205.293125284329
 11
205.293125284329
 20
118.028111890492
 21
118.166661508813
 62
7
  0
LINE
  6
BYLAYER
  8
0
 10
205.293125284329
 11
205.409003146925
 20
118.166661508813
 21
118.584829447744
 62
7
  0
LINE
  6
BYLAYER
  8
0
 10
205.409003146925
 11
205.721369559138
 20
118.584829447744
 21
119.045821814156
 62
7
  0
LINE
  6
BYLAYER
  8
0
 10
205.721369559138
 11
206.179842841581
 20
119.045821814156
 21
119.3556691424
 62
7
  0
LINE
  6
BYLAYER
  8
0
 10
206.179842841581
 11
206.598010780512
 20
119.3556691424
 21
119.471547004996
 62
7
  0
LINE
  6
BYLAYER
  8
0
 10
206.598010780512
 11
206.736560398833
 20
119.471547004996
 21
119.471547004996
 62
7
  0
LINE
  6
BYLAYER
  8
0
 10
206.736560398833
 11
206.875110017154
 20
119.471547004996
 21
119.471547004996
 62
7
  0
LINE
  6
BYLAYER
  8
0
 10
206.875110017154
 11
207.293277956085
 20
119.471547004996
 21
119.3556691424
 62
7
  0
LINE
  6
BYLAYER
  8
0
 10
207.293277956085
 11
207.754270322497
 20
119.3556691424
 21
119.045821814156
 62
7
  0
LINE
  6
BYLAYER
  8
0
 10
207.754270322497
 11
208.064117650741
 20
119.045821814156
 21
118.584829447744
 62
7
  0
LINE
  6
BYLAYER
  8
0
 10
208.064117650741
 11
208.179995513337
 20
118.584829447744
 21
118.166661508813
 62
7
  0
LINE
  6
BYLAYER
  8
0
 10
208.179995513337
 11
208.179995513337
 20
118.166661508813
 21
118.028111890492
 62
7
  0
LINE
  6
BYLAYER
  8
0
 10
208.179995513337
 11
208.179995513337
 20
118.028111890492
 21
117.889562272171
 62
7
  0
LINE
  6
BYLAYER
  8
0
 10
208.179995513337
 11
208.064117650741
 20
117.889562272171
 21
117.47139433324
 62
7
  0
LINE
  6
BYLAYER
  8
0
 10
208.064117650741
 11
207.754270322497
 20
117.47139433324
 21
117.012921050797
 62
7
  0
LINE
  6
BYLAYER
  8
0
 10
207.754270322497
 11
207.293277956085
 20
117.012921050797
 21
116.700554638584
 62
7
  0
LINE
  6
BYLAYER
  8
0
 10
207.293277956085
 11
206.875110017154
 20
116.700554638584
 21
116.584676775988
 62
7
  0
LINE
  6
BYLAYER
  8
0
 10
206.875110017154
 11
206.736560398833
 20
116.584676775988
 21
116.584676775988
 62
7
  0
LINE
  6
BYLAYER
  8
0
 10
206.736560398833
 11
206.598010780512
 20
116.584676775988
 21
116.584676775988
 62
7
  0
LINE
  6
BYLAYER
  8
0
 10
206.598010780512
 11
206.179842841581
 20
116.584676775988
 21
116.700554638584
 62
7
  0
LINE
  6
BYLAYER
  8
0
 10
206.179842841581
 11
205.721369559138
 20
116.700554638584
 21
117.012921050797
 62
7
  0
LINE
  6
BYLAYER
  8
0
 10
205.721369559138
 11
205.409003146925
 20
117.012921050797
 21
117.47139433324
 62
7
  0
LINE
  6
BYLAYER
  8
0
 10
205.409003146925
 11
205.293125284329
 20
117.47139433324
 21
117.889562272171
 62
7
  0
LINE
  6
BYLAYER
  8
0
 10
205.293125284329
 11
205.293125284329
 20
117.889562272171
 21
118.028111890492
 62
7
  0
LINE
  6
BYLAYER
  8
0
 10
205.293125284329
 11
205.293125284329
 20
118.028111890492
 21
118.166661508813
 62
7
  0
LINE
  6
BYLAYER
  8
0
 10
205.293125284329
 11
205.409003146925
 20
118.166661508813
 21
118.584829447744
 62
7
  0
LINE
  6
BYLAYER
  8
0
 10
205.409003146925
 11
205.721369559138
 20
118.584829447744
 21
119.045821814156
 62
7
  0
LINE
  6
BYLAYER
  8
0
 10
205.721369559138
 11
206.179842841581
 20
119.045821814156
 21
119.3556691424
 62
7
  0
LINE
  6
BYLAYER
  8
0
 10
206.179842841581
 11
206.598010780512
 20
119.3556691424
 21
119.471547004996
 62
7
  0
LINE
  6
BYLAYER
  8
0
 10
206.598010780512
 11
206.736560398833
 20
119.471547004996
 21
119.471547004996
 62
7
  0
LINE
  6
BYLAYER
  8
0
 10
206.736560398833
 11
206.875110017154
 20
119.471547004996
 21
119.471547004996
 62
7
  0
LINE
  6
BYLAYER
  8
0
 10
206.875110017154
 11
207.293277956085
 20
119.471547004996
 21
119.3556691424
 62
7
  0
LINE
  6
BYLAYER
  8
0
 10
207.293277956085
 11
207.754270322497
 20
119.3556691424
 21
119.045821814156
 62
7
  0
LINE
  6
BYLAYER
  8
0
 10
207.754270322497
 11
208.064117650741
 20
119.045821814156
 21
118.584829447744
 62
7
  0
LINE
  6
BYLAYER
  8
0
 10
208.064117650741
 11
208.179995513337
 20
118.584829447744
 21
118.166661508813
 62
7
  0
LINE
  6
BYLAYER
  8
0
 10
208.179995513337
 11
208.179995513337
 20
118.166661508813
 21
118.028111890492
 62
7
  0
LINE
  6
BYLAYER
  8
0
 10
207.487247421734
 11
207.41167490265
 20
-110.992391926302
 21
-111.005994979737
 62
7
  0
LINE
  6
BYLAYER
  8
0
 10
207.41167490265
 11
206.653430627841
 20
-111.005994979737
 21
-111.153613300348
 62
7
  0
LINE
  6
BYLAYER
  8
0
 10
206.653430627841
 11
206.577858108757
 20
-111.153613300348
 21
-111.168727804165
 62
7
  0
LINE
  6
BYLAYER
  8
0
 10
206.577858108757
 11
206.565262688909
 20
-111.168727804165
 21
-111.169987346149
 62
7
  0
LINE
  6
BYLAYER
  8
0
 10
206.565262688909
 11
206.358697803413
 20
-111.169987346149
 21
-111.202987346149
 62
7
  0
LINE
  6
BYLAYER
  8
0
 10
206.358697803413
 11
206.348621467535
 20
-111.202987346149
 21
-111.193414827065
 62
7
  0
LINE
  6
BYLAYER
  8
0
 10
206.348621467535
 11
206.320911543871
 20
-111.193414827065
 21
-111.160666735462
 62
7
  0
LINE
  6
BYLAYER
  8
0
 10
206.320911543871
 11
206.036255055321
 20
-111.160666735462
 21
-110.833941544623
 62
7
  0
LINE
  6
BYLAYER
  8
0
 10
206.036255055321
 11
206.008545131657
 20
-110.833941544623
 21
-110.802452995004
 62
7
  0
LINE
  6
BYLAYER
  8
0
 10
206.008545131657
 11
205.663430627841
 20
-110.802452995004
 21
-110.402170552256
 62
7
  0
LINE
  6
BYLAYER
  8
0
 10
205.663430627841
 11
205.643277956085
 20
-110.402170552256
 21
-110.381514063707
 62
7
  0
LINE
  6
BYLAYER
  8
0
 10
205.643277956085
 11
205.655873375932
 20
-110.381514063707
 21
-110.211979712562
 62
7
  0
LINE
  6
BYLAYER
  8
0
 10
205.655873375932
 11
205.66594971181
 20
-110.211979712562
 21
-110.186285056073
 62
7
  0
LINE
  6
BYLAYER
  8
0
 10
205.66594971181
 11
205.681064215627
 20
-110.186285056073
 21
-110.140941544623
 62
7
  0
LINE
  6
BYLAYER
  8
0
 10
205.681064215627
 11
205.837247421734
 20
-110.140941544623
 21
-109.687254521722
 62
7
  0
LINE
  6
BYLAYER
  8
0
 10
205.837247421734
 11
205.85488100952
 20
-109.687254521722
 21
-109.642162918668
 62
7
  0
LINE
  6
BYLAYER
  8
0
 10
205.85488100952
 11
205.862438261428
 20
-109.642162918668
 21
-109.620498796531
 62
7
  0
LINE
  6
BYLAYER
  8
0
 10
205.862438261428
 11
205.970758872115
 20
-109.620498796531
 21
-109.275888109508
 62
7
  0
LINE
  6
BYLAYER
  8
0
 10
205.970758872115
 11
205.988392459902
 20
-109.275888109508
 21
-109.260773605691
 62
7
  0
LINE
  6
BYLAYER
  8
0
 10
205.988392459902
 11
206.000987879749
 20
-109.260773605691
 21
-109.248430094241
 62
7
  0
LINE
  6
BYLAYER
  8
0
 10
206.000987879749
 11
206.300758872115
 20
-109.248430094241
 21
-109.199307956836
 62
7
  0
LINE
  6
BYLAYER
  8
0
 10
206.300758872115
 11
206.318392459902
 20
-109.199307956836
 21
-109.196788872867
 62
7
  0
LINE
  6
BYLAYER
  8
0
 10
206.318392459902
 11
206.366255055321
 20
-109.196788872867
 21
-109.186964445386
 62
7
  0
LINE
  6
BYLAYER
  8
0
 10
206.366255055321
 11
206.847400093489
 20
-109.186964445386
 21
-109.09426215531
 62
7
  0
LINE
  6
BYLAYER
  8
0
 10
206.847400093489
 11
206.895262688909
 20
-109.09426215531
 21
-109.08594917821
 62
7
  0
LINE
  6
BYLAYER
  8
0
 10
206.895262688909
 11
206.907858108757
 20
-109.08594917821
 21
-109.083178185844
 62
7
  0
LINE
  6
BYLAYER
  8
0
 10
206.907858108757
 11
207.116942078222
 20
-109.083178185844
 21
-109.049170552256
 62
7
  0
LINE
  6
BYLAYER
  8
0
 10
207.116942078222
 11
207.1270184141
 20
-109.049170552256
 21
-109.060002613325
 62
7
  0
LINE
  6
BYLAYER
  8
0
 10
207.1270184141
 11
207.152209253795
 20
-109.060002613325
 21
-109.091491162943
 62
7
  0
LINE
  6
BYLAYER
  8
0
 10
207.152209253795
 11
207.436865742344
 20
-109.091491162943
 21
-109.417964445386
 62
7
  0
LINE
  6
BYLAYER
  8
0
 10
207.436865742344
 11
207.464575666009
 20
-109.417964445386
 21
-109.450712536989
 62
7
  0
LINE
  6
BYLAYER
  8
0
 10
207.464575666009
 11
207.809690169825
 20
-109.450712536989
 21
-109.849987346149
 62
7
  0
LINE
  6
BYLAYER
  8
0
 10
207.809690169825
 11
207.827323757612
 20
-109.849987346149
 21
-109.870391926302
 62
7
  0
LINE
  6
BYLAYER
  8
0
 10
207.827323757612
 11
207.814728337764
 20
-109.870391926302
 21
-110.039926277447
 62
7
  0
LINE
  6
BYLAYER
  8
0
 10
207.814728337764
 11
207.807171085856
 20
-110.039926277447
 21
-110.067132384317
 62
7
  0
LINE
  6
BYLAYER
  8
0
 10
207.807171085856
 11
207.779461162192
 20
-110.067132384317
 21
-110.143964445386
 62
7
  0
LINE
  6
BYLAYER
  8
0
 10
207.779461162192
 11
207.514957345398
 20
-110.143964445386
 21
-110.914552231646
 62
7
  0
LINE
  6
BYLAYER
  8
0
 10
207.514957345398
 11
207.487247421734
 20
-110.914552231646
 21
-110.992391926302
 62
7
  0
LINE
  6
BYLAYER
  8
0
 10
207.487247421734
 11
207.41167490265
 20
-110.992391926302
 21
-111.005994979737
 62
7
  0
LINE
  6
BYLAYER
  8
0
 10
207.41167490265
 11
206.653430627841
 20
-111.005994979737
 21
-111.153613300348
 62
7
  0
LINE
  6
BYLAYER
  8
0
 10
206.653430627841
 11
206.577858108757
 20
-111.153613300348
 21
-111.168727804165
 62
7
  0
LINE
  6
BYLAYER
  8
0
 10
206.577858108757
 11
206.565262688909
 20
-111.168727804165
 21
-111.169987346149
 62
7
  0
LINE
  6
BYLAYER
  8
0
 10
206.565262688909
 11
206.358697803413
 20
-111.169987346149
 21
-111.202987346149
 62
7
  0
LINE
  6
BYLAYER
  8
0
 10
206.358697803413
 11
206.348621467535
 20
-111.202987346149
 21
-111.193414827065
 62
7
  0
LINE
  6
BYLAYER
  8
0
 10
206.348621467535
 11
206.320911543871
 20
-111.193414827065
 21
-111.160666735462
 62
7
  0
LINE
  6
BYLAYER
  8
0
 10
206.320911543871
 11
206.036255055321
 20
-111.160666735462
 21
-110.833941544623
 62
7
  0
LINE
  6
BYLAYER
  8
0
 10
206.036255055321
 11
206.008545131657
 20
-110.833941544623
 21
-110.802452995004
 62
7
  0
LINE
  6
BYLAYER
  8
0
 10
206.008545131657
 11
205.663430627841
 20
-110.802452995004
 21
-110.402170552256
 62
7
  0
LINE
  6
BYLAYER
  8
0
 10
205.663430627841
 11
205.643277956085
 20
-110.402170552256
 21
-110.381514063707
 62
7
  0
LINE
  6
BYLAYER
  8
0
 10
205.643277956085
 11
205.655873375932
 20
-110.381514063707
 21
-110.211979712562
 62
7
  0
LINE
  6
BYLAYER
  8
0
 10
205.655873375932
 11
205.66594971181
 20
-110.211979712562
 21
-110.186285056073
 62
7
  0
LINE
  6
BYLAYER
  8
0
 10
205.66594971181
 11
205.681064215627
 20
-110.186285056073
 21
-110.140941544623
 62
7
  0
LINE
  6
BYLAYER
  8
0
 10
205.681064215627
 11
205.837247421734
 20
-110.140941544623
 21
-109.687254521722
 62
7
  0
LINE
  6
BYLAYER
  8
0
 10
205.837247421734
 11
205.85488100952
 20
-109.687254521722
 21
-109.642162918668
 62
7
  0
LINE
  6
BYLAYER
  8
0
 10
205.85488100952
 11
205.862438261428
 20
-109.642162918668
 21
-109.620498796531
 62
7
  0
LINE
  6
BYLAYER
  8
0
 10
205.862438261428
 11
205.970758872115
 20
-109.620498796531
 21
-109.275888109508
 62
7
  0
LINE
  6
BYLAYER
  8
0
 10
205.970758872115
 11
205.988392459902
 20
-109.275888109508
 21
-109.260773605691
 62
7
  0
LINE
  6
BYLAYER
  8
0
 10
205.988392459902
 11
206.000987879749
 20
-109.260773605691
 21
-109.248430094241
 62
7
  0
LINE
  6
BYLAYER
  8
0
 10
206.000987879749
 11
206.300758872115
 20
-109.248430094241
 21
-109.199307956836
 62
7
  0
LINE
  6
BYLAYER
  8
0
 10
206.300758872115
 11
206.318392459902
 20
-109.199307956836
 21
-109.196788872867
 62
7
  0
LINE
  6
BYLAYER
  8
0
 10
206.318392459902
 11
206.366255055321
 20
-109.196788872867
 21
-109.186964445386
 62
7
  0
LINE
  6
BYLAYER
  8
0
 10
206.366255055321
 11
206.847400093489
 20
-109.186964445386
 21
-109.09426215531
 62
7
  0
LINE
  6
BYLAYER
  8
0
 10
206.847400093489
 11
206.895262688909
 20
-109.09426215531
 21
-109.08594917821
 62
7
  0
LINE
  6
BYLAYER
  8
0
 10
206.895262688909
 11
206.907858108757
 20
-109.08594917821
 21
-109.083178185844
 62
7
  0
LINE
  6
BYLAYER
  8
0
 10
206.907858108757
 11
207.116942078222
 20
-109.083178185844
 21
-109.049170552256
 62
7
  0
LINE
  6
BYLAYER
  8
0
 10
207.116942078222
 11
207.1270184141
 20
-109.049170552256
 21
-109.060002613325
 62
7
  0
LINE
  6
BYLAYER
  8
0
 10
207.1270184141
 11
207.152209253795
 20
-109.060002613325
 21
-109.091491162943
 62
7
  0
LINE
  6
BYLAYER
  8
0
 10
207.152209253795
 11
207.436865742344
 20
-109.091491162943
 21
-109.417964445386
 62
7
  0
LINE
  6
BYLAYER
  8
0
 10
207.436865742344
 11
207.464575666009
 20
-109.417964445386
 21
-109.450712536989
 62
7
  0
LINE
  6
BYLAYER
  8
0
 10
207.464575666009
 11
207.809690169825
 20
-109.450712536989
 21
-109.849987346149
 62
7
  0
LINE
  6
BYLAYER
  8
0
 10
207.809690169825
 11
207.827323757612
 20
-109.849987346149
 21
-109.870391926302
 62
7
  0
LINE
  6
BYLAYER
  8
0
 10
207.827323757612
 11
207.814728337764
 20
-109.870391926302
 21
-110.039926277447
 62
7
  0
LINE
  6
BYLAYER
  8
0
 10
207.814728337764
 11
207.807171085856
 20
-110.039926277447
 21
-110.067132384317
 62
7
  0
LINE
  6
BYLAYER
  8
0
 10
207.807171085856
 11
207.779461162192
 20
-110.067132384317
 21
-110.143964445386
 62
7
  0
LINE
  6
BYLAYER
  8
0
 10
207.779461162192
 11
207.514957345398
 20
-110.143964445386
 21
-110.914552231646
 62
7
  0
LINE
  6
BYLAYER
  8
0
 10
207.514957345398
 11
207.487247421734
 20
-110.914552231646
 21
-110.992391926302
 62
7
  0
LINE
  6
BYLAYER
  8
0
 10
208.179995513337
 11
208.179995513337
 20
-110.127338491187
 21
-110.265384292714
 62
7
  0
LINE
  6
BYLAYER
  8
0
 10
208.179995513337
 11
208.064117650741
 20
-110.265384292714
 21
-110.683804140042
 62
7
  0
LINE
  6
BYLAYER
  8
0
 10
208.064117650741
 11
207.754270322497
 20
-110.683804140042
 21
-111.142781239279
 62
7
  0
LINE
  6
BYLAYER
  8
0
 10
207.754270322497
 11
207.293277956085
 20
-111.142781239279
 21
-111.454391926302
 62
7
  0
LINE
  6
BYLAYER
  8
0
 10
207.293277956085
 11
206.875110017154
 20
-111.454391926302
 21
-111.570521697294
 62
7
  0
LINE
  6
BYLAYER
  8
0
 10
206.875110017154
 11
206.736560398833
 20
-111.570521697294
 21
-111.570521697294
 62
7
  0
LINE
  6
BYLAYER
  8
0
 10
206.736560398833
 11
206.598010780512
 20
-111.570521697294
 21
-111.570521697294
 62
7
  0
LINE
  6
BYLAYER
  8
0
 10
206.598010780512
 11
206.179842841581
 20
-111.570521697294
 21
-111.454391926302
 62
7
  0
LINE
  6
BYLAYER
  8
0
 10
206.179842841581
 11
205.721369559138
 20
-111.454391926302
 21
-111.142781239279
 62
7
  0
LINE
  6
BYLAYER
  8
0
 10
205.721369559138
 11
205.409003146925
 20
-111.142781239279
 21
-110.683804140042
 62
7
  0
LINE
  6
BYLAYER
  8
0
 10
205.409003146925
 11
205.293125284329
 20
-110.683804140042
 21
-110.265384292714
 62
7
  0
LINE
  6
BYLAYER
  8
0
 10
205.293125284329
 11
205.293125284329
 20
-110.265384292714
 21
-110.127338491187
 62
7
  0
LINE
  6
BYLAYER
  8
0
 10
205.293125284329
 11
205.293125284329
 20
-110.127338491187
 21
-109.987781239279
 62
7
  0
LINE
  6
BYLAYER
  8
0
 10
205.293125284329
 11
205.409003146925
 20
-109.987781239279
 21
-109.569613300348
 62
7
  0
LINE
  6
BYLAYER
  8
0
 10
205.409003146925
 11
205.721369559138
 20
-109.569613300348
 21
-109.110636201111
 62
7
  0
LINE
  6
BYLAYER
  8
0
 10
205.721369559138
 11
206.179842841581
 20
-109.110636201111
 21
-108.799025514088
 62
7
  0
LINE
  6
BYLAYER
  8
0
 10
206.179842841581
 11
206.598010780512
 20
-108.799025514088
 21
-108.684155285081
 62
7
  0
LINE
  6
BYLAYER
  8
0
 10
206.598010780512
 11
206.736560398833
 20
-108.684155285081
 21
-108.684155285081
 62
7
  0
LINE
  6
BYLAYER
  8
0
 10
206.736560398833
 11
206.875110017154
 20
-108.684155285081
 21
-108.684155285081
 62
7
  0
LINE
  6
BYLAYER
  8
0
 10
206.875110017154
 11
207.293277956085
 20
-108.684155285081
 21
-108.799025514088
 62
7
  0
LINE
  6
BYLAYER
  8
0
 10
207.293277956085
 11
207.754270322497
 20
-108.799025514088
 21
-109.110636201111
 62
7
  0
LINE
  6
BYLAYER
  8
0
 10
207.754270322497
 11
208.064117650741
 20
-109.110636201111
 21
-109.569613300348
 62
7
  0
LINE
  6
BYLAYER
  8
0
 10
208.064117650741
 11
208.179995513337
 20
-109.569613300348
 21
-109.987781239279
 62
7
  0
LINE
  6
BYLAYER
  8
0
 10
208.179995513337
 11
208.179995513337
 20
-109.987781239279
 21
-110.127338491187
 62
7
  0
LINE
  6
BYLAYER
  8
0
 10
208.179995513337
 11
208.179995513337
 20
-110.127338491187
 21
-110.265384292714
 62
7
  0
LINE
  6
BYLAYER
  8
0
 10
208.179995513337
 11
208.064117650741
 20
-110.265384292714
 21
-110.683804140042
 62
7
  0
LINE
  6
BYLAYER
  8
0
 10
208.064117650741
 11
207.754270322497
 20
-110.683804140042
 21
-111.142781239279
 62
7
  0
LINE
  6
BYLAYER
  8
0
 10
207.754270322497
 11
207.293277956085
 20
-111.142781239279
 21
-111.454391926302
 62
7
  0
LINE
  6
BYLAYER
  8
0
 10
207.293277956085
 11
206.875110017154
 20
-111.454391926302
 21
-111.570521697294
 62
7
  0
LINE
  6
BYLAYER
  8
0
 10
206.875110017154
 11
206.736560398833
 20
-111.570521697294
 21
-111.570521697294
 62
7
  0
LINE
  6
BYLAYER
  8
0
 10
206.736560398833
 11
206.598010780512
 20
-111.570521697294
 21
-111.570521697294
 62
7
  0
LINE
  6
BYLAYER
  8
0
 10
206.598010780512
 11
206.179842841581
 20
-111.570521697294
 21
-111.454391926302
 62
7
  0
LINE
  6
BYLAYER
  8
0
 10
206.179842841581
 11
205.721369559138
 20
-111.454391926302
 21
-111.142781239279
 62
7
  0
LINE
  6
BYLAYER
  8
0
 10
205.721369559138
 11
205.409003146925
 20
-111.142781239279
 21
-110.683804140042
 62
7
  0
LINE
  6
BYLAYER
  8
0
 10
205.409003146925
 11
205.293125284329
 20
-110.683804140042
 21
-110.265384292714
 62
7
  0
LINE
  6
BYLAYER
  8
0
 10
205.293125284329
 11
205.293125284329
 20
-110.265384292714
 21
-110.127338491187
 62
7
  0
LINE
  6
BYLAYER
  8
0
 10
205.293125284329
 11
205.293125284329
 20
-110.127338491187
 21
-109.987781239279
 62
7
  0
LINE
  6
BYLAYER
  8
0
 10
205.293125284329
 11
205.409003146925
 20
-109.987781239279
 21
-109.569613300348
 62
7
  0
LINE
  6
BYLAYER
  8
0
 10
205.409003146925
 11
205.721369559138
 20
-109.569613300348
 21
-109.110636201111
 62
7
  0
LINE
  6
BYLAYER
  8
0
 10
205.721369559138
 11
206.179842841581
 20
-109.110636201111
 21
-108.799025514088
 62
7
  0
LINE
  6
BYLAYER
  8
0
 10
206.179842841581
 11
206.598010780512
 20
-108.799025514088
 21
-108.684155285081
 62
7
  0
LINE
  6
BYLAYER
  8
0
 10
206.598010780512
 11
206.736560398833
 20
-108.684155285081
 21
-108.684155285081
 62
7
  0
LINE
  6
BYLAYER
  8
0
 10
206.736560398833
 11
206.875110017154
 20
-108.684155285081
 21
-108.684155285081
 62
7
  0
LINE
  6
BYLAYER
  8
0
 10
206.875110017154
 11
207.293277956085
 20
-108.684155285081
 21
-108.799025514088
 62
7
  0
LINE
  6
BYLAYER
  8
0
 10
207.293277956085
 11
207.754270322497
 20
-108.799025514088
 21
-109.110636201111
 62
7
  0
LINE
  6
BYLAYER
  8
0
 10
207.754270322497
 11
208.064117650741
 20
-109.110636201111
 21
-109.569613300348
 62
7
  0
LINE
  6
BYLAYER
  8
0
 10
208.064117650741
 11
208.179995513337
 20
-109.569613300348
 21
-109.987781239279
 62
7
  0
LINE
  6
BYLAYER
  8
0
 10
208.179995513337
 11
208.179995513337
 20
-109.987781239279
 21
-110.127338491187
 62
7
  0
LINE
  6
BYLAYER
  8
0
 10
177.200300856848
 11
177.200300856848
 20
-15.7191247507295
 21
102.933760745454
 62
7
  0
LINE
  6
BYLAYER
  8
0
 10
210.905644368299
 11
208.92060620036
 20
9.79012715766748
 21
9.79012715766748
 62
7
  0
LINE
  6
BYLAYER
  8
0
 10
208.92060620036
 11
208.92060620036
 20
9.79012715766748
 21
7.80559280652244
 62
7
  0
LINE
  6
BYLAYER
  8
0
 10
208.92060620036
 11
210.905644368299
 20
7.80559280652244
 21
7.80559280652244
 62
7
  0
LINE
  6
BYLAYER
  8
0
 10
210.905644368299
 11
210.905644368299
 20
9.79012715766748
 21
7.80559280652244
 62
7
  0
LINE
  6
BYLAYER
  8
0
 10
217.251216887383
 11
215.266178719444
 20
9.79012715766748
 21
9.79012715766748
 62
7
  0
LINE
  6
BYLAYER
  8
0
 10
215.266178719444
 11
215.266178719444
 20
9.79012715766748
 21
7.80559280652244
 62
7
  0
LINE
  6
BYLAYER
  8
0
 10
215.266178719444
 11
217.251216887383
 20
7.80559280652244
 21
7.80559280652244
 62
7
  0
LINE
  6
BYLAYER
  8
0
 10
217.251216887383
 11
217.251216887383
 20
9.79012715766748
 21
7.80559280652244
 62
7
  0
LINE
  6
BYLAYER
  8
0
 10
236.277858108757
 11
177.200300856848
 20
-15.7191247507295
 21
-15.7191247507295
 62
7
  0
LINE
  6
BYLAYER
  8
0
 10
177.70915581868
 11
177.200300856848
 20
-15.2231171171417
 21
-15.7191247507295
 62
7
  0
LINE
  6
BYLAYER
  8
0
 10
236.277858108757
 11
236.277858108757
 20
-15.7191247507295
 21
102.933760745454
 62
7
  0
LINE
  6
BYLAYER
  8
0
 10
235.766484062955
 11
236.277858108757
 20
-15.2231171171417
 21
-15.7191247507295
 62
7
  0
LINE
  6
BYLAYER
  8
0
 10
236.277858108757
 11
177.200300856848
 20
102.933760745454
 21
102.933760745454
 62
7
  0
LINE
  6
BYLAYER
  8
0
 10
235.766484062955
 11
236.277858108757
 20
102.419867615683
 21
102.933760745454
 62
7
  0
LINE
  6
BYLAYER
  8
0
 10
177.70915581868
 11
177.200300856848
 20
102.419867615683
 21
102.933760745454
 62
7
  0
LINE
  6
BYLAYER
  8
0
 10
221.614270322497
 11
221.614270322497
 20
9.79012715766748
 21
7.80559280652244
 62
7
  0
LINE
  6
BYLAYER
  8
0
 10
223.599308490436
 11
221.614270322497
 20
9.79012715766748
 21
9.79012715766748
 62
7
  0
LINE
  6
BYLAYER
  8
0
 10
223.599308490436
 11
223.599308490436
 20
9.79012715766748
 21
7.80559280652244
 62
7
  0
LINE
  6
BYLAYER
  8
0
 10
221.614270322497
 11
223.599308490436
 20
7.80559280652244
 21
7.80559280652244
 62
7
  0
LINE
  6
BYLAYER
  8
0
 10
202.569995513337
 11
202.569995513337
 20
9.79012715766748
 21
7.80559280652244
 62
7
  0
LINE
  6
BYLAYER
  8
0
 10
204.555033681276
 11
202.569995513337
 20
9.79012715766748
 21
9.79012715766748
 62
7
  0
LINE
  6
BYLAYER
  8
0
 10
204.555033681276
 11
204.555033681276
 20
9.79012715766748
 21
7.80559280652244
 62
7
  0
LINE
  6
BYLAYER
  8
0
 10
202.569995513337
 11
204.555033681276
 20
7.80559280652244
 21
7.80559280652244
 62
7
  0
LINE
  6
BYLAYER
  8
0
 10
196.224422994253
 11
196.224422994253
 20
9.79012715766748
 21
7.80559280652244
 62
7
  0
LINE
  6
BYLAYER
  8
0
 10
198.206942078222
 11
196.224422994253
 20
9.79012715766748
 21
9.79012715766748
 62
7
  0
LINE
  6
BYLAYER
  8
0
 10
198.206942078222
 11
198.206942078222
 20
9.79012715766748
 21
7.80559280652244
 62
7
  0
LINE
  6
BYLAYER
  8
0
 10
196.224422994253
 11
198.206942078222
 20
7.80559280652244
 21
7.80559280652244
 62
7
  0
LINE
  6
BYLAYER
  8
0
 10
189.878850475169
 11
189.878850475169
 20
9.79012715766748
 21
7.80559280652244
 62
7
  0
LINE
  6
BYLAYER
  8
0
 10
191.861369559138
 11
189.878850475169
 20
9.79012715766748
 21
9.79012715766748
 62
7
  0
LINE
  6
BYLAYER
  8
0
 10
191.861369559138
 11
191.861369559138
 20
9.79012715766748
 21
7.80559280652244
 62
7
  0
LINE
  6
BYLAYER
  8
0
 10
189.878850475169
 11
191.861369559138
 20
7.80559280652244
 21
7.80559280652244
 62
7
  0
LINE
  6
BYLAYER
  8
0
 10
189.878850475169
 11
189.878850475169
 20
16.1399821194995
 21
14.1554477683545
 62
7
  0
LINE
  6
BYLAYER
  8
0
 10
191.861369559138
 11
189.878850475169
 20
16.1399821194995
 21
16.1399821194995
 62
7
  0
LINE
  6
BYLAYER
  8
0
 10
191.861369559138
 11
191.861369559138
 20
16.1399821194995
 21
14.1554477683545
 62
7
  0
LINE
  6
BYLAYER
  8
0
 10
189.878850475169
 11
191.861369559138
 20
14.1554477683545
 21
14.1554477683545
 62
7
  0
LINE
  6
BYLAYER
  8
0
 10
196.224422994253
 11
196.224422994253
 20
16.1399821194995
 21
14.1554477683545
 62
7
  0
LINE
  6
BYLAYER
  8
0
 10
198.206942078222
 11
196.224422994253
 20
16.1399821194995
 21
16.1399821194995
 62
7
  0
LINE
  6
BYLAYER
  8
0
 10
198.206942078222
 11
198.206942078222
 20
16.1399821194995
 21
14.1554477683545
 62
7
  0
LINE
  6
BYLAYER
  8
0
 10
196.224422994253
 11
198.206942078222
 20
14.1554477683545
 21
14.1554477683545
 62
7
  0
LINE
  6
BYLAYER
  8
0
 10
202.569995513337
 11
202.569995513337
 20
16.1399821194995
 21
14.1554477683545
 62
7
  0
LINE
  6
BYLAYER
  8
0
 10
204.555033681276
 11
202.569995513337
 20
16.1399821194995
 21
16.1399821194995
 62
7
  0
LINE
  6
BYLAYER
  8
0
 10
204.555033681276
 11
204.555033681276
 20
16.1399821194995
 21
14.1554477683545
 62
7
  0
LINE
  6
BYLAYER
  8
0
 10
202.569995513337
 11
204.555033681276
 20
14.1554477683545
 21
14.1554477683545
 62
7
  0
LINE
  6
BYLAYER
  8
0
 10
208.92060620036
 11
208.92060620036
 20
16.1399821194995
 21
14.1554477683545
 62
7
  0
LINE
  6
BYLAYER
  8
0
 10
210.905644368299
 11
208.92060620036
 20
16.1399821194995
 21
16.1399821194995
 62
7
  0
LINE
  6
BYLAYER
  8
0
 10
210.905644368299
 11
210.905644368299
 20
16.1399821194995
 21
14.1554477683545
 62
7
  0
LINE
  6
BYLAYER
  8
0
 10
208.92060620036
 11
210.905644368299
 20
14.1554477683545
 21
14.1554477683545
 62
7
  0
LINE
  6
BYLAYER
  8
0
 10
215.266178719444
 11
215.266178719444
 20
16.1399821194995
 21
14.1554477683545
 62
7
  0
LINE
  6
BYLAYER
  8
0
 10
217.251216887383
 11
215.266178719444
 20
16.1399821194995
 21
16.1399821194995
 62
7
  0
LINE
  6
BYLAYER
  8
0
 10
217.251216887383
 11
217.251216887383
 20
16.1399821194995
 21
14.1554477683545
 62
7
  0
LINE
  6
BYLAYER
  8
0
 10
215.266178719444
 11
217.251216887383
 20
14.1554477683545
 21
14.1554477683545
 62
7
  0
LINE
  6
BYLAYER
  8
0
 10
221.614270322497
 11
221.614270322497
 20
16.1399821194995
 21
14.1554477683545
 62
7
  0
LINE
  6
BYLAYER
  8
0
 10
223.599308490436
 11
221.614270322497
 20
16.1399821194995
 21
16.1399821194995
 62
7
  0
LINE
  6
BYLAYER
  8
0
 10
223.599308490436
 11
223.599308490436
 20
16.1399821194995
 21
14.1554477683545
 62
7
  0
LINE
  6
BYLAYER
  8
0
 10
221.614270322497
 11
223.599308490436
 20
14.1554477683545
 21
14.1554477683545
 62
7
  0
LINE
  6
BYLAYER
  8
0
 10
221.614270322497
 11
221.614270322497
 20
22.4865622721713
 21
20.5025317378202
 62
7
  0
LINE
  6
BYLAYER
  8
0
 10
223.599308490436
 11
221.614270322497
 20
22.4865622721713
 21
22.4865622721713
 62
7
  0
LINE
  6
BYLAYER
  8
0
 10
223.599308490436
 11
223.599308490436
 20
22.4865622721713
 21
20.5025317378202
 62
7
  0
LINE
  6
BYLAYER
  8
0
 10
221.614270322497
 11
223.599308490436
 20
20.5025317378202
 21
20.5025317378202
 62
7
  0
LINE
  6
BYLAYER
  8
0
 10
215.266178719444
 11
215.266178719444
 20
22.4865622721713
 21
20.5025317378202
 62
7
  0
LINE
  6
BYLAYER
  8
0
 10
217.251216887383
 11
215.266178719444
 20
22.4865622721713
 21
22.4865622721713
 62
7
  0
LINE
  6
BYLAYER
  8
0
 10
217.251216887383
 11
217.251216887383
 20
22.4865622721713
 21
20.5025317378202
 62
7
  0
LINE
  6
BYLAYER
  8
0
 10
215.266178719444
 11
217.251216887383
 20
20.5025317378202
 21
20.5025317378202
 62
7
  0
LINE
  6
BYLAYER
  8
0
 10
208.92060620036
 11
208.92060620036
 20
22.4865622721713
 21
20.5025317378202
 62
7
  0
LINE
  6
BYLAYER
  8
0
 10
210.905644368299
 11
208.92060620036
 20
22.4865622721713
 21
22.4865622721713
 62
7
  0
LINE
  6
BYLAYER
  8
0
 10
210.905644368299
 11
210.905644368299
 20
22.4865622721713
 21
20.5025317378202
 62
7
  0
LINE
  6
BYLAYER
  8
0
 10
208.92060620036
 11
210.905644368299
 20
20.5025317378202
 21
20.5025317378202
 62
7
  0
LINE
  6
BYLAYER
  8
0
 10
202.569995513337
 11
202.569995513337
 20
22.4865622721713
 21
20.5025317378202
 62
7
  0
LINE
  6
BYLAYER
  8
0
 10
204.555033681276
 11
202.569995513337
 20
22.4865622721713
 21
22.4865622721713
 62
7
  0
LINE
  6
BYLAYER
  8
0
 10
204.555033681276
 11
204.555033681276
 20
22.4865622721713
 21
20.5025317378202
 62
7
  0
LINE
  6
BYLAYER
  8
0
 10
202.569995513337
 11
204.555033681276
 20
20.5025317378202
 21
20.5025317378202
 62
7
  0
LINE
  6
BYLAYER
  8
0
 10
196.224422994253
 11
196.224422994253
 20
22.4865622721713
 21
20.5025317378202
 62
7
  0
LINE
  6
BYLAYER
  8
0
 10
198.206942078222
 11
196.224422994253
 20
22.4865622721713
 21
22.4865622721713
 62
7
  0
LINE
  6
BYLAYER
  8
0
 10
198.206942078222
 11
198.206942078222
 20
22.4865622721713
 21
20.5025317378202
 62
7
  0
LINE
  6
BYLAYER
  8
0
 10
196.224422994253
 11
198.206942078222
 20
20.5025317378202
 21
20.5025317378202
 62
7
  0
LINE
  6
BYLAYER
  8
0
 10
189.878850475169
 11
189.878850475169
 20
22.4865622721713
 21
20.5025317378202
 62
7
  0
LINE
  6
BYLAYER
  8
0
 10
191.861369559138
 11
189.878850475169
 20
22.4865622721713
 21
22.4865622721713
 62
7
  0
LINE
  6
BYLAYER
  8
0
 10
191.861369559138
 11
191.861369559138
 20
22.4865622721713
 21
20.5025317378202
 62
7
  0
LINE
  6
BYLAYER
  8
0
 10
189.878850475169
 11
191.861369559138
 20
20.5025317378202
 21
20.5025317378202
 62
7
  0
LINE
  6
BYLAYER
  8
0
 10
189.878850475169
 11
189.878850475169
 20
28.833646241637
 21
26.8491118904919
 62
7
  0
LINE
  6
BYLAYER
  8
0
 10
191.861369559138
 11
189.878850475169
 20
28.833646241637
 21
28.833646241637
 62
7
  0
LINE
  6
BYLAYER
  8
0
 10
191.861369559138
 11
191.861369559138
 20
28.833646241637
 21
26.8491118904919
 62
7
  0
LINE
  6
BYLAYER
  8
0
 10
189.878850475169
 11
191.861369559138
 20
26.8491118904919
 21
26.8491118904919
 62
7
  0
LINE
  6
BYLAYER
  8
0
 10
196.224422994253
 11
196.224422994253
 20
28.833646241637
 21
26.8491118904919
 62
7
  0
LINE
  6
BYLAYER
  8
0
 10
198.206942078222
 11
196.224422994253
 20
28.833646241637
 21
28.833646241637
 62
7
  0
LINE
  6
BYLAYER
  8
0
 10
198.206942078222
 11
198.206942078222
 20
28.833646241637
 21
26.8491118904919
 62
7
  0
LINE
  6
BYLAYER
  8
0
 10
196.224422994253
 11
198.206942078222
 20
26.8491118904919
 21
26.8491118904919
 62
7
  0
LINE
  6
BYLAYER
  8
0
 10
204.555033681276
 11
202.569995513337
 20
28.833646241637
 21
28.833646241637
 62
7
  0
LINE
  6
BYLAYER
  8
0
 10
204.555033681276
 11
204.555033681276
 20
28.833646241637
 21
26.8491118904919
 62
7
  0
LINE
  6
BYLAYER
  8
0
 10
202.569995513337
 11
204.555033681276
 20
26.8491118904919
 21
26.8491118904919
 62
7
  0
LINE
  6
BYLAYER
  8
0
 10
202.569995513337
 11
202.569995513337
 20
28.833646241637
 21
26.8491118904919
 62
7
  0
LINE
  6
BYLAYER
  8
0
 10
208.92060620036
 11
208.92060620036
 20
28.833646241637
 21
26.8491118904919
 62
7
  0
LINE
  6
BYLAYER
  8
0
 10
210.905644368299
 11
208.92060620036
 20
28.833646241637
 21
28.833646241637
 62
7
  0
LINE
  6
BYLAYER
  8
0
 10
210.905644368299
 11
210.905644368299
 20
28.833646241637
 21
26.8491118904919
 62
7
  0
LINE
  6
BYLAYER
  8
0
 10
208.92060620036
 11
210.905644368299
 20
26.8491118904919
 21
26.8491118904919
 62
7
  0
LINE
  6
BYLAYER
  8
0
 10
215.266178719444
 11
215.266178719444
 20
28.833646241637
 21
26.8491118904919
 62
7
  0
LINE
  6
BYLAYER
  8
0
 10
217.251216887383
 11
215.266178719444
 20
28.833646241637
 21
28.833646241637
 62
7
  0
LINE
  6
BYLAYER
  8
0
 10
217.251216887383
 11
217.251216887383
 20
28.833646241637
 21
26.8491118904919
 62
7
  0
LINE
  6
BYLAYER
  8
0
 10
215.266178719444
 11
217.251216887383
 20
26.8491118904919
 21
26.8491118904919
 62
7
  0
LINE
  6
BYLAYER
  8
0
 10
221.614270322497
 11
221.614270322497
 20
28.833646241637
 21
26.8491118904919
 62
7
  0
LINE
  6
BYLAYER
  8
0
 10
223.599308490436
 11
221.614270322497
 20
28.833646241637
 21
28.833646241637
 62
7
  0
LINE
  6
BYLAYER
  8
0
 10
223.599308490436
 11
223.599308490436
 20
28.833646241637
 21
26.8491118904919
 62
7
  0
LINE
  6
BYLAYER
  8
0
 10
221.614270322497
 11
223.599308490436
 20
26.8491118904919
 21
26.8491118904919
 62
7
  0
LINE
  6
BYLAYER
  8
0
 10
221.614270322497
 11
221.614270322497
 20
35.1807302111026
 21
33.1961958599576
 62
7
  0
LINE
  6
BYLAYER
  8
0
 10
223.599308490436
 11
221.614270322497
 20
35.1807302111026
 21
35.1807302111026
 62
7
  0
LINE
  6
BYLAYER
  8
0
 10
223.599308490436
 11
223.599308490436
 20
35.1807302111026
 21
33.1961958599576
 62
7
  0
LINE
  6
BYLAYER
  8
0
 10
221.614270322497
 11
223.599308490436
 20
33.1961958599576
 21
33.1961958599576
 62
7
  0
LINE
  6
BYLAYER
  8
0
 10
215.266178719444
 11
215.266178719444
 20
35.1807302111026
 21
33.1961958599576
 62
7
  0
LINE
  6
BYLAYER
  8
0
 10
217.251216887383
 11
215.266178719444
 20
35.1807302111026
 21
35.1807302111026
 62
7
  0
LINE
  6
BYLAYER
  8
0
 10
217.251216887383
 11
217.251216887383
 20
35.1807302111026
 21
33.1961958599576
 62
7
  0
LINE
  6
BYLAYER
  8
0
 10
215.266178719444
 11
217.251216887383
 20
33.1961958599576
 21
33.1961958599576
 62
7
  0
LINE
  6
BYLAYER
  8
0
 10
208.92060620036
 11
208.92060620036
 20
35.1807302111026
 21
33.1961958599576
 62
7
  0
LINE
  6
BYLAYER
  8
0
 10
210.905644368299
 11
208.92060620036
 20
35.1807302111026
 21
35.1807302111026
 62
7
  0
LINE
  6
BYLAYER
  8
0
 10
210.905644368299
 11
210.905644368299
 20
35.1807302111026
 21
33.1961958599576
 62
7
  0
LINE
  6
BYLAYER
  8
0
 10
208.92060620036
 11
210.905644368299
 20
33.1961958599576
 21
33.1961958599576
 62
7
  0
LINE
  6
BYLAYER
  8
0
 10
202.569995513337
 11
202.569995513337
 20
35.1807302111026
 21
33.1961958599576
 62
7
  0
LINE
  6
BYLAYER
  8
0
 10
204.555033681276
 11
202.569995513337
 20
35.1807302111026
 21
35.1807302111026
 62
7
  0
LINE
  6
BYLAYER
  8
0
 10
204.555033681276
 11
204.555033681276
 20
35.1807302111026
 21
33.1961958599576
 62
7
  0
LINE
  6
BYLAYER
  8
0
 10
202.569995513337
 11
204.555033681276
 20
33.1961958599576
 21
33.1961958599576
 62
7
  0
LINE
  6
BYLAYER
  8
0
 10
196.224422994253
 11
196.224422994253
 20
35.1807302111026
 21
33.1961958599576
 62
7
  0
LINE
  6
BYLAYER
  8
0
 10
198.206942078222
 11
196.224422994253
 20
35.1807302111026
 21
35.1807302111026
 62
7
  0
LINE
  6
BYLAYER
  8
0
 10
198.206942078222
 11
198.206942078222
 20
35.1807302111026
 21
33.1961958599576
 62
7
  0
LINE
  6
BYLAYER
  8
0
 10
196.224422994253
 11
198.206942078222
 20
33.1961958599576
 21
33.1961958599576
 62
7
  0
LINE
  6
BYLAYER
  8
0
 10
189.878850475169
 11
189.878850475169
 20
35.1807302111026
 21
33.1961958599576
 62
7
  0
LINE
  6
BYLAYER
  8
0
 10
191.861369559138
 11
189.878850475169
 20
35.1807302111026
 21
35.1807302111026
 62
7
  0
LINE
  6
BYLAYER
  8
0
 10
191.861369559138
 11
191.861369559138
 20
35.1807302111026
 21
33.1961958599576
 62
7
  0
LINE
  6
BYLAYER
  8
0
 10
189.878850475169
 11
191.861369559138
 20
33.1961958599576
 21
33.1961958599576
 62
7
  0
LINE
  6
BYLAYER
  8
0
 10
189.878850475169
 11
189.878850475169
 20
41.5260508217896
 21
39.5435317378202
 62
7
  0
LINE
  6
BYLAYER
  8
0
 10
191.861369559138
 11
189.878850475169
 20
41.5260508217896
 21
41.5260508217896
 62
7
  0
LINE
  6
BYLAYER
  8
0
 10
191.861369559138
 11
191.861369559138
 20
41.5260508217896
 21
39.5435317378202
 62
7
  0
LINE
  6
BYLAYER
  8
0
 10
189.878850475169
 11
191.861369559138
 20
39.5435317378202
 21
39.5435317378202
 62
7
  0
LINE
  6
BYLAYER
  8
0
 10
196.224422994253
 11
196.224422994253
 20
41.5260508217896
 21
39.5435317378202
 62
7
  0
LINE
  6
BYLAYER
  8
0
 10
198.206942078222
 11
196.224422994253
 20
41.5260508217896
 21
41.5260508217896
 62
7
  0
LINE
  6
BYLAYER
  8
0
 10
198.206942078222
 11
198.206942078222
 20
41.5260508217896
 21
39.5435317378202
 62
7
  0
LINE
  6
BYLAYER
  8
0
 10
196.224422994253
 11
198.206942078222
 20
39.5435317378202
 21
39.5435317378202
 62
7
  0
LINE
  6
BYLAYER
  8
0
 10
202.569995513337
 11
202.569995513337
 20
41.5260508217896
 21
39.5435317378202
 62
7
  0
LINE
  6
BYLAYER
  8
0
 10
204.555033681276
 11
202.569995513337
 20
41.5260508217896
 21
41.5260508217896
 62
7
  0
LINE
  6
BYLAYER
  8
0
 10
204.555033681276
 11
204.555033681276
 20
41.5260508217896
 21
39.5435317378202
 62
7
  0
LINE
  6
BYLAYER
  8
0
 10
202.569995513337
 11
204.555033681276
 20
39.5435317378202
 21
39.5435317378202
 62
7
  0
LINE
  6
BYLAYER
  8
0
 10
208.92060620036
 11
208.92060620036
 20
41.5260508217896
 21
39.5435317378202
 62
7
  0
LINE
  6
BYLAYER
  8
0
 10
210.905644368299
 11
208.92060620036
 20
41.5260508217896
 21
41.5260508217896
 62
7
  0
LINE
  6
BYLAYER
  8
0
 10
210.905644368299
 11
210.905644368299
 20
41.5260508217896
 21
39.5435317378202
 62
7
  0
LINE
  6
BYLAYER
  8
0
 10
208.92060620036
 11
210.905644368299
 20
39.5435317378202
 21
39.5435317378202
 62
7
  0
LINE
  6
BYLAYER
  8
0
 10
215.266178719444
 11
215.266178719444
 20
41.5260508217896
 21
39.5435317378202
 62
7
  0
LINE
  6
BYLAYER
  8
0
 10
217.251216887383
 11
215.266178719444
 20
41.5260508217896
 21
41.5260508217896
 62
7
  0
LINE
  6
BYLAYER
  8
0
 10
217.251216887383
 11
217.251216887383
 20
41.5260508217896
 21
39.5435317378202
 62
7
  0
LINE
  6
BYLAYER
  8
0
 10
215.266178719444
 11
217.251216887383
 20
39.5435317378202
 21
39.5435317378202
 62
7
  0
LINE
  6
BYLAYER
  8
0
 10
221.614270322497
 11
221.614270322497
 20
41.5260508217896
 21
39.5435317378202
 62
7
  0
LINE
  6
BYLAYER
  8
0
 10
223.599308490436
 11
221.614270322497
 20
41.5260508217896
 21
41.5260508217896
 62
7
  0
LINE
  6
BYLAYER
  8
0
 10
223.599308490436
 11
223.599308490436
 20
41.5260508217896
 21
39.5435317378202
 62
7
  0
LINE
  6
BYLAYER
  8
0
 10
221.614270322497
 11
223.599308490436
 20
39.5435317378202
 21
39.5435317378202
 62
7
  0
LINE
  6
BYLAYER
  8
0
 10
248.540758872115
 11
248.528163452268
 20
-112.613170552256
 21
-112.449178185844
 62
7
  0
LINE
  6
BYLAYER
  8
0
 10
248.528163452268
 11
248.374499330131
 20
-112.449178185844
 21
-111.965765972104
 62
7
  0
LINE
  6
BYLAYER
  8
0
 10
248.374499330131
 11
248.004193986619
 20
-111.965765972104
 21
-111.422903376684
 62
7
  0
LINE
  6
BYLAYER
  8
0
 10
248.004193986619
 11
247.472667269062
 20
-111.422903376684
 21
-111.047307956836
 62
7
  0
LINE
  6
BYLAYER
  8
0
 10
247.472667269062
 11
246.983964978986
 20
-111.047307956836
 21
-110.898178185844
 62
7
  0
LINE
  6
BYLAYER
  8
0
 10
246.983964978986
 11
246.82274360494
 20
-110.898178185844
 21
-110.893895743096
 62
7
  0
LINE
  6
BYLAYER
  8
0
 10
246.82274360494
 11
246.659003146925
 20
-110.893895743096
 21
-110.888857575157
 62
7
  0
LINE
  6
BYLAYER
  8
0
 10
246.659003146925
 11
246.165262688909
 20
-110.888857575157
 21
-111.01153696447
 62
7
  0
LINE
  6
BYLAYER
  8
0
 10
246.165262688909
 11
245.608545131657
 20
-111.01153696447
 21
-111.365720170577
 62
7
  0
LINE
  6
BYLAYER
  8
0
 10
245.608545131657
 11
245.223125284329
 20
-111.365720170577
 21
-111.896994979737
 62
7
  0
LINE
  6
BYLAYER
  8
0
 10
245.223125284329
 11
245.0770184141
 20
-111.896994979737
 21
-112.38519345302
 62
7
  0
LINE
  6
BYLAYER
  8
0
 10
245.0770184141
 11
245.0770184141
 20
-112.38519345302
 21
-112.549185819432
 62
7
  0
LINE
  6
BYLAYER
  8
0
 10
245.0770184141
 11
245.074499330131
 20
-112.549185819432
 21
-112.702094216378
 62
7
  0
LINE
  6
BYLAYER
  8
0
 10
245.074499330131
 11
245.180300856848
 20
-112.702094216378
 21
-113.162834674394
 62
7
  0
LINE
  6
BYLAYER
  8
0
 10
245.180300856848
 11
245.482590933184
 20
-113.162834674394
 21
-113.707964445386
 62
7
  0
LINE
  6
BYLAYER
  8
0
 10
245.482590933184
 11
245.946102383566
 20
-113.707964445386
 21
-114.116559865233
 62
7
  0
LINE
  6
BYLAYER
  8
0
 10
245.946102383566
 11
246.379384826314
 20
-114.116559865233
 21
-114.308010246913
 62
7
  0
LINE
  6
BYLAYER
  8
0
 10
246.379384826314
 11
246.530529864482
 20
-114.308010246913
 21
-114.32967436905
 62
7
  0
LINE
  6
BYLAYER
  8
0
 10
246.530529864482
 11
246.714422994253
 20
-114.32967436905
 21
-114.355872842333
 62
7
  0
LINE
  6
BYLAYER
  8
0
 10
246.714422994253
 11
247.283735971352
 20
-114.355872842333
 21
-114.272491162943
 62
7
  0
LINE
  6
BYLAYER
  8
0
 10
247.283735971352
 11
247.90846879578
 20
-114.272491162943
 21
-113.915788872867
 62
7
  0
LINE
  6
BYLAYER
  8
0
 10
247.90846879578
 11
248.349308490436
 20
-113.915788872867
 21
-113.337911010271
 62
7
  0
LINE
  6
BYLAYER
  8
0
 10
248.349308490436
 11
248.530682536238
 20
-113.337911010271
 21
-112.796559865233
 62
7
  0
LINE
  6
BYLAYER
  8
0
 10
248.530682536238
 11
248.540758872115
 20
-112.796559865233
 21
-112.613170552256
 62
7
  0
LINE
  6
BYLAYER
  8
0
 10
176.094422994253
 11
237.383735971352
 20
104.137882882858
 21
104.137882882858
 62
7
  0
LINE
  6
BYLAYER
  8
0
 10
176.094422994253
 11
176.094422994253
 20
-96.2990789492028
 21
104.137882882858
 62
7
  0
LINE
  6
BYLAYER
  8
0
 10
237.383735971352
 11
176.094422994253
 20
-96.2990789492028
 21
-96.2990789492028
 62
7
  0
LINE
  6
BYLAYER
  8
0
 10
237.383735971352
 11
237.383735971352
 20
104.137882882858
 21
-96.2975674988211
 62
7
  0
LINE
  6
BYLAYER
  8
0
 10
245.903277956085
 11
247.709461162192
 20
-112.557246888134
 21
-112.557246888134
 62
7
  0
LINE
  6
BYLAYER
  8
0
 10
248.303964978986
 11
248.253583299596
 20
-112.584704903401
 21
-112.575132384317
 62
7
  0
LINE
  6
BYLAYER
  8
0
 10
248.253583299596
 11
247.842972612573
 20
-112.575132384317
 21
-112.557246888134
 62
7
  0
LINE
  6
BYLAYER
  8
0
 10
247.842972612573
 11
247.709461162192
 20
-112.557246888134
 21
-112.557246888134
 62
7
  0
LINE
  6
BYLAYER
  8
0
 10
248.303964978986
 11
248.32915581868
 20
-112.584704903401
 21
-112.611911010271
 62
7
  0
LINE
  6
BYLAYER
  8
0
 10
245.303735971352
 11
245.276026047688
 20
-112.584704903401
 21
-112.611911010271
 62
7
  0
LINE
  6
BYLAYER
  8
0
 10
245.903277956085
 11
245.852896276696
 20
-112.557246888134
 21
-112.557246888134
 62
7
  0
LINE
  6
BYLAYER
  8
0
 10
245.852896276696
 11
245.351598566772
 20
-112.557246888134
 21
-112.575132384317
 62
7
  0
LINE
  6
BYLAYER
  8
0
 10
245.351598566772
 11
245.303735971352
 20
-112.575132384317
 21
-112.584704903401
 62
7
  0
LINE
  6
BYLAYER
  8
0
 10
177.734346658375
 11
177.230529864482
 20
-74.8269110102715
 21
-75.3231705522562
 62
7
  0
LINE
  6
BYLAYER
  8
0
 10
177.734346658375
 11
177.230529864482
 20
-56.1335445980577
 21
-55.6292239873707
 62
7
  0
LINE
  6
BYLAYER
  8
0
 10
235.74129322326
 11
236.245110017154
 20
-56.1335445980577
 21
-55.6292239873707
 62
7
  0
LINE
  6
BYLAYER
  8
0
 10
235.74129322326
 11
236.245110017154
 20
-74.8269110102715
 21
-75.3231705522562
 62
7
  0
LINE
  6
BYLAYER
  8
0
 10
177.230529864482
 11
177.230529864482
 20
-75.3231705522562
 21
-55.6292239873707
 62
7
  0
LINE
  6
BYLAYER
  8
0
 10
236.245110017154
 11
236.245110017154
 20
-75.3231705522562
 21
-55.6292239873707
 62
7
  0
LINE
  6
BYLAYER
  8
0
 10
177.734346658375
 11
177.230529864482
 20
-54.9923995598898
 21
-55.4899186438592
 62
7
  0
LINE
  6
BYLAYER
  8
0
 10
177.734346658375
 11
177.230529864482
 20
-36.2987812392791
 21
-35.7916896362257
 62
7
  0
LINE
  6
BYLAYER
  8
0
 10
235.74129322326
 11
236.245110017154
 20
-36.2987812392791
 21
-35.7916896362257
 62
7
  0
LINE
  6
BYLAYER
  8
0
 10
235.74129322326
 11
236.245110017154
 20
-54.9923995598898
 21
-55.4899186438592
 62
7
  0
LINE
  6
BYLAYER
  8
0
 10
177.230529864482
 11
177.230529864482
 20
-55.4899186438592
 21
-35.7916896362257
 62
7
  0
LINE
  6
BYLAYER
  8
0
 10
236.245110017154
 11
236.245110017154
 20
-55.4899186438592
 21
-35.7916896362257
 62
7
  0
LINE
  6
BYLAYER
  8
0
 10
177.734346658375
 11
177.230529864482
 20
-35.1588957430959
 21
-35.6511247507295
 62
7
  0
LINE
  6
BYLAYER
  8
0
 10
177.734346658375
 11
177.230529864482
 20
-16.4612468881341
 21
-15.957178185844
 62
7
  0
LINE
  6
BYLAYER
  8
0
 10
177.230529864482
 11
236.245110017154
 20
-15.957178185844
 21
-15.957178185844
 62
7
  0
LINE
  6
BYLAYER
  8
0
 10
235.74129322326
 11
236.245110017154
 20
-16.4612468881341
 21
-15.957178185844
 62
7
  0
LINE
  6
BYLAYER
  8
0
 10
235.74129322326
 11
236.245110017154
 20
-35.1588957430959
 21
-35.6511247507295
 62
7
  0
LINE
  6
BYLAYER
  8
0
 10
177.230529864482
 11
177.230529864482
 20
-35.6511247507295
 21
-15.957178185844
 62
7
  0
LINE
  6
BYLAYER
  8
0
 10
236.245110017154
 11
236.245110017154
 20
-35.6511247507295
 21
-15.957178185844
 62
7
  0
LINE
  6
BYLAYER
  8
0
 10
235.688392459902
 11
236.194728337764
 20
-75.9683079568363
 21
-75.4642392545463
 62
7
  0
LINE
  6
BYLAYER
  8
0
 10
235.688392459902
 11
236.194728337764
 20
-94.6619262774471
 21
-95.1581858194318
 62
7
  0
LINE
  6
BYLAYER
  8
0
 10
236.194728337764
 11
236.194728337764
 20
-95.1581858194318
 21
-75.4642392545463
 62
7
  0
LINE
  6
BYLAYER
  8
0
 10
177.787247421734
 11
177.283430627841
 20
-94.6619262774471
 21
-95.1581858194318
 62
7
  0
LINE
  6
BYLAYER
  8
0
 10
177.787247421734
 11
177.283430627841
 20
-75.9683079568363
 21
-75.4642392545463
 62
7
  0
LINE
  6
BYLAYER
  8
0
 10
177.283430627841
 11
236.194728337764
 20
-95.1581858194318
 21
-95.1581858194318
 62
7
  0
LINE
  6
BYLAYER
  8
0
 10
177.283430627841
 11
177.283430627841
 20
-95.1581858194318
 21
-75.4642392545463
 62
7
  0
LINE
  6
BYLAYER
  8
0
 10
252.037247421734
 11
251.77022452097
 20
129.686432501179
 21
129.72925692866
 62
7
  0
LINE
  6
BYLAYER
  8
0
 10
251.77022452097
 11
250.392285589673
 20
129.72925692866
 21
129.77711952408
 62
7
  0
LINE
  6
BYLAYER
  8
0
 10
250.392285589673
 11
249.152896276696
 20
129.77711952408
 21
129.744371432477
 62
7
  0
LINE
  6
BYLAYER
  8
0
 10
249.152896276696
 11
248.742285589673
 20
129.744371432477
 21
129.744371432477
 62
7
  0
LINE
  6
BYLAYER
  8
0
 10
248.742285589673
 11
241.54022452097
 20
129.744371432477
 21
129.744371432477
 62
7
  0
LINE
  6
BYLAYER
  8
0
 10
241.54022452097
 11
230.881980246161
 20
129.744371432477
 21
129.744371432477
 62
7
  0
LINE
  6
BYLAYER
  8
0
 10
230.881980246161
 11
217.996865742344
 20
129.744371432477
 21
129.744371432477
 62
7
  0
LINE
  6
BYLAYER
  8
0
 10
217.996865742344
 11
204.114193986619
 20
129.744371432477
 21
129.744371432477
 62
7
  0
LINE
  6
BYLAYER
  8
0
 10
204.114193986619
 11
190.463277956085
 20
129.744371432477
 21
129.744371432477
 62
7
  0
LINE
  6
BYLAYER
  8
0
 10
190.463277956085
 11
178.270911543871
 20
129.744371432477
 21
129.744371432477
 62
7
  0
LINE
  6
BYLAYER
  8
0
 10
178.270911543871
 11
168.766407727077
 20
129.744371432477
 21
129.744371432477
 62
7
  0
LINE
  6
BYLAYER
  8
0
 10
168.766407727077
 11
163.176560398833
 20
129.744371432477
 21
129.744371432477
 62
7
  0
LINE
  6
BYLAYER
  8
0
 10
163.176560398833
 11
162.234422994253
 20
129.744371432477
 21
129.744371432477
 62
7
  0
LINE
  6
BYLAYER
  8
0
 10
162.234422994253
 11
161.990071849215
 20
129.744371432477
 21
129.744371432477
 62
7
  0
LINE
  6
BYLAYER
  8
0
 10
161.990071849215
 11
161.25953749807
 20
129.744371432477
 21
129.641088989729
 62
7
  0
LINE
  6
BYLAYER
  8
0
 10
161.25953749807
 11
160.337552765245
 20
129.641088989729
 21
129.346356165301
 62
7
  0
LINE
  6
BYLAYER
  8
0
 10
160.337552765245
 11
159.496178719444
 20
129.346356165301
 21
128.882844714919
 62
7
  0
LINE
  6
BYLAYER
  8
0
 10
159.496178719444
 11
158.755568032421
 20
128.882844714919
 21
128.273226394309
 62
7
  0
LINE
  6
BYLAYER
  8
0
 10
158.755568032421
 11
158.140911543871
 20
128.273226394309
 21
127.540172959194
 62
7
  0
LINE
  6
BYLAYER
  8
0
 10
158.140911543871
 11
157.67488100952
 20
127.540172959194
 21
126.703837081332
 62
7
  0
LINE
  6
BYLAYER
  8
0
 10
157.67488100952
 11
157.380148185092
 20
126.703837081332
 21
125.786890516446
 62
7
  0
LINE
  6
BYLAYER
  8
0
 10
157.380148185092
 11
157.279384826314
 20
125.786890516446
 21
125.056356165301
 62
7
  0
LINE
  6
BYLAYER
  8
0
 10
157.279384826314
 11
157.281903910283
 20
125.056356165301
 21
124.812005020263
 62
7
  0
LINE
  6
BYLAYER
  8
0
 10
157.281903910283
 11
157.281903910283
 20
124.812005020263
 21
124.451776012629
 62
7
  0
LINE
  6
BYLAYER
  8
0
 10
157.281903910283
 11
157.281903910283
 20
124.451776012629
 21
122.224905783622
 62
7
  0
LINE
  6
BYLAYER
  8
0
 10
157.281903910283
 11
157.281903910283
 20
122.224905783622
 21
118.098646241637
 62
7
  0
LINE
  6
BYLAYER
  8
0
 10
157.281903910283
 11
157.281903910283
 20
118.098646241637
 21
112.241776012629
 62
7
  0
LINE
  6
BYLAYER
  8
0
 10
157.281903910283
 11
157.281903910283
 20
112.241776012629
 21
104.823073722553
 62
7
  0
LINE
  6
BYLAYER
  8
0
 10
157.281903910283
 11
157.281903910283
 20
104.823073722553
 21
96.0087989133927
 62
7
  0
LINE
  6
BYLAYER
  8
0
 10
157.281903910283
 11
157.281903910283
 20
96.0087989133927
 21
85.9652111271331
 62
7
  0
LINE
  6
BYLAYER
  8
0
 10
157.281903910283
 11
157.281903910283
 20
85.9652111271331
 21
74.8560508217896
 62
7
  0
LINE
  6
BYLAYER
  8
0
 10
157.281903910283
 11
157.281903910283
 20
74.8560508217896
 21
62.8500966233164
 62
7
  0
LINE
  6
BYLAYER
  8
0
 10
157.281903910283
 11
157.281903910283
 20
62.8500966233164
 21
50.1161271576675
 62
7
  0
LINE
  6
BYLAYER
  8
0
 10
157.281903910283
 11
157.281903910283
 20
50.1161271576675
 21
36.8176309744613
 62
7
  0
LINE
  6
BYLAYER
  8
0
 10
157.281903910283
 11
157.281903910283
 20
36.8176309744613
 21
23.1236386080491
 62
7
  0
LINE
  6
BYLAYER
  8
0
 10
157.281903910283
 11
157.281903910283
 20
23.1236386080491
 21
9.19990578362166
 62
7
  0
LINE
  6
BYLAYER
  8
0
 10
157.281903910283
 11
157.281903910283
 20
9.19990578362166
 21
-4.78554459805773
 62
7
  0
LINE
  6
BYLAYER
  8
0
 10
157.281903910283
 11
157.281903910283
 20
-4.78554459805773
 21
-18.6684682621799
 62
7
  0
LINE
  6
BYLAYER
  8
0
 10
157.281903910283
 11
157.281903910283
 20
-18.6684682621799
 21
-32.2808423079814
 62
7
  0
LINE
  6
BYLAYER
  8
0
 10
157.281903910283
 11
157.281903910283
 20
-32.2808423079814
 21
-45.4569110102715
 62
7
  0
LINE
  6
BYLAYER
  8
0
 10
157.281903910283
 11
157.281903910283
 20
-45.4569110102715
 21
-58.0278957430959
 62
7
  0
LINE
  6
BYLAYER
  8
0
 10
157.281903910283
 11
157.281903910283
 20
-58.0278957430959
 21
-69.8277888728669
 62
7
  0
LINE
  6
BYLAYER
  8
0
 10
157.281903910283
 11
157.281903910283
 20
-69.8277888728669
 21
-80.6915903995844
 62
7
  0
LINE
  6
BYLAYER
  8
0
 10
157.281903910283
 11
157.281903910283
 20
-80.6915903995844
 21
-90.4510255140883
 62
7
  0
LINE
  6
BYLAYER
  8
0
 10
157.281903910283
 11
157.281903910283
 20
-90.4510255140883
 21
-98.938071315615
 62
7
  0
LINE
  6
BYLAYER
  8
0
 10
157.281903910283
 11
157.281903910283
 20
-98.938071315615
 21
-105.990498796531
 62
7
  0
LINE
  6
BYLAYER
  8
0
 10
157.281903910283
 11
157.281903910283
 20
-105.990498796531
 21
-111.438017880501
 62
7
  0
LINE
  6
BYLAYER
  8
0
 10
157.281903910283
 11
157.281903910283
 20
-111.438017880501
 21
-115.114620933936
 62
7
  0
LINE
  6
BYLAYER
  8
0
 10
157.281903910283
 11
157.281903910283
 20
-115.114620933936
 21
-116.851529330882
 62
7
  0
LINE
  6
BYLAYER
  8
0
 10
157.281903910283
 11
157.281903910283
 20
-116.851529330882
 21
-117.24526215531
 62
7
  0
LINE
  6
BYLAYER
  8
0
 10
157.281903910283
 11
157.53129322326
 20
-117.24526215531
 21
-118.427216353783
 62
7
  0
LINE
  6
BYLAYER
  8
0
 10
157.53129322326
 11
158.093048948451
 20
-118.427216353783
 21
-119.635620933936
 62
7
  0
LINE
  6
BYLAYER
  8
0
 10
158.093048948451
 11
158.249232154558
 20
-119.635620933936
 21
-119.854277422485
 62
7
  0
LINE
  6
BYLAYER
  8
0
 10
158.249232154558
 11
158.423048948451
 20
-119.854277422485
 21
-120.09888047592
 62
7
  0
LINE
  6
BYLAYER
  8
0
 10
158.423048948451
 11
159.075491696543
 20
-120.09888047592
 21
-120.749307956836
 62
7
  0
LINE
  6
BYLAYER
  8
0
 10
159.075491696543
 11
160.068010780512
 20
-120.749307956836
 21
-121.390162918668
 62
7
  0
LINE
  6
BYLAYER
  8
0
 10
160.068010780512
 11
161.186484062955
 20
-121.390162918668
 21
-121.775834674394
 62
7
  0
LINE
  6
BYLAYER
  8
0
 10
161.186484062955
 11
162.093354291963
 20
-121.775834674394
 21
-121.905567498821
 62
7
  0
LINE
  6
BYLAYER
  8
0
 10
162.093354291963
 11
162.395644368299
 20
-121.905567498821
 21
-121.905567498821
 62
7
  0
LINE
  6
BYLAYER
  8
0
 10
162.395644368299
 11
166.39594971181
 20
-121.905567498821
 21
-121.905567498821
 62
7
  0
LINE
  6
BYLAYER
  8
0
 10
166.39594971181
 11
174.726560398833
 20
-121.905567498821
 21
-121.905567498821
 62
7
  0
LINE
  6
BYLAYER
  8
0
 10
174.726560398833
 11
186.155644368299
 20
-121.905567498821
 21
-121.905567498821
 62
7
  0
LINE
  6
BYLAYER
  8
0
 10
186.155644368299
 11
199.456407727077
 20
-121.905567498821
 21
-121.905567498821
 62
7
  0
LINE
  6
BYLAYER
  8
0
 10
199.456407727077
 11
213.3970184141
 20
-121.905567498821
 21
-121.905567498821
 62
7
  0
LINE
  6
BYLAYER
  8
0
 10
213.3970184141
 11
226.753201620207
 20
-121.905567498821
 21
-121.905567498821
 62
7
  0
LINE
  6
BYLAYER
  8
0
 10
226.753201620207
 11
238.295644368299
 20
-121.905567498821
 21
-121.905567498821
 62
7
  0
LINE
  6
BYLAYER
  8
0
 10
238.295644368299
 11
246.789995513337
 20
-121.905567498821
 21
-121.905567498821
 62
7
  0
LINE
  6
BYLAYER
  8
0
 10
246.789995513337
 11
251.011980246161
 20
-121.905567498821
 21
-121.905567498821
 62
7
  0
LINE
  6
BYLAYER
  8
0
 10
251.011980246161
 11
251.268926811047
 20
-121.905567498821
 21
-121.905567498821
 62
7
  0
LINE
  6
BYLAYER
  8
0
 10
251.268926811047
 11
252.044804673642
 20
-121.905567498821
 21
-121.807323224012
 62
7
  0
LINE
  6
BYLAYER
  8
0
 10
252.044804673642
 11
253.012132917917
 20
-121.807323224012
 21
-121.524178185844
 62
7
  0
LINE
  6
BYLAYER
  8
0
 10
253.012132917917
 11
253.89381230723
 20
-121.524178185844
 21
-121.071750704928
 62
7
  0
LINE
  6
BYLAYER
  8
0
 10
253.89381230723
 11
254.662132917917
 20
-121.071750704928
 21
-120.468933911035
 62
7
  0
LINE
  6
BYLAYER
  8
0
 10
254.662132917917
 11
255.296942078222
 20
-120.468933911035
 21
-119.732353758363
 62
7
  0
LINE
  6
BYLAYER
  8
0
 10
255.296942078222
 11
255.78060620036
 20
-119.732353758363
 21
-118.877124750729
 62
7
  0
LINE
  6
BYLAYER
  8
0
 10
255.78060620036
 11
256.087934444634
 20
-118.877124750729
 21
-117.921636201111
 62
7
  0
LINE
  6
BYLAYER
  8
0
 10
256.087934444634
 11
256.196255055322
 20
-117.921636201111
 21
-117.141223987371
 62
7
  0
LINE
  6
BYLAYER
  8
0
 10
256.196255055322
 11
256.196255055322
 20
-117.141223987371
 21
-116.881254521722
 62
7
  0
LINE
  6
BYLAYER
  8
0
 10
256.196255055322
 11
256.196255055322
 20
-116.881254521722
 21
-115.234529330882
 62
7
  0
LINE
  6
BYLAYER
  8
0
 10
256.196255055322
 11
256.196255055322
 20
-115.234529330882
 21
-111.643071315615
 62
7
  0
LINE
  6
BYLAYER
  8
0
 10
256.196255055322
 11
256.196255055322
 20
-111.643071315615
 21
-106.270369025539
 62
7
  0
LINE
  6
BYLAYER
  8
0
 10
256.196255055322
 11
256.196255055322
 20
-106.270369025539
 21
-99.2879720789738
 62
7
  0
LINE
  6
BYLAYER
  8
0
 10
256.196255055322
 11
256.196255055322
 20
-99.2879720789738
 21
-90.8608804759203
 62
7
  0
LINE
  6
BYLAYER
  8
0
 10
256.196255055322
 11
256.196255055322
 20
-90.8608804759203
 21
-81.1548499415692
 62
7
  0
LINE
  6
BYLAYER
  8
0
 10
256.196255055322
 11
256.196255055322
 20
-81.1548499415692
 21
-70.3373995598898
 62
7
  0
LINE
  6
BYLAYER
  8
0
 10
256.196255055322
 11
256.196255055322
 20
-70.3373995598898
 21
-58.5757965064547
 62
7
  0
LINE
  6
BYLAYER
  8
0
 10
256.196255055322
 11
256.196255055322
 20
-58.5757965064547
 21
-46.0350407812638
 62
7
  0
LINE
  6
BYLAYER
  8
0
 10
256.196255055322
 11
256.196255055322
 20
-46.0350407812638
 21
-32.8846667354623
 62
7
  0
LINE
  6
BYLAYER
  8
0
 10
256.196255055322
 11
256.196255055322
 20
-32.8846667354623
 21
-19.2889186438592
 62
7
  0
LINE
  6
BYLAYER
  8
0
 10
256.196255055322
 11
256.196255055322
 20
-19.2889186438592
 21
-5.41430795683635
 62
7
  0
LINE
  6
BYLAYER
  8
0
 10
256.196255055322
 11
256.196255055322
 20
-5.41430795683635
 21
8.57114242484303
 62
7
  0
LINE
  6
BYLAYER
  8
0
 10
256.196255055322
 11
256.196255055322
 20
8.57114242484303
 21
22.501676775988
 62
7
  0
LINE
  6
BYLAYER
  8
0
 10
256.196255055322
 11
256.196255055322
 20
22.501676775988
 21
36.2097760126293
 62
7
  0
LINE
  6
BYLAYER
  8
0
 10
256.196255055322
 11
256.196255055322
 20
36.2097760126293
 21
49.529180592782
 62
7
  0
LINE
  6
BYLAYER
  8
0
 10
256.196255055322
 11
256.196255055322
 20
49.529180592782
 21
62.290859982095
 62
7
  0
LINE
  6
BYLAYER
  8
0
 10
256.196255055322
 11
256.196255055322
 20
62.290859982095
 21
74.3346004401102
 62
7
  0
LINE
  6
BYLAYER
  8
0
 10
256.196255055322
 11
256.196255055322
 20
74.3346004401102
 21
85.4865851729347
 62
7
  0
LINE
  6
BYLAYER
  8
0
 10
256.196255055322
 11
256.196255055322
 20
85.4865851729347
 21
95.5805546385835
 62
7
  0
LINE
  6
BYLAYER
  8
0
 10
256.196255055322
 11
256.196255055322
 20
95.5805546385835
 21
104.45780654698
 62
7
  0
LINE
  6
BYLAYER
  8
0
 10
256.196255055322
 11
256.196255055322
 20
104.45780654698
 21
111.939485936293
 62
7
  0
LINE
  6
BYLAYER
  8
0
 10
256.196255055322
 11
256.196255055322
 20
111.939485936293
 21
117.871928684385
 62
7
  0
LINE
  6
BYLAYER
  8
0
 10
256.196255055322
 11
256.196255055322
 20
117.871928684385
 21
122.078798913393
 62
7
  0
LINE
  6
BYLAYER
  8
0
 10
256.196255055322
 11
256.196255055322
 20
122.078798913393
 21
124.396356165301
 62
7
  0
LINE
  6
BYLAYER
  8
0
 10
256.196255055322
 11
256.196255055322
 20
124.396356165301
 21
124.794371432477
 62
7
  0
LINE
  6
BYLAYER
  8
0
 10
256.196255055322
 11
256.196255055322
 20
124.794371432477
 21
125.220096623316
 62
7
  0
LINE
  6
BYLAYER
  8
0
 10
256.196255055322
 11
255.87129322326
 20
125.220096623316
 21
126.502310363774
 62
7
  0
LINE
  6
BYLAYER
  8
0
 10
255.87129322326
 11
254.989613833947
 20
126.502310363774
 21
127.988569905759
 62
7
  0
LINE
  6
BYLAYER
  8
0
 10
254.989613833947
 11
253.669613833947
 20
127.988569905759
 21
129.099485936293
 62
7
  0
LINE
  6
BYLAYER
  8
0
 10
253.669613833947
 11
252.455415360665
 20
129.099485936293
 21
129.620936317973
 62
7
  0
LINE
  6
BYLAYER
  8
0
 10
252.455415360665
 11
252.037247421734
 20
129.620936317973
 21
129.686432501179
 62
7
  0
LINE
  6
BYLAYER
  8
0
 10
252.037247421734
 11
252.037247421734
 20
129.686432501179
 21
129.686432501179
 62
7
  0
LINE
  6
BYLAYER
  8
0
 10
235.494422994253
 11
177.200300856848
 20
-94.6619262774471
 21
-94.6619262774471
 62
7
  0
LINE
  6
BYLAYER
  8
0
 10
177.200300856848
 11
177.200300856848
 20
-94.6619262774471
 21
102.933760745454
 62
7
  0
LINE
  6
BYLAYER
  8
0
 10
177.200300856848
 11
235.494422994253
 20
102.933760745454
 21
102.933760745454
 62
7
  0
LINE
  6
BYLAYER
  8
0
 10
235.494422994253
 11
235.494422994253
 20
102.933760745454
 21
-94.6619262774471
 62
7
  0
LINE
  6
BYLAYER
  8
0
 10
235.494422994253
 11
235.494422994253
 20
-94.6619262774471
 21
-94.6619262774471
 62
7
  0
LINE
  6
BYLAYER
  8
0
 10
252.037247421734
 11
251.77022452097
 20
129.686432501179
 21
129.72925692866
 62
7
  0
LINE
  6
BYLAYER
  8
0
 10
251.77022452097
 11
250.392285589673
 20
129.72925692866
 21
129.77711952408
 62
7
  0
LINE
  6
BYLAYER
  8
0
 10
250.392285589673
 11
249.152896276696
 20
129.77711952408
 21
129.744371432477
 62
7
  0
LINE
  6
BYLAYER
  8
0
 10
249.152896276696
 11
248.742285589673
 20
129.744371432477
 21
129.744371432477
 62
7
  0
LINE
  6
BYLAYER
  8
0
 10
248.742285589673
 11
241.54022452097
 20
129.744371432477
 21
129.744371432477
 62
7
  0
LINE
  6
BYLAYER
  8
0
 10
241.54022452097
 11
230.881980246161
 20
129.744371432477
 21
129.744371432477
 62
7
  0
LINE
  6
BYLAYER
  8
0
 10
230.881980246161
 11
217.996865742344
 20
129.744371432477
 21
129.744371432477
 62
7
  0
LINE
  6
BYLAYER
  8
0
 10
217.996865742344
 11
204.114193986619
 20
129.744371432477
 21
129.744371432477
 62
7
  0
LINE
  6
BYLAYER
  8
0
 10
204.114193986619
 11
190.463277956085
 20
129.744371432477
 21
129.744371432477
 62
7
  0
LINE
  6
BYLAYER
  8
0
 10
190.463277956085
 11
178.270911543871
 20
129.744371432477
 21
129.744371432477
 62
7
  0
LINE
  6
BYLAYER
  8
0
 10
178.270911543871
 11
168.766407727077
 20
129.744371432477
 21
129.744371432477
 62
7
  0
LINE
  6
BYLAYER
  8
0
 10
168.766407727077
 11
163.176560398833
 20
129.744371432477
 21
129.744371432477
 62
7
  0
LINE
  6
BYLAYER
  8
0
 10
163.176560398833
 11
162.234422994253
 20
129.744371432477
 21
129.744371432477
 62
7
  0
LINE
  6
BYLAYER
  8
0
 10
162.234422994253
 11
161.990071849215
 20
129.744371432477
 21
129.744371432477
 62
7
  0
LINE
  6
BYLAYER
  8
0
 10
161.990071849215
 11
161.25953749807
 20
129.744371432477
 21
129.641088989729
 62
7
  0
LINE
  6
BYLAYER
  8
0
 10
161.25953749807
 11
160.337552765245
 20
129.641088989729
 21
129.346356165301
 62
7
  0
LINE
  6
BYLAYER
  8
0
 10
160.337552765245
 11
159.496178719444
 20
129.346356165301
 21
128.882844714919
 62
7
  0
LINE
  6
BYLAYER
  8
0
 10
159.496178719444
 11
158.755568032421
 20
128.882844714919
 21
128.273226394309
 62
7
  0
LINE
  6
BYLAYER
  8
0
 10
158.755568032421
 11
158.140911543871
 20
128.273226394309
 21
127.540172959194
 62
7
  0
LINE
  6
BYLAYER
  8
0
 10
158.140911543871
 11
157.67488100952
 20
127.540172959194
 21
126.703837081332
 62
7
  0
LINE
  6
BYLAYER
  8
0
 10
157.67488100952
 11
157.380148185092
 20
126.703837081332
 21
125.786890516446
 62
7
  0
LINE
  6
BYLAYER
  8
0
 10
157.380148185092
 11
157.279384826314
 20
125.786890516446
 21
125.056356165301
 62
7
  0
LINE
  6
BYLAYER
  8
0
 10
157.279384826314
 11
157.281903910283
 20
125.056356165301
 21
124.812005020263
 62
7
  0
LINE
  6
BYLAYER
  8
0
 10
157.281903910283
 11
157.281903910283
 20
124.812005020263
 21
124.451776012629
 62
7
  0
LINE
  6
BYLAYER
  8
0
 10
157.281903910283
 11
157.281903910283
 20
124.451776012629
 21
122.224905783622
 62
7
  0
LINE
  6
BYLAYER
  8
0
 10
157.281903910283
 11
157.281903910283
 20
122.224905783622
 21
118.098646241637
 62
7
  0
LINE
  6
BYLAYER
  8
0
 10
157.281903910283
 11
157.281903910283
 20
118.098646241637
 21
112.241776012629
 62
7
  0
LINE
  6
BYLAYER
  8
0
 10
157.281903910283
 11
157.281903910283
 20
112.241776012629
 21
104.823073722553
 62
7
  0
LINE
  6
BYLAYER
  8
0
 10
157.281903910283
 11
157.281903910283
 20
104.823073722553
 21
96.0087989133927
 62
7
  0
LINE
  6
BYLAYER
  8
0
 10
157.281903910283
 11
157.281903910283
 20
96.0087989133927
 21
85.9652111271331
 62
7
  0
LINE
  6
BYLAYER
  8
0
 10
157.281903910283
 11
157.281903910283
 20
85.9652111271331
 21
74.8560508217896
 62
7
  0
LINE
  6
BYLAYER
  8
0
 10
157.281903910283
 11
157.281903910283
 20
74.8560508217896
 21
62.8500966233164
 62
7
  0
LINE
  6
BYLAYER
  8
0
 10
157.281903910283
 11
157.281903910283
 20
62.8500966233164
 21
50.1161271576675
 62
7
  0
LINE
  6
BYLAYER
  8
0
 10
157.281903910283
 11
157.281903910283
 20
50.1161271576675
 21
36.8176309744613
 62
7
  0
LINE
  6
BYLAYER
  8
0
 10
157.281903910283
 11
157.281903910283
 20
36.8176309744613
 21
23.1236386080491
 62
7
  0
LINE
  6
BYLAYER
  8
0
 10
157.281903910283
 11
157.281903910283
 20
23.1236386080491
 21
9.19990578362166
 62
7
  0
LINE
  6
BYLAYER
  8
0
 10
157.281903910283
 11
157.281903910283
 20
9.19990578362166
 21
-4.78554459805773
 62
7
  0
LINE
  6
BYLAYER
  8
0
 10
157.281903910283
 11
157.281903910283
 20
-4.78554459805773
 21
-18.6684682621799
 62
7
  0
LINE
  6
BYLAYER
  8
0
 10
157.281903910283
 11
157.281903910283
 20
-18.6684682621799
 21
-32.2808423079814
 62
7
  0
LINE
  6
BYLAYER
  8
0
 10
157.281903910283
 11
157.281903910283
 20
-32.2808423079814
 21
-45.4569110102715
 62
7
  0
LINE
  6
BYLAYER
  8
0
 10
157.281903910283
 11
157.281903910283
 20
-45.4569110102715
 21
-58.0278957430959
 62
7
  0
LINE
  6
BYLAYER
  8
0
 10
157.281903910283
 11
157.281903910283
 20
-58.0278957430959
 21
-69.8277888728669
 62
7
  0
LINE
  6
BYLAYER
  8
0
 10
157.281903910283
 11
157.281903910283
 20
-69.8277888728669
 21
-80.6915903995844
 62
7
  0
LINE
  6
BYLAYER
  8
0
 10
157.281903910283
 11
157.281903910283
 20
-80.6915903995844
 21
-90.4510255140883
 62
7
  0
LINE
  6
BYLAYER
  8
0
 10
157.281903910283
 11
157.281903910283
 20
-90.4510255140883
 21
-98.938071315615
 62
7
  0
LINE
  6
BYLAYER
  8
0
 10
157.281903910283
 11
157.281903910283
 20
-98.938071315615
 21
-105.990498796531
 62
7
  0
LINE
  6
BYLAYER
  8
0
 10
157.281903910283
 11
157.281903910283
 20
-105.990498796531
 21
-111.438017880501
 62
7
  0
LINE
  6
BYLAYER
  8
0
 10
157.281903910283
 11
157.281903910283
 20
-111.438017880501
 21
-115.114620933936
 62
7
  0
LINE
  6
BYLAYER
  8
0
 10
157.281903910283
 11
157.281903910283
 20
-115.114620933936
 21
-116.851529330882
 62
7
  0
LINE
  6
BYLAYER
  8
0
 10
157.281903910283
 11
157.281903910283
 20
-116.851529330882
 21
-117.24526215531
 62
7
  0
LINE
  6
BYLAYER
  8
0
 10
157.281903910283
 11
157.53129322326
 20
-117.24526215531
 21
-118.427216353783
 62
7
  0
LINE
  6
BYLAYER
  8
0
 10
157.53129322326
 11
158.093048948451
 20
-118.427216353783
 21
-119.635620933936
 62
7
  0
LINE
  6
BYLAYER
  8
0
 10
158.093048948451
 11
158.249232154558
 20
-119.635620933936
 21
-119.854277422485
 62
7
  0
LINE
  6
BYLAYER
  8
0
 10
158.249232154558
 11
158.423048948451
 20
-119.854277422485
 21
-120.09888047592
 62
7
  0
LINE
  6
BYLAYER
  8
0
 10
158.423048948451
 11
159.075491696543
 20
-120.09888047592
 21
-120.749307956836
 62
7
  0
LINE
  6
BYLAYER
  8
0
 10
159.075491696543
 11
160.068010780512
 20
-120.749307956836
 21
-121.390162918668
 62
7
  0
LINE
  6
BYLAYER
  8
0
 10
160.068010780512
 11
161.186484062955
 20
-121.390162918668
 21
-121.775834674394
 62
7
  0
LINE
  6
BYLAYER
  8
0
 10
161.186484062955
 11
162.093354291963
 20
-121.775834674394
 21
-121.905567498821
 62
7
  0
LINE
  6
BYLAYER
  8
0
 10
162.093354291963
 11
162.395644368299
 20
-121.905567498821
 21
-121.905567498821
 62
7
  0
LINE
  6
BYLAYER
  8
0
 10
162.395644368299
 11
166.39594971181
 20
-121.905567498821
 21
-121.905567498821
 62
7
  0
LINE
  6
BYLAYER
  8
0
 10
166.39594971181
 11
174.726560398833
 20
-121.905567498821
 21
-121.905567498821
 62
7
  0
LINE
  6
BYLAYER
  8
0
 10
174.726560398833
 11
186.155644368299
 20
-121.905567498821
 21
-121.905567498821
 62
7
  0
LINE
  6
BYLAYER
  8
0
 10
186.155644368299
 11
199.456407727077
 20
-121.905567498821
 21
-121.905567498821
 62
7
  0
LINE
  6
BYLAYER
  8
0
 10
199.456407727077
 11
213.3970184141
 20
-121.905567498821
 21
-121.905567498821
 62
7
  0
LINE
  6
BYLAYER
  8
0
 10
213.3970184141
 11
226.753201620207
 20
-121.905567498821
 21
-121.905567498821
 62
7
  0
LINE
  6
BYLAYER
  8
0
 10
226.753201620207
 11
238.295644368299
 20
-121.905567498821
 21
-121.905567498821
 62
7
  0
LINE
  6
BYLAYER
  8
0
 10
238.295644368299
 11
246.789995513337
 20
-121.905567498821
 21
-121.905567498821
 62
7
  0
LINE
  6
BYLAYER
  8
0
 10
246.789995513337
 11
251.011980246161
 20
-121.905567498821
 21
-121.905567498821
 62
7
  0
LINE
  6
BYLAYER
  8
0
 10
251.011980246161
 11
251.268926811047
 20
-121.905567498821
 21
-121.905567498821
 62
7
  0
LINE
  6
BYLAYER
  8
0
 10
251.268926811047
 11
252.044804673642
 20
-121.905567498821
 21
-121.807323224012
 62
7
  0
LINE
  6
BYLAYER
  8
0
 10
252.044804673642
 11
253.012132917917
 20
-121.807323224012
 21
-121.524178185844
 62
7
  0
LINE
  6
BYLAYER
  8
0
 10
253.012132917917
 11
253.89381230723
 20
-121.524178185844
 21
-121.071750704928
 62
7
  0
LINE
  6
BYLAYER
  8
0
 10
253.89381230723
 11
254.662132917917
 20
-121.071750704928
 21
-120.468933911035
 62
7
  0
LINE
  6
BYLAYER
  8
0
 10
254.662132917917
 11
255.296942078222
 20
-120.468933911035
 21
-119.732353758363
 62
7
  0
LINE
  6
BYLAYER
  8
0
 10
255.296942078222
 11
255.78060620036
 20
-119.732353758363
 21
-118.877124750729
 62
7
  0
LINE
  6
BYLAYER
  8
0
 10
255.78060620036
 11
256.087934444634
 20
-118.877124750729
 21
-117.921636201111
 62
7
  0
LINE
  6
BYLAYER
  8
0
 10
256.087934444634
 11
256.196255055322
 20
-117.921636201111
 21
-117.141223987371
 62
7
  0
LINE
  6
BYLAYER
  8
0
 10
256.196255055322
 11
256.196255055322
 20
-117.141223987371
 21
-116.881254521722
 62
7
  0
LINE
  6
BYLAYER
  8
0
 10
256.196255055322
 11
256.196255055322
 20
-116.881254521722
 21
-115.234529330882
 62
7
  0
LINE
  6
BYLAYER
  8
0
 10
256.196255055322
 11
256.196255055322
 20
-115.234529330882
 21
-111.643071315615
 62
7
  0
LINE
  6
BYLAYER
  8
0
 10
256.196255055322
 11
256.196255055322
 20
-111.643071315615
 21
-106.270369025539
 62
7
  0
LINE
  6
BYLAYER
  8
0
 10
256.196255055322
 11
256.196255055322
 20
-106.270369025539
 21
-99.2879720789738
 62
7
  0
LINE
  6
BYLAYER
  8
0
 10
256.196255055322
 11
256.196255055322
 20
-99.2879720789738
 21
-90.8608804759203
 62
7
  0
LINE
  6
BYLAYER
  8
0
 10
256.196255055322
 11
256.196255055322
 20
-90.8608804759203
 21
-81.1548499415692
 62
7
  0
LINE
  6
BYLAYER
  8
0
 10
256.196255055322
 11
256.196255055322
 20
-81.1548499415692
 21
-70.3373995598898
 62
7
  0
LINE
  6
BYLAYER
  8
0
 10
256.196255055322
 11
256.196255055322
 20
-70.3373995598898
 21
-58.5757965064547
 62
7
  0
LINE
  6
BYLAYER
  8
0
 10
256.196255055322
 11
256.196255055322
 20
-58.5757965064547
 21
-46.0350407812638
 62
7
  0
LINE
  6
BYLAYER
  8
0
 10
256.196255055322
 11
256.196255055322
 20
-46.0350407812638
 21
-32.8846667354623
 62
7
  0
LINE
  6
BYLAYER
  8
0
 10
256.196255055322
 11
256.196255055322
 20
-32.8846667354623
 21
-19.2889186438592
 62
7
  0
LINE
  6
BYLAYER
  8
0
 10
256.196255055322
 11
256.196255055322
 20
-19.2889186438592
 21
-5.41430795683635
 62
7
  0
LINE
  6
BYLAYER
  8
0
 10
256.196255055322
 11
256.196255055322
 20
-5.41430795683635
 21
8.57114242484303
 62
7
  0
LINE
  6
BYLAYER
  8
0
 10
256.196255055322
 11
256.196255055322
 20
8.57114242484303
 21
22.501676775988
 62
7
  0
LINE
  6
BYLAYER
  8
0
 10
256.196255055322
 11
256.196255055322
 20
22.501676775988
 21
36.2097760126293
 62
7
  0
LINE
  6
BYLAYER
  8
0
 10
256.196255055322
 11
256.196255055322
 20
36.2097760126293
 21
49.529180592782
 62
7
  0
LINE
  6
BYLAYER
  8
0
 10
256.196255055322
 11
256.196255055322
 20
49.529180592782
 21
62.290859982095
 62
7
  0
LINE
  6
BYLAYER
  8
0
 10
256.196255055322
 11
256.196255055322
 20
62.290859982095
 21
74.3346004401102
 62
7
  0
LINE
  6
BYLAYER
  8
0
 10
256.196255055322
 11
256.196255055322
 20
74.3346004401102
 21
85.4865851729347
 62
7
  0
LINE
  6
BYLAYER
  8
0
 10
256.196255055322
 11
256.196255055322
 20
85.4865851729347
 21
95.5805546385835
 62
7
  0
LINE
  6
BYLAYER
  8
0
 10
256.196255055322
 11
256.196255055322
 20
95.5805546385835
 21
104.45780654698
 62
7
  0
LINE
  6
BYLAYER
  8
0
 10
256.196255055322
 11
256.196255055322
 20
104.45780654698
 21
111.939485936293
 62
7
  0
LINE
  6
BYLAYER
  8
0
 10
256.196255055322
 11
256.196255055322
 20
111.939485936293
 21
117.871928684385
 62
7
  0
LINE
  6
BYLAYER
  8
0
 10
256.196255055322
 11
256.196255055322
 20
117.871928684385
 21
122.078798913393
 62
7
  0
LINE
  6
BYLAYER
  8
0
 10
256.196255055322
 11
256.196255055322
 20
122.078798913393
 21
124.396356165301
 62
7
  0
LINE
  6
BYLAYER
  8
0
 10
256.196255055322
 11
256.196255055322
 20
124.396356165301
 21
124.794371432477
 62
7
  0
LINE
  6
BYLAYER
  8
0
 10
256.196255055322
 11
256.196255055322
 20
124.794371432477
 21
125.220096623316
 62
7
  0
LINE
  6
BYLAYER
  8
0
 10
256.196255055322
 11
255.87129322326
 20
125.220096623316
 21
126.502310363774
 62
7
  0
LINE
  6
BYLAYER
  8
0
 10
255.87129322326
 11
254.989613833947
 20
126.502310363774
 21
127.988569905759
 62
7
  0
LINE
  6
BYLAYER
  8
0
 10
254.989613833947
 11
253.669613833947
 20
127.988569905759
 21
129.099485936293
 62
7
  0
LINE
  6
BYLAYER
  8
0
 10
253.669613833947
 11
252.455415360665
 20
129.099485936293
 21
129.620936317973
 62
7
  0
LINE
  6
BYLAYER
  8
0
 10
252.455415360665
 11
252.037247421734
 20
129.620936317973
 21
129.686432501179
 62
7
  0
LINE
  6
BYLAYER
  8
0
 10
252.037247421734
 11
252.037247421734
 20
129.686432501179
 21
129.686432501179
 62
7
  0
LINE
  6
BYLAYER
  8
0
 10
235.494422994253
 11
177.200300856848
 20
-94.6619262774471
 21
-94.6619262774471
 62
7
  0
LINE
  6
BYLAYER
  8
0
 10
177.200300856848
 11
177.200300856848
 20
-94.6619262774471
 21
102.933760745454
 62
7
  0
LINE
  6
BYLAYER
  8
0
 10
177.200300856848
 11
235.494422994253
 20
102.933760745454
 21
102.933760745454
 62
7
  0
LINE
  6
BYLAYER
  8
0
 10
235.494422994253
 11
235.494422994253
 20
102.933760745454
 21
-94.6619262774471
 62
7
  0
LINE
  6
BYLAYER
  8
0
 10
235.494422994253
 11
235.494422994253
 20
-94.6619262774471
 21
-94.6619262774471
 62
7
  0
LINE
  6
BYLAYER
  8
0
 10
24.3432932232604
 11
24.3432932232604
 20
84.0028447149193
 21
82.8440660889652
 62
7
  0
LINE
  6
BYLAYER
  8
0
 10
24.3432932232604
 11
23.7926214675352
 20
82.8440660889652
 21
79.3677302111026
 62
7
  0
LINE
  6
BYLAYER
  8
0
 10
23.7926214675352
 11
22.2068581087566
 20
79.3677302111026
 21
75.0172721958354
 62
7
  0
LINE
  6
BYLAYER
  8
0
 10
22.2068581087566
 11
19.6787054370009
 20
75.0172721958354
 21
71.1328447149194
 62
7
  0
LINE
  6
BYLAYER
  8
0
 10
19.6787054370009
 11
17.231163452268
 20
71.1328447149194
 21
68.6062034935453
 62
7
  0
LINE
  6
BYLAYER
  8
0
 10
17.231163452268
 11
16.3056520018863
 20
68.6062034935453
 21
67.9084172340033
 62
7
  0
LINE
  6
BYLAYER
  8
0
 10
16.3056520018863
 11
15.3670413148634
 20
67.9084172340033
 21
67.2030737225529
 62
7
  0
LINE
  6
BYLAYER
  8
0
 10
15.3670413148634
 11
12.2083619255505
 20
67.2030737225529
 21
65.5354401347667
 62
7
  0
LINE
  6
BYLAYER
  8
0
 10
12.2083619255505
 11
7.70222452097035
 20
65.5354401347667
 21
64.1902492950721
 62
7
  0
LINE
  6
BYLAYER
  8
0
 10
7.70222452097035
 11
3.00765963547416
 20
64.1902492950721
 21
63.9131500584308
 62
7
  0
LINE
  6
BYLAYER
  8
0
 10
3.00765963547416
 11
-0.530645708037312
 20
63.9131500584308
 21
64.3968141805682
 62
7
  0
LINE
  6
BYLAYER
  8
0
 10
-0.530645708037312
 11
-1.65390525002202
 20
64.3968141805682
 21
64.7368905164461
 62
7
  0
LINE
  6
BYLAYER
  8
0
 10
-1.65390525002202
 11
-2.74869914315182
 20
64.7368905164461
 21
65.071928684385
 62
7
  0
LINE
  6
BYLAYER
  8
0
 10
-2.74869914315182
 11
-5.87412662406786
 20
65.071928684385
 21
66.5833790660644
 62
7
  0
LINE
  6
BYLAYER
  8
0
 10
-5.87412662406786
 11
-9.54644723475487
 20
66.5833790660644
 21
69.3241424248431
 62
7
  0
LINE
  6
BYLAYER
  8
0
 10
-9.54644723475487
 11
-12.5192182271213
 20
69.3241424248431
 21
72.8105546385835
 62
7
  0
LINE
  6
BYLAYER
  8
0
 10
-12.5192182271213
 11
-14.231691509564
 20
72.8105546385835
 21
75.8309363179729
 62
7
  0
LINE
  6
BYLAYER
  8
0
 10
-14.231691509564
 11
-14.6347449446785
 20
75.8309363179729
 21
76.8990279210263
 62
7
  0
LINE
  6
BYLAYER
  8
0
 10
-14.6347449446785
 11
-15.0503937996403
 20
76.8990279210263
 21
78.0023866996522
 62
7
  0
LINE
  6
BYLAYER
  8
0
 10
-15.0503937996403
 11
-15.7622869294113
 20
78.0023866996522
 21
81.5039134172095
 62
7
  0
LINE
  6
BYLAYER
  8
0
 10
-15.7622869294113
 11
-15.7867220439152
 20
81.5039134172095
 21
86.2146004401103
 62
7
  0
LINE
  6
BYLAYER
  8
0
 10
-15.7867220439152
 11
-14.7332411278847
 20
86.2146004401103
 21
90.8068905164461
 62
7
  0
LINE
  6
BYLAYER
  8
0
 10
-14.7332411278847
 11
-13.2709128836098
 20
90.8068905164461
 21
94.0691042569041
 62
7
  0
LINE
  6
BYLAYER
  8
0
 10
-13.2709128836098
 11
-12.624264028648
 20
94.0691042569041
 21
95.0490279210263
 62
7
  0
LINE
  6
BYLAYER
  8
0
 10
-12.624264028648
 11
-11.9917220439151
 20
95.0490279210263
 21
96.0138370813316
 62
7
  0
LINE
  6
BYLAYER
  8
0
 10
-11.9917220439151
 11
-9.63814189124339
 20
96.0138370813316
 21
98.6059744859118
 62
7
  0
LINE
  6
BYLAYER
  8
0
 10
-9.63814189124339
 11
-5.944157158419
 20
98.6059744859118
 21
101.369409600416
 62
7
  0
LINE
  6
BYLAYER
  8
0
 10
-5.944157158419
 11
-1.72645486834266
 20
101.369409600416
 21
103.23605082179
 62
7
  0
LINE
  6
BYLAYER
  8
0
 10
-1.72645486834266
 11
1.68891917745889
 20
103.23605082179
 21
104.014447768355
 62
7
  0
LINE
  6
BYLAYER
  8
0
 10
1.68891917745889
 11
2.83963673471077
 20
104.014447768355
 21
104.090020287438
 62
7
  0
LINE
  6
BYLAYER
  8
0
 10
2.83963673471077
 11
3.99992681104665
 20
104.090020287438
 21
104.168111890492
 62
7
  0
LINE
  6
BYLAYER
  8
0
 10
3.99992681104665
 11
7.52336955913825
 20
104.168111890492
 21
103.853226394309
 62
7
  0
LINE
  6
BYLAYER
  8
0
 10
7.52336955913825
 11
11.9924764293673
 20
103.853226394309
 21
102.553379066064
 62
7
  0
LINE
  6
BYLAYER
  8
0
 10
11.9924764293673
 11
16.0487054370008
 20
102.553379066064
 21
100.276127157668
 62
7
  0
LINE
  6
BYLAYER
  8
0
 10
16.0487054370008
 11
18.7438733759322
 20
100.276127157668
 21
97.9837607454537
 62
7
  0
LINE
  6
BYLAYER
  8
0
 10
18.7438733759322
 11
19.5023695591382
 20
97.9837607454537
 21
97.0995622721713
 62
7
  0
LINE
  6
BYLAYER
  8
0
 10
19.5023695591382
 11
20.078987879749
 20
97.0995622721713
 21
96.4244477683545
 62
7
  0
LINE
  6
BYLAYER
  8
0
 10
20.078987879749
 11
21.5702855896726
 20
96.4244477683545
 21
94.1950584553774
 62
7
  0
LINE
  6
BYLAYER
  8
0
 10
21.5702855896726
 11
23.0885374980696
 20
94.1950584553774
 21
90.9832263943087
 62
7
  0
LINE
  6
BYLAYER
  8
0
 10
23.0885374980696
 11
24.0233695591383
 20
90.9832263943087
 21
87.5572721958354
 62
7
  0
LINE
  6
BYLAYER
  8
0
 10
24.0233695591383
 11
24.3432932232604
 20
87.5572721958354
 21
84.8920813561408
 62
7
  0
LINE
  6
BYLAYER
  8
0
 10
24.3432932232604
 11
24.3432932232604
 20
84.8920813561408
 21
84.0028447149193
 62
7
  0
LINE
  6
BYLAYER
  8
0
 10
20.5493008568482
 11
20.5493008568482
 20
84.0028447149193
 21
82.8516233408735
 62
7
  0
LINE
  6
BYLAYER
  8
0
 10
20.5493008568482
 11
19.8701558186802
 20
82.8516233408735
 21
79.3904019668278
 62
7
  0
LINE
  6
BYLAYER
  8
0
 10
19.8701558186802
 11
17.9458275744055
 20
79.3904019668278
 21
75.2011653256064
 62
7
  0
LINE
  6
BYLAYER
  8
0
 10
17.9458275744055
 11
14.944590933184
 20
75.2011653256064
 21
71.7021576920186
 62
7
  0
LINE
  6
BYLAYER
  8
0
 10
14.944590933184
 11
12.0841710858558
 20
71.7021576920186
 21
69.6365088370568
 62
7
  0
LINE
  6
BYLAYER
  8
0
 10
12.0841710858558
 11
11.0372397881459
 20
69.6365088370568
 21
69.1528447149194
 62
7
  0
LINE
  6
BYLAYER
  8
0
 10
11.0372397881459
 11
9.97494207822221
 20
69.1528447149194
 21
68.6666615088126
 62
7
  0
LINE
  6
BYLAYER
  8
0
 10
9.97494207822221
 11
6.49986574234435
 20
68.6666615088126
 21
67.8353637988888
 62
7
  0
LINE
  6
BYLAYER
  8
0
 10
6.49986574234435
 11
1.82973597135199
 20
67.8353637988888
 21
67.863073722553
 62
7
  0
LINE
  6
BYLAYER
  8
0
 10
1.82973597135199
 11
-2.64894341796095
 20
67.863073722553
 21
69.1881118904919
 62
7
  0
LINE
  6
BYLAYER
  8
0
 10
-2.64894341796095
 11
-5.73633273093809
 20
69.1881118904919
 21
70.9867378446903
 62
7
  0
LINE
  6
BYLAYER
  8
0
 10
-5.73633273093809
 11
-6.60969914315181
 20
70.9867378446903
 21
71.7600966233163
 62
7
  0
LINE
  6
BYLAYER
  8
0
 10
-6.60969914315181
 11
-7.48281364696859
 20
71.7600966233163
 21
72.5334554019423
 62
7
  0
LINE
  6
BYLAYER
  8
0
 10
-7.48281364696859
 11
-9.64519532635789
 20
72.5334554019423
 21
75.3699439515606
 62
7
  0
LINE
  6
BYLAYER
  8
0
 10
-9.64519532635789
 11
-11.5105770057472
 20
75.3699439515606
 21
79.6397912798049
 62
7
  0
LINE
  6
BYLAYER
  8
0
 10
-11.5105770057472
 11
-12.1174243339915
 20
79.6397912798049
 21
84.2597912798049
 62
7
  0
LINE
  6
BYLAYER
  8
0
 10
-12.1174243339915
 11
-11.7279739523121
 20
84.2597912798049
 21
87.8066615088125
 62
7
  0
LINE
  6
BYLAYER
  8
0
 10
-11.7279739523121
 11
-11.3765617385717
 20
87.8066615088125
 21
88.9175775393469
 62
7
  0
LINE
  6
BYLAYER
  8
0
 10
-11.3765617385717
 11
-11.0324548683426
 20
88.9175775393469
 21
90.010859982095
 62
7
  0
LINE
  6
BYLAYER
  8
0
 10
-11.0324548683426
 11
-9.35650830345718
 20
90.010859982095
 21
93.0916996767515
 62
7
  0
LINE
  6
BYLAYER
  8
0
 10
-9.35650830345718
 11
-6.27995105154874
 20
93.0916996767515
 21
96.5000202874384
 62
7
  0
LINE
  6
BYLAYER
  8
0
 10
-6.27995105154874
 11
-2.39048540269378
 20
96.5000202874384
 21
98.9384935698812
 62
7
  0
LINE
  6
BYLAYER
  8
0
 10
-2.39048540269378
 11
0.934705437000872
 20
98.9384935698812
 21
100.056966852324
 62
7
  0
LINE
  6
BYLAYER
  8
0
 10
0.934705437000872
 11
2.0730794828024
 20
100.056966852324
 21
100.203073722553
 62
7
  0
LINE
  6
BYLAYER
  8
0
 10
2.0730794828024
 11
3.22379704005428
 20
100.203073722553
 21
100.354218760721
 62
7
  0
LINE
  6
BYLAYER
  8
0
 10
3.22379704005428
 11
6.76487337593218
 20
100.354218760721
 21
100.127501203469
 62
7
  0
LINE
  6
BYLAYER
  8
0
 10
6.76487337593218
 11
11.1901481850925
 20
100.127501203469
 21
98.7470431882018
 62
7
  0
LINE
  6
BYLAYER
  8
0
 10
11.1901481850925
 11
15.0622321545581
 20
98.7470431882018
 21
96.2002492950721
 62
7
  0
LINE
  6
BYLAYER
  8
0
 10
15.0622321545581
 11
17.4823161240238
 20
96.2002492950721
 21
93.6055928065224
 62
7
  0
LINE
  6
BYLAYER
  8
0
 10
17.4823161240238
 11
18.0959649789856
 20
93.6055928065224
 21
92.6181118904919
 62
7
  0
LINE
  6
BYLAYER
  8
0
 10
18.0959649789856
 11
18.4964993301306
 20
92.6181118904919
 21
91.9757454782782
 62
7
  0
LINE
  6
BYLAYER
  8
0
 10
18.4964993301306
 11
19.923308490436
 20
91.9757454782782
 21
88.4817760126294
 62
7
  0
LINE
  6
BYLAYER
  8
0
 10
19.923308490436
 11
20.5493008568482
 20
88.4817760126294
 21
85.1238370813316
 62
7
  0
LINE
  6
BYLAYER
  8
0
 10
20.5493008568482
 11
20.5493008568482
 20
85.1238370813316
 21
84.0028447149193
 62
7
  0
LINE
  6
BYLAYER
  8
0
 10
25.7305527652451
 11
25.7305527652451
 20
-3.95323925454625
 21
-4.11597207897373
 62
7
  0
LINE
  6
BYLAYER
  8
0
 10
25.7305527652451
 11
25.5950260476879
 20
-4.11597207897373
 21
-4.6036667354623
 62
7
  0
LINE
  6
BYLAYER
  8
0
 10
25.5950260476879
 11
25.231522230894
 20
-4.6036667354623
 21
-5.14073543775237
 62
7
  0
LINE
  6
BYLAYER
  8
0
 10
25.231522230894
 11
24.6944535286039
 20
-5.14073543775237
 21
-5.50474307134016
 62
7
  0
LINE
  6
BYLAYER
  8
0
 10
24.6944535286039
 11
24.2065069637184
 20
-5.50474307134016
 21
-5.6397659721035
 62
7
  0
LINE
  6
BYLAYER
  8
0
 10
24.2065069637184
 11
24.043774139291
 20
-5.6397659721035
 21
-5.6397659721035
 62
7
  0
LINE
  6
BYLAYER
  8
0
 10
24.043774139291
 11
23.8800336812756
 20
-5.6397659721035
 21
-5.6397659721035
 62
7
  0
LINE
  6
BYLAYER
  8
0
 10
23.8800336812756
 11
23.3920871163902
 20
-5.6397659721035
 21
-5.50474307134016
 62
7
  0
LINE
  6
BYLAYER
  8
0
 10
23.3920871163902
 11
22.8562779560848
 20
-5.50474307134016
 21
-5.14073543775237
 62
7
  0
LINE
  6
BYLAYER
  8
0
 10
22.8562779560848
 11
22.4927741392909
 20
-5.14073543775237
 21
-4.6036667354623
 62
7
  0
LINE
  6
BYLAYER
  8
0
 10
22.4927741392909
 11
22.3587588721153
 20
-4.6036667354623
 21
-4.11597207897373
 62
7
  0
LINE
  6
BYLAYER
  8
0
 10
22.3587588721153
 11
22.3587588721153
 20
-4.11597207897373
 21
-3.95323925454625
 62
7
  0
LINE
  6
BYLAYER
  8
0
 10
22.3587588721153
 11
22.3587588721153
 20
-3.95323925454625
 21
-3.78924688813407
 62
7
  0
LINE
  6
BYLAYER
  8
0
 10
22.3587588721153
 11
22.4927741392909
 20
-3.78924688813407
 21
-3.3015522316455
 62
7
  0
LINE
  6
BYLAYER
  8
0
 10
22.4927741392909
 11
22.8562779560848
 20
-3.3015522316455
 21
-2.76549116294322
 62
7
  0
LINE
  6
BYLAYER
  8
0
 10
22.8562779560848
 11
23.3920871163902
 20
-2.76549116294322
 21
-2.40198734614933
 62
7
  0
LINE
  6
BYLAYER
  8
0
 10
23.3920871163902
 11
23.8800336812756
 20
-2.40198734614933
 21
-2.2682239873707
 62
7
  0
LINE
  6
BYLAYER
  8
0
 10
23.8800336812756
 11
24.043774139291
 20
-2.2682239873707
 21
-2.2682239873707
 62
7
  0
LINE
  6
BYLAYER
  8
0
 10
24.043774139291
 11
24.2065069637184
 20
-2.2682239873707
 21
-2.2682239873707
 62
7
  0
LINE
  6
BYLAYER
  8
0
 10
24.2065069637184
 11
24.6944535286039
 20
-2.2682239873707
 21
-2.40198734614933
 62
7
  0
LINE
  6
BYLAYER
  8
0
 10
24.6944535286039
 11
25.231522230894
 20
-2.40198734614933
 21
-2.76549116294322
 62
7
  0
LINE
  6
BYLAYER
  8
0
 10
25.231522230894
 11
25.5950260476879
 20
-2.76549116294322
 21
-3.3015522316455
 62
7
  0
LINE
  6
BYLAYER
  8
0
 10
25.5950260476879
 11
25.7305527652451
 20
-3.3015522316455
 21
-3.78924688813407
 62
7
  0
LINE
  6
BYLAYER
  8
0
 10
25.7305527652451
 11
25.7305527652451
 20
-3.78924688813407
 21
-3.95323925454625
 62
7
  0
LINE
  6
BYLAYER
  8
0
 10
15.812415360665
 11
15.812415360665
 20
-3.95323925454625
 21
-4.11597207897373
 62
7
  0
LINE
  6
BYLAYER
  8
0
 10
15.812415360665
 11
15.6768886431077
 20
-4.11597207897373
 21
-4.6036667354623
 62
7
  0
LINE
  6
BYLAYER
  8
0
 10
15.6768886431077
 11
15.3133848263139
 20
-4.6036667354623
 21
-5.14073543775237
 62
7
  0
LINE
  6
BYLAYER
  8
0
 10
15.3133848263139
 11
14.7763161240237
 20
-5.14073543775237
 21
-5.50474307134016
 62
7
  0
LINE
  6
BYLAYER
  8
0
 10
14.7763161240237
 11
14.2886214675352
 20
-5.50474307134016
 21
-5.6397659721035
 62
7
  0
LINE
  6
BYLAYER
  8
0
 10
14.2886214675352
 11
14.1258886431077
 20
-5.6397659721035
 21
-5.6397659721035
 62
7
  0
LINE
  6
BYLAYER
  8
0
 10
14.1258886431077
 11
13.9618962766955
 20
-5.6397659721035
 21
-5.6397659721035
 62
7
  0
LINE
  6
BYLAYER
  8
0
 10
13.9618962766955
 11
13.4736978034131
 20
-5.6397659721035
 21
-5.50474307134016
 62
7
  0
LINE
  6
BYLAYER
  8
0
 10
13.4736978034131
 11
12.9381405515047
 20
-5.50474307134016
 21
-5.14073543775237
 62
7
  0
LINE
  6
BYLAYER
  8
0
 10
12.9381405515047
 11
12.5731252843291
 20
-5.14073543775237
 21
-4.6036667354623
 62
7
  0
LINE
  6
BYLAYER
  8
0
 10
12.5731252843291
 11
12.4391100171536
 20
-4.6036667354623
 21
-4.11597207897373
 62
7
  0
LINE
  6
BYLAYER
  8
0
 10
12.4391100171536
 11
12.4391100171536
 20
-4.11597207897373
 21
-3.95323925454625
 62
7
  0
LINE
  6
BYLAYER
  8
0
 10
12.4391100171536
 11
12.4391100171536
 20
-3.95323925454625
 21
-3.78924688813407
 62
7
  0
LINE
  6
BYLAYER
  8
0
 10
12.4391100171536
 11
12.5731252843291
 20
-3.78924688813407
 21
-3.3015522316455
 62
7
  0
LINE
  6
BYLAYER
  8
0
 10
12.5731252843291
 11
12.936629101123
 20
-3.3015522316455
 21
-2.76549116294322
 62
7
  0
LINE
  6
BYLAYER
  8
0
 10
12.936629101123
 11
13.4736978034131
 20
-2.76549116294322
 21
-2.40198734614933
 62
7
  0
LINE
  6
BYLAYER
  8
0
 10
13.4736978034131
 11
13.9618962766955
 20
-2.40198734614933
 21
-2.2682239873707
 62
7
  0
LINE
  6
BYLAYER
  8
0
 10
13.9618962766955
 11
14.1258886431077
 20
-2.2682239873707
 21
-2.2682239873707
 62
7
  0
LINE
  6
BYLAYER
  8
0
 10
14.1258886431077
 11
14.2886214675352
 20
-2.2682239873707
 21
-2.2682239873707
 62
7
  0
LINE
  6
BYLAYER
  8
0
 10
14.2886214675352
 11
14.7763161240237
 20
-2.2682239873707
 21
-2.40198734614933
 62
7
  0
LINE
  6
BYLAYER
  8
0
 10
14.7763161240237
 11
15.3133848263139
 20
-2.40198734614933
 21
-2.76549116294322
 62
7
  0
LINE
  6
BYLAYER
  8
0
 10
15.3133848263139
 11
15.6768886431077
 20
-2.76549116294322
 21
-3.3015522316455
 62
7
  0
LINE
  6
BYLAYER
  8
0
 10
15.6768886431077
 11
15.812415360665
 20
-3.3015522316455
 21
-3.78924688813407
 62
7
  0
LINE
  6
BYLAYER
  8
0
 10
15.812415360665
 11
15.812415360665
 20
-3.78924688813407
 21
-3.95323925454625
 62
7
  0
LINE
  6
BYLAYER
  8
0
 10
5.89553749806957
 11
5.89553749806957
 20
-3.95323925454625
 21
-4.11597207897373
 62
7
  0
LINE
  6
BYLAYER
  8
0
 10
5.89553749806957
 11
5.76051459730618
 20
-4.11597207897373
 21
-4.6036667354623
 62
7
  0
LINE
  6
BYLAYER
  8
0
 10
5.76051459730618
 11
5.39701078051232
 20
-4.6036667354623
 21
-5.14073543775237
 62
7
  0
LINE
  6
BYLAYER
  8
0
 10
5.39701078051232
 11
4.86094971181004
 20
-5.14073543775237
 21
-5.50474307134016
 62
7
  0
LINE
  6
BYLAYER
  8
0
 10
4.86094971181004
 11
4.37325505532148
 20
-5.50474307134016
 21
-5.6397659721035
 62
7
  0
LINE
  6
BYLAYER
  8
0
 10
4.37325505532148
 11
4.21052223089401
 20
-5.6397659721035
 21
-5.6397659721035
 62
7
  0
LINE
  6
BYLAYER
  8
0
 10
4.21052223089401
 11
4.04652986448176
 20
-5.6397659721035
 21
-5.6397659721035
 62
7
  0
LINE
  6
BYLAYER
  8
0
 10
4.04652986448176
 11
3.55883520799321
 20
-5.6397659721035
 21
-5.50474307134016
 62
7
  0
LINE
  6
BYLAYER
  8
0
 10
3.55883520799321
 11
3.02126268890925
 20
-5.50474307134016
 21
-5.14073543775237
 62
7
  0
LINE
  6
BYLAYER
  8
0
 10
3.02126268890925
 11
2.65775887211535
 20
-5.14073543775237
 21
-4.6036667354623
 62
7
  0
LINE
  6
BYLAYER
  8
0
 10
2.65775887211535
 11
2.52424742173368
 20
-4.6036667354623
 21
-4.11597207897373
 62
7
  0
LINE
  6
BYLAYER
  8
0
 10
2.52424742173368
 11
2.52424742173368
 20
-4.11597207897373
 21
-3.95323925454625
 62
7
  0
LINE
  6
BYLAYER
  8
0
 10
2.52424742173368
 11
2.52424742173368
 20
-3.95323925454625
 21
-3.78924688813407
 62
7
  0
LINE
  6
BYLAYER
  8
0
 10
2.52424742173368
 11
2.65775887211535
 20
-3.78924688813407
 21
-3.3015522316455
 62
7
  0
LINE
  6
BYLAYER
  8
0
 10
2.65775887211535
 11
3.02126268890925
 20
-3.3015522316455
 21
-2.76549116294322
 62
7
  0
LINE
  6
BYLAYER
  8
0
 10
3.02126268890925
 11
3.55883520799321
 20
-2.76549116294322
 21
-2.40198734614933
 62
7
  0
LINE
  6
BYLAYER
  8
0
 10
3.55883520799321
 11
4.04652986448176
 20
-2.40198734614933
 21
-2.2682239873707
 62
7
  0
LINE
  6
BYLAYER
  8
0
 10
4.04652986448176
 11
4.21052223089401
 20
-2.2682239873707
 21
-2.2682239873707
 62
7
  0
LINE
  6
BYLAYER
  8
0
 10
4.21052223089401
 11
4.37325505532148
 20
-2.2682239873707
 21
-2.2682239873707
 62
7
  0
LINE
  6
BYLAYER
  8
0
 10
4.37325505532148
 11
4.86094971181004
 20
-2.2682239873707
 21
-2.40198734614933
 62
7
  0
LINE
  6
BYLAYER
  8
0
 10
4.86094971181004
 11
5.39701078051232
 20
-2.40198734614933
 21
-2.76549116294322
 62
7
  0
LINE
  6
BYLAYER
  8
0
 10
5.39701078051232
 11
5.76051459730618
 20
-2.76549116294322
 21
-3.3015522316455
 62
7
  0
LINE
  6
BYLAYER
  8
0
 10
5.76051459730618
 11
5.89553749806957
 20
-3.3015522316455
 21
-3.78924688813407
 62
7
  0
LINE
  6
BYLAYER
  8
0
 10
5.89553749806957
 11
5.89553749806957
 20
-3.78924688813407
 21
-3.95323925454625
 62
7
  0
LINE
  6
BYLAYER
  8
0
 10
-4.02234799811363
 11
-4.02234799811363
 20
-3.95323925454625
 21
-4.11597207897373
 62
7
  0
LINE
  6
BYLAYER
  8
0
 10
-4.02234799811363
 11
-4.15762280727395
 20
-4.11597207897373
 21
-4.6036667354623
 62
7
  0
LINE
  6
BYLAYER
  8
0
 10
-4.15762280727395
 11
-4.52112662406783
 20
-4.6036667354623
 21
-5.14073543775237
 62
7
  0
LINE
  6
BYLAYER
  8
0
 10
-4.52112662406783
 11
-5.0581953263579
 20
-5.14073543775237
 21
-5.50474307134016
 62
7
  0
LINE
  6
BYLAYER
  8
0
 10
-5.0581953263579
 11
-5.54639379964037
 20
-5.50474307134016
 21
-5.6397659721035
 62
7
  0
LINE
  6
BYLAYER
  8
0
 10
-5.54639379964037
 11
-5.70912662406782
 20
-5.6397659721035
 21
-5.6397659721035
 62
7
  0
LINE
  6
BYLAYER
  8
0
 10
-5.70912662406782
 11
-5.87286708208309
 20
-5.6397659721035
 21
-5.6397659721035
 62
7
  0
LINE
  6
BYLAYER
  8
0
 10
-5.87286708208309
 11
-6.36081364696859
 20
-5.6397659721035
 21
-5.50474307134016
 62
7
  0
LINE
  6
BYLAYER
  8
0
 10
-6.36081364696859
 11
-6.89662280727396
 20
-5.50474307134016
 21
-5.14073543775237
 62
7
  0
LINE
  6
BYLAYER
  8
0
 10
-6.89662280727396
 11
-7.26138616605256
 20
-5.14073543775237
 21
-4.6036667354623
 62
7
  0
LINE
  6
BYLAYER
  8
0
 10
-7.26138616605256
 11
-7.39540143322816
 20
-4.6036667354623
 21
-4.11597207897373
 62
7
  0
LINE
  6
BYLAYER
  8
0
 10
-7.39540143322816
 11
-7.39540143322816
 20
-4.11597207897373
 21
-3.95323925454625
 62
7
  0
LINE
  6
BYLAYER
  8
0
 10
-7.39540143322816
 11
-7.39540143322816
 20
-3.95323925454625
 21
-3.78924688813407
 62
7
  0
LINE
  6
BYLAYER
  8
0
 10
-7.39540143322816
 11
-7.26138616605256
 20
-3.78924688813407
 21
-3.3015522316455
 62
7
  0
LINE
  6
BYLAYER
  8
0
 10
-7.26138616605256
 11
-6.89788234925869
 20
-3.3015522316455
 21
-2.76549116294322
 62
7
  0
LINE
  6
BYLAYER
  8
0
 10
-6.89788234925869
 11
-6.36081364696859
 20
-2.76549116294322
 21
-2.40198734614933
 62
7
  0
LINE
  6
BYLAYER
  8
0
 10
-6.36081364696859
 11
-5.87286708208309
 20
-2.40198734614933
 21
-2.2682239873707
 62
7
  0
LINE
  6
BYLAYER
  8
0
 10
-5.87286708208309
 11
-5.70912662406782
 20
-2.2682239873707
 21
-2.2682239873707
 62
7
  0
LINE
  6
BYLAYER
  8
0
 10
-5.70912662406782
 11
-5.54639379964037
 20
-2.2682239873707
 21
-2.2682239873707
 62
7
  0
LINE
  6
BYLAYER
  8
0
 10
-5.54639379964037
 11
-5.0581953263579
 20
-2.2682239873707
 21
-2.40198734614933
 62
7
  0
LINE
  6
BYLAYER
  8
0
 10
-5.0581953263579
 11
-4.52112662406783
 20
-2.40198734614933
 21
-2.76549116294322
 62
7
  0
LINE
  6
BYLAYER
  8
0
 10
-4.52112662406783
 11
-4.15762280727395
 20
-2.76549116294322
 21
-3.3015522316455
 62
7
  0
LINE
  6
BYLAYER
  8
0
 10
-4.15762280727395
 11
-4.02234799811363
 20
-3.3015522316455
 21
-3.78924688813407
 62
7
  0
LINE
  6
BYLAYER
  8
0
 10
-4.02234799811363
 11
-4.02234799811363
 20
-3.78924688813407
 21
-3.95323925454625
 62
7
  0
LINE
  6
BYLAYER
  8
0
 10
-13.9432563950602
 11
-13.9432563950602
 20
-3.95323925454625
 21
-4.11597207897373
 62
7
  0
LINE
  6
BYLAYER
  8
0
 10
-13.9432563950602
 11
-14.0787831126174
 20
-4.11597207897373
 21
-4.6036667354623
 62
7
  0
LINE
  6
BYLAYER
  8
0
 10
-14.0787831126174
 11
-14.4422869294113
 20
-4.6036667354623
 21
-5.14073543775237
 62
7
  0
LINE
  6
BYLAYER
  8
0
 10
-14.4422869294113
 11
-14.9793556317014
 20
-5.14073543775237
 21
-5.50474307134016
 62
7
  0
LINE
  6
BYLAYER
  8
0
 10
-14.9793556317014
 11
-15.46705028819
 20
-5.50474307134016
 21
-5.6397659721035
 62
7
  0
LINE
  6
BYLAYER
  8
0
 10
-15.46705028819
 11
-15.6297831126175
 20
-5.6397659721035
 21
-5.6397659721035
 62
7
  0
LINE
  6
BYLAYER
  8
0
 10
-15.6297831126175
 11
-15.7937754790297
 20
-5.6397659721035
 21
-5.6397659721035
 62
7
  0
LINE
  6
BYLAYER
  8
0
 10
-15.7937754790297
 11
-16.2814701355182
 20
-5.6397659721035
 21
-5.50474307134016
 62
7
  0
LINE
  6
BYLAYER
  8
0
 10
-16.2814701355182
 11
-16.8175312042205
 20
-5.50474307134016
 21
-5.14073543775237
 62
7
  0
LINE
  6
BYLAYER
  8
0
 10
-16.8175312042205
 11
-17.1825464713961
 20
-5.14073543775237
 21
-4.6036667354623
 62
7
  0
LINE
  6
BYLAYER
  8
0
 10
-17.1825464713961
 11
-17.3160579217778
 20
-4.6036667354623
 21
-4.11597207897373
 62
7
  0
LINE
  6
BYLAYER
  8
0
 10
-17.3160579217778
 11
-17.3160579217778
 20
-4.11597207897373
 21
-3.95323925454625
 62
7
  0
LINE
  6
BYLAYER
  8
0
 10
-17.3160579217778
 11
-17.3160579217778
 20
-3.95323925454625
 21
-3.78924688813407
 62
7
  0
LINE
  6
BYLAYER
  8
0
 10
-17.3160579217778
 11
-17.1825464713961
 20
-3.78924688813407
 21
-3.3015522316455
 62
7
  0
LINE
  6
BYLAYER
  8
0
 10
-17.1825464713961
 11
-16.8190426546022
 20
-3.3015522316455
 21
-2.76549116294322
 62
7
  0
LINE
  6
BYLAYER
  8
0
 10
-16.8190426546022
 11
-16.2814701355182
 20
-2.76549116294322
 21
-2.40198734614933
 62
7
  0
LINE
  6
BYLAYER
  8
0
 10
-16.2814701355182
 11
-15.7937754790297
 20
-2.40198734614933
 21
-2.2682239873707
 62
7
  0
LINE
  6
BYLAYER
  8
0
 10
-15.7937754790297
 11
-15.6297831126175
 20
-2.2682239873707
 21
-2.2682239873707
 62
7
  0
LINE
  6
BYLAYER
  8
0
 10
-15.6297831126175
 11
-15.46705028819
 20
-2.2682239873707
 21
-2.2682239873707
 62
7
  0
LINE
  6
BYLAYER
  8
0
 10
-15.46705028819
 11
-14.9793556317014
 20
-2.2682239873707
 21
-2.40198734614933
 62
7
  0
LINE
  6
BYLAYER
  8
0
 10
-14.9793556317014
 11
-14.4422869294113
 20
-2.40198734614933
 21
-2.76549116294322
 62
7
  0
LINE
  6
BYLAYER
  8
0
 10
-14.4422869294113
 11
-14.0787831126174
 20
-2.76549116294322
 21
-3.3015522316455
 62
7
  0
LINE
  6
BYLAYER
  8
0
 10
-14.0787831126174
 11
-13.9432563950602
 20
-3.3015522316455
 21
-3.78924688813407
 62
7
  0
LINE
  6
BYLAYER
  8
0
 10
-13.9432563950602
 11
-13.9432563950602
 20
-3.78924688813407
 21
-3.95323925454625
 62
7
  0
LINE
  6
BYLAYER
  8
0
 10
33.2391863530314
 11
29.2250260476879
 20
107.929104256904
 21
107.929104256904
 62
7
  0
LINE
  6
BYLAYER
  8
0
 10
29.2250260476879
 11
19.1116596354741
 20
107.929104256904
 21
107.929104256904
 62
7
  0
LINE
  6
BYLAYER
  8
0
 10
19.1116596354741
 11
5.78369016982531
 20
107.929104256904
 21
107.929104256904
 62
7
  0
LINE
  6
BYLAYER
  8
0
 10
5.78369016982531
 11
-7.86949303628157
 20
107.929104256904
 21
107.929104256904
 62
7
  0
LINE
  6
BYLAYER
  8
0
 10
-7.86949303628157
 11
-18.9590044866632
 20
107.929104256904
 21
107.929104256904
 62
7
  0
LINE
  6
BYLAYER
  8
0
 10
-18.9590044866632
 11
-24.5964625019304
 20
107.929104256904
 21
107.929104256904
 62
7
  0
LINE
  6
BYLAYER
  8
0
 10
-24.5964625019304
 11
-24.6458365477319
 20
107.929104256904
 21
107.929104256904
 62
7
  0
LINE
  6
BYLAYER
  8
0
 10
-24.6458365477319
 11
-24.7894243339915
 20
107.929104256904
 21
107.926585172935
 62
7
  0
LINE
  6
BYLAYER
  8
0
 10
-24.7894243339915
 11
-24.8194014332281
 20
107.926585172935
 21
107.8056691424
 62
7
  0
LINE
  6
BYLAYER
  8
0
 10
-24.8194014332281
 11
-24.8194014332281
 20
107.8056691424
 21
107.765363798889
 62
7
  0
LINE
  6
BYLAYER
  8
0
 10
-24.8194014332281
 11
-24.8194014332281
 20
107.765363798889
 21
106.649409600416
 62
7
  0
LINE
  6
BYLAYER
  8
0
 10
-24.8194014332281
 11
-24.8194014332281
 20
106.649409600416
 21
101.591088989729
 62
7
  0
LINE
  6
BYLAYER
  8
0
 10
-24.8194014332281
 11
-24.8194014332281
 20
101.591088989729
 21
93.3461271576675
 62
7
  0
LINE
  6
BYLAYER
  8
0
 10
-24.8194014332281
 11
-24.8194014332281
 20
93.3461271576675
 21
82.6123103637744
 62
7
  0
LINE
  6
BYLAYER
  8
0
 10
-24.8194014332281
 11
-24.8194014332281
 20
82.6123103637744
 21
70.097501203469
 62
7
  0
LINE
  6
BYLAYER
  8
0
 10
-24.8194014332281
 11
-24.8194014332281
 20
70.097501203469
 21
56.5070431882018
 62
7
  0
LINE
  6
BYLAYER
  8
0
 10
-24.8194014332281
 11
-24.8194014332281
 20
56.5070431882018
 21
42.5437607454537
 62
7
  0
LINE
  6
BYLAYER
  8
0
 10
-24.8194014332281
 11
-24.8194014332281
 20
42.5437607454537
 21
28.9102263943087
 62
7
  0
LINE
  6
BYLAYER
  8
0
 10
-24.8194014332281
 11
-24.8194014332281
 20
28.9102263943087
 21
16.312035554614
 62
7
  0
LINE
  6
BYLAYER
  8
0
 10
-24.8194014332281
 11
-24.8194014332281
 20
16.312035554614
 21
5.45226456224765
 62
7
  0
LINE
  6
BYLAYER
  8
0
 10
-24.8194014332281
 11
-24.8194014332281
 20
5.45226456224765
 21
-2.96374307134019
 62
7
  0
LINE
  6
BYLAYER
  8
0
 10
-24.8194014332281
 11
-24.8194014332281
 20
-2.96374307134019
 21
-8.23215528508058
 62
7
  0
LINE
  6
BYLAYER
  8
0
 10
-24.8194014332281
 11
-24.8194014332281
 20
-8.23215528508058
 21
-9.46801788050047
 62
7
  0
LINE
  6
BYLAYER
  8
0
 10
-24.8194014332281
 11
-24.8194014332281
 20
-9.46801788050047
 21
-9.51411711714169
 62
7
  0
LINE
  6
BYLAYER
  8
0
 10
-24.8194014332281
 11
-24.8274625019305
 20
-9.51411711714169
 21
-9.65518581943175
 62
7
  0
LINE
  6
BYLAYER
  8
0
 10
-24.8274625019305
 11
-24.7319892194877
 20
-9.65518581943175
 21
-9.71262093393563
 62
7
  0
LINE
  6
BYLAYER
  8
0
 10
-24.7319892194877
 11
-24.6989892194877
 20
-9.71262093393563
 21
-9.71262093393563
 62
7
  0
LINE
  6
BYLAYER
  8
0
 10
-24.6989892194877
 11
-19.4796991431518
 20
-9.71262093393563
 21
-9.71262093393563
 62
7
  0
LINE
  6
BYLAYER
  8
0
 10
-19.4796991431518
 11
-8.63655410498386
 20
-9.71262093393563
 21
-9.71262093393563
 62
7
  0
LINE
  6
BYLAYER
  8
0
 10
-8.63655410498386
 11
4.94458329959626
 20
-9.71262093393563
 21
-9.71262093393563
 62
7
  0
LINE
  6
BYLAYER
  8
0
 10
4.94458329959626
 11
18.3733161240238
 20
-9.71262093393563
 21
-9.71262093393563
 62
7
  0
LINE
  6
BYLAYER
  8
0
 10
18.3733161240238
 11
28.7617665057032
 20
-9.71262093393563
 21
-9.71262093393563
 62
7
  0
LINE
  6
BYLAYER
  8
0
 10
28.7617665057032
 11
33.2225603988329
 20
-9.71262093393563
 21
-9.71262093393563
 62
7
  0
LINE
  6
BYLAYER
  8
0
 10
33.2225603988329
 11
33.2265909331841
 20
-9.71262093393563
 21
-9.71262093393563
 62
7
  0
LINE
  6
BYLAYER
  8
0
 10
33.2265909331841
 11
33.2391863530314
 20
-9.71262093393563
 21
-9.43652933088222
 62
7
  0
LINE
  6
BYLAYER
  8
0
 10
33.2391863530314
 11
33.2429649789856
 20
-9.43652933088222
 21
-8.82136902553867
 62
7
  0
LINE
  6
BYLAYER
  8
0
 10
33.2429649789856
 11
33.2404458950161
 20
-8.82136902553867
 21
-8.18605604843938
 62
7
  0
LINE
  6
BYLAYER
  8
0
 10
33.2404458950161
 11
33.2391863530314
 20
-8.18605604843938
 21
-7.93162856752335
 62
7
  0
LINE
  6
BYLAYER
  8
0
 10
33.2391863530314
 11
33.2391863530314
 20
-7.93162856752335
 21
-7.848498796531
 62
7
  0
LINE
  6
BYLAYER
  8
0
 10
33.2391863530314
 11
33.2391863530314
 20
-7.848498796531
 21
-2.21607894920277
 62
7
  0
LINE
  6
BYLAYER
  8
0
 10
33.2391863530314
 11
33.2391863530314
 20
-2.21607894920277
 21
6.48962334087355
 62
7
  0
LINE
  6
BYLAYER
  8
0
 10
33.2391863530314
 11
33.2391863530314
 20
6.48962334087355
 21
17.5652798294232
 62
7
  0
LINE
  6
BYLAYER
  8
0
 10
33.2391863530314
 11
33.2391863530314
 20
17.5652798294232
 21
30.3055470049957
 62
7
  0
LINE
  6
BYLAYER
  8
0
 10
33.2391863530314
 11
33.2391863530314
 20
30.3055470049957
 21
44.0073485317133
 62
7
  0
LINE
  6
BYLAYER
  8
0
 10
33.2391863530314
 11
33.2391863530314
 20
44.0073485317133
 21
57.9655928065224
 62
7
  0
LINE
  6
BYLAYER
  8
0
 10
33.2391863530314
 11
33.2391863530314
 20
57.9655928065224
 21
71.4754401347667
 62
7
  0
LINE
  6
BYLAYER
  8
0
 10
33.2391863530314
 11
33.2391863530314
 20
71.4754401347667
 21
83.8340660889652
 62
7
  0
LINE
  6
BYLAYER
  8
0
 10
33.2391863530314
 11
33.2391863530314
 20
83.8340660889652
 21
94.3411653256064
 62
7
  0
LINE
  6
BYLAYER
  8
0
 10
33.2391863530314
 11
33.2391863530314
 20
94.3411653256064
 21
102.286356165301
 62
7
  0
LINE
  6
BYLAYER
  8
0
 10
33.2391863530314
 11
33.2391863530314
 20
102.286356165301
 21
106.966814180568
 62
7
  0
LINE
  6
BYLAYER
  8
0
 10
33.2391863530314
 11
33.2391863530314
 20
106.966814180568
 21
107.929104256904
 62
7
  0
LINE
  6
BYLAYER
  8
0
 10
-24.7959739523121
 11
-24.7959739523121
 20
-89.6063766591265
 21
-70.09153696447
 62
7
  0
LINE
  6
BYLAYER
  8
0
 10
-24.7959739523121
 11
-24.7959739523121
 20
-70.09153696447
 21
-50.4318499415692
 62
7
  0
LINE
  6
BYLAYER
  8
0
 10
32.9903008568482
 11
33.0190184141001
 20
-50.4318499415692
 21
-50.4318499415692
 62
7
  0
LINE
  6
BYLAYER
  8
0
 10
33.0190184141001
 11
33.1079420782222
 20
-50.4318499415692
 21
-50.4247965064547
 62
7
  0
LINE
  6
BYLAYER
  8
0
 10
33.1079420782222
 11
33.2117283377642
 20
-50.4247965064547
 21
-50.4426820026379
 62
7
  0
LINE
  6
BYLAYER
  8
0
 10
33.2117283377642
 11
33.2117283377642
 20
-50.4426820026379
 21
-50.4492316209585
 62
7
  0
LINE
  6
BYLAYER
  8
0
 10
33.2117283377642
 11
33.2117283377642
 20
-50.4492316209585
 21
-52.4393079568364
 62
7
  0
LINE
  6
BYLAYER
  8
0
 10
33.2117283377642
 11
33.2117283377642
 20
-52.4393079568364
 21
-63.4645827659967
 62
7
  0
LINE
  6
BYLAYER
  8
0
 10
33.2117283377642
 11
33.2117283377642
 20
-63.4645827659967
 21
-88.1767965064547
 62
7
  0
LINE
  6
BYLAYER
  8
0
 10
33.2117283377642
 11
33.2117283377642
 20
-88.1767965064547
 21
-88.2397736056913
 62
7
  0
LINE
  6
BYLAYER
  8
0
 10
33.2117283377642
 11
33.2117283377642
 20
-88.2397736056913
 21
-88.4324835293554
 62
7
  0
LINE
  6
BYLAYER
  8
0
 10
33.2117283377642
 11
33.2117283377642
 20
-88.4324835293554
 21
-88.920178185844
 62
7
  0
LINE
  6
BYLAYER
  8
0
 10
33.2117283377642
 11
33.2117283377642
 20
-88.920178185844
 21
-89.3932621553096
 62
7
  0
LINE
  6
BYLAYER
  8
0
 10
33.2117283377642
 11
33.2104687957795
 20
-89.3932621553096
 21
-89.6063766591265
 62
7
  0
LINE
  6
BYLAYER
  8
0
 10
33.2104687957795
 11
33.2104687957795
 20
-89.6063766591265
 21
-89.6063766591265
 62
7
  0
LINE
  6
BYLAYER
  8
0
 10
33.2104687957795
 11
32.8930642156268
 20
-89.6063766591265
 21
-89.6063766591265
 62
7
  0
LINE
  6
BYLAYER
  8
0
 10
32.8930642156268
 11
30.7651939866192
 20
-89.6063766591265
 21
-89.6063766591265
 62
7
  0
LINE
  6
BYLAYER
  8
0
 10
30.7651939866192
 11
21.7929726125734
 20
-89.6063766591265
 21
-89.6063766591265
 62
7
  0
LINE
  6
BYLAYER
  8
0
 10
21.7929726125734
 11
8.94463673471077
 20
-89.6063766591265
 21
-89.6063766591265
 62
7
  0
LINE
  6
BYLAYER
  8
0
 10
8.94463673471077
 11
-4.88614189124343
 20
-89.6063766591265
 21
-89.6063766591265
 62
7
  0
LINE
  6
BYLAYER
  8
0
 10
-4.88614189124343
 11
-16.8092182271213
 20
-89.6063766591265
 21
-89.6063766591265
 62
7
  0
LINE
  6
BYLAYER
  8
0
 10
-16.8092182271213
 11
-23.9296609752129
 20
-89.6063766591265
 21
-89.6063766591265
 62
7
  0
LINE
  6
BYLAYER
  8
0
 10
-23.9296609752129
 11
-24.7974854026938
 20
-89.6063766591265
 21
-89.6063766591265
 62
7
  0
LINE
  6
BYLAYER
  8
0
 10
-25.3005464713961
 11
33.7160489484512
 20
-89.4562392545463
 21
-89.4562392545463
 62
7
  0
LINE
  6
BYLAYER
  8
0
 10
-24.7947144103274
 11
-24.7947144103274
 20
-50.1295598652333
 21
-30.6147201705768
 62
7
  0
LINE
  6
BYLAYER
  8
0
 10
-24.7947144103274
 11
-24.7947144103274
 20
-30.6147201705768
 21
-10.9535216972944
 62
7
  0
LINE
  6
BYLAYER
  8
0
 10
-24.7947144103274
 11
-24.7947144103274
 20
-10.9535216972944
 21
-10.9535216972944
 62
7
  0
LINE
  6
BYLAYER
  8
0
 10
-24.7947144103274
 11
-24.6337449446785
 20
-10.9535216972944
 21
-10.9522621553096
 62
7
  0
LINE
  6
BYLAYER
  8
0
 10
-24.6337449446785
 11
-24.2029815858999
 20
-10.9522621553096
 21
-10.9522621553096
 62
7
  0
LINE
  6
BYLAYER
  8
0
 10
-24.2029815858999
 11
-23.5905922729228
 20
-10.9522621553096
 21
-10.9522621553096
 62
7
  0
LINE
  6
BYLAYER
  8
0
 10
-23.5905922729228
 11
-22.8829815858999
 20
-10.9522621553096
 21
-10.9522621553096
 62
7
  0
LINE
  6
BYLAYER
  8
0
 10
-22.8829815858999
 11
-22.1652945629991
 20
-10.9522621553096
 21
-10.9522621553096
 62
7
  0
LINE
  6
BYLAYER
  8
0
 10
-22.1652945629991
 11
-21.5244396011671
 20
-10.9522621553096
 21
-10.9522621553096
 62
7
  0
LINE
  6
BYLAYER
  8
0
 10
-21.5244396011671
 11
-21.0460655553656
 20
-10.9522621553096
 21
-10.9522621553096
 62
7
  0
LINE
  6
BYLAYER
  8
0
 10
-21.0460655553656
 11
-20.8735083034572
 20
-10.9522621553096
 21
-10.9535216972944
 62
7
  0
LINE
  6
BYLAYER
  8
0
 10
-20.8735083034572
 11
-20.8163250973503
 20
-10.9535216972944
 21
-10.9535216972944
 62
7
  0
LINE
  6
BYLAYER
  8
0
 10
-20.8163250973503
 11
-10.7205922729228
 20
-10.9535216972944
 21
-10.9535216972944
 62
7
  0
LINE
  6
BYLAYER
  8
0
 10
-10.7205922729228
 11
2.60183520799322
 20
-10.9535216972944
 21
-10.9535216972944
 62
7
  0
LINE
  6
BYLAYER
  8
0
 10
2.60183520799322
 11
16.2565298644818
 20
-10.9535216972944
 21
-10.9535216972944
 62
7
  0
LINE
  6
BYLAYER
  8
0
 10
16.2565298644818
 11
27.3500718492146
 20
-10.9535216972944
 21
-10.9535216972944
 62
7
  0
LINE
  6
BYLAYER
  8
0
 10
27.3500718492146
 11
32.9918123072299
 20
-10.9535216972944
 21
-10.9535216972944
 62
7
  0
LINE
  6
BYLAYER
  8
0
 10
32.9918123072299
 11
33.0205298644818
 20
-10.9535216972944
 21
-10.9535216972944
 62
7
  0
LINE
  6
BYLAYER
  8
0
 10
33.0205298644818
 11
33.1104611621917
 20
-10.9535216972944
 21
-10.9464682621798
 62
7
  0
LINE
  6
BYLAYER
  8
0
 10
33.1104611621917
 11
33.2142474217337
 20
-10.9464682621798
 21
-10.9643537583631
 62
7
  0
LINE
  6
BYLAYER
  8
0
 10
33.2142474217337
 11
33.2142474217337
 20
-10.9643537583631
 21
-10.9714071934776
 62
7
  0
LINE
  6
BYLAYER
  8
0
 10
33.2142474217337
 11
33.2142474217337
 20
-10.9714071934776
 21
-12.9624911629432
 62
7
  0
LINE
  6
BYLAYER
  8
0
 10
33.2142474217337
 11
33.2142474217337
 20
-12.9624911629432
 21
-23.9877659721035
 62
7
  0
LINE
  6
BYLAYER
  8
0
 10
33.2142474217337
 11
33.2142474217337
 20
-23.9877659721035
 21
-48.6999797125615
 62
7
  0
LINE
  6
BYLAYER
  8
0
 10
33.2142474217337
 11
33.2142474217337
 20
-48.6999797125615
 21
-48.7629568117982
 62
7
  0
LINE
  6
BYLAYER
  8
0
 10
33.2142474217337
 11
33.2142474217337
 20
-48.7629568117982
 21
-48.9556667354623
 62
7
  0
LINE
  6
BYLAYER
  8
0
 10
33.2142474217337
 11
33.2142474217337
 20
-48.9556667354623
 21
-49.4433613919508
 62
7
  0
LINE
  6
BYLAYER
  8
0
 10
33.2142474217337
 11
33.2142474217337
 20
-49.4433613919508
 21
-49.9164453614165
 62
7
  0
LINE
  6
BYLAYER
  8
0
 10
33.2142474217337
 11
33.2129878797489
 20
-49.9164453614165
 21
-50.1295598652333
 62
7
  0
LINE
  6
BYLAYER
  8
0
 10
33.2129878797489
 11
33.2129878797489
 20
-50.1295598652333
 21
-50.1295598652333
 62
7
  0
LINE
  6
BYLAYER
  8
0
 10
33.2129878797489
 11
32.8958352079933
 20
-50.1295598652333
 21
-50.1295598652333
 62
7
  0
LINE
  6
BYLAYER
  8
0
 10
4.95969780341306
 11
4.88286574234436
 20
122.673302730187
 21
122.660707310339
 62
7
  0
LINE
  6
BYLAYER
  8
0
 10
4.88286574234436
 11
4.12588100951993
 20
122.660707310339
 21
122.512081356141
 62
7
  0
LINE
  6
BYLAYER
  8
0
 10
4.12588100951993
 11
4.05056039883293
 20
122.512081356141
 21
122.496966852324
 62
7
  0
LINE
  6
BYLAYER
  8
0
 10
4.05056039883293
 11
4.03846879577948
 20
122.496966852324
 21
122.494447768354
 62
7
  0
LINE
  6
BYLAYER
  8
0
 10
4.03846879577948
 11
3.82913291791688
 20
122.494447768354
 21
122.461699676751
 62
7
  0
LINE
  6
BYLAYER
  8
0
 10
3.82913291791688
 11
3.82107184921459
 20
122.461699676751
 21
122.471776012629
 62
7
  0
LINE
  6
BYLAYER
  8
0
 10
3.82107184921459
 11
3.7923542919627
 20
122.471776012629
 21
122.504524104232
 62
7
  0
LINE
  6
BYLAYER
  8
0
 10
3.7923542919627
 11
3.50946116219171
 20
122.504524104232
 21
122.829485936293
 62
7
  0
LINE
  6
BYLAYER
  8
0
 10
3.50946116219171
 11
3.48200314692451
 20
122.829485936293
 21
122.862234027897
 62
7
  0
LINE
  6
BYLAYER
  8
0
 10
3.48200314692451
 11
3.13638482631386
 20
122.862234027897
 21
123.262768379042
 62
7
  0
LINE
  6
BYLAYER
  8
0
 10
3.13638482631386
 11
3.11723978814591
 20
123.262768379042
 21
123.285440134767
 62
7
  0
LINE
  6
BYLAYER
  8
0
 10
3.11723978814591
 11
3.12933139119933
 20
123.285440134767
 21
123.454218760721
 62
7
  0
LINE
  6
BYLAYER
  8
0
 10
3.12933139119933
 11
3.13890391028329
 20
123.454218760721
 21
123.479409600416
 62
7
  0
LINE
  6
BYLAYER
  8
0
 10
3.13890391028329
 11
3.15401841410011
 20
123.479409600416
 21
123.524753111866
 62
7
  0
LINE
  6
BYLAYER
  8
0
 10
3.15401841410011
 11
3.31146116219169
 20
123.524753111866
 21
123.97818822637
 62
7
  0
LINE
  6
BYLAYER
  8
0
 10
3.31146116219169
 11
3.3275832995963
 20
123.97818822637
 21
124.02353173782
 62
7
  0
LINE
  6
BYLAYER
  8
0
 10
3.3275832995963
 11
3.33438482631385
 20
124.02353173782
 21
124.046203493545
 62
7
  0
LINE
  6
BYLAYER
  8
0
 10
3.33438482631385
 11
3.44119398661917
 20
124.046203493545
 21
124.391317997362
 62
7
  0
LINE
  6
BYLAYER
  8
0
 10
3.44119398661917
 11
3.45857566600851
 20
124.391317997362
 21
124.40391341721
 62
7
  0
LINE
  6
BYLAYER
  8
0
 10
3.45857566600851
 11
3.47268253623751
 20
124.40391341721
 21
124.416508837057
 62
7
  0
LINE
  6
BYLAYER
  8
0
 10
3.47268253623751
 11
3.77320925379473
 20
124.416508837057
 21
124.466890516446
 62
7
  0
LINE
  6
BYLAYER
  8
0
 10
3.77320925379473
 11
3.79109474997797
 20
124.466890516446
 21
124.469409600416
 62
7
  0
LINE
  6
BYLAYER
  8
0
 10
3.79109474997797
 11
3.83870543700085
 20
124.469409600416
 21
124.479485936293
 62
7
  0
LINE
  6
BYLAYER
  8
0
 10
3.83870543700085
 11
4.31959856677183
 20
124.479485936293
 21
124.572692043164
 62
7
  0
LINE
  6
BYLAYER
  8
0
 10
4.31959856677183
 11
4.36897261257337
 20
124.572692043164
 21
124.580249295072
 62
7
  0
LINE
  6
BYLAYER
  8
0
 10
4.36897261257337
 11
4.37980467364207
 20
124.580249295072
 21
124.582768379042
 62
7
  0
LINE
  6
BYLAYER
  8
0
 10
4.37980467364207
 11
4.58762910112301
 20
124.582768379042
 21
124.618035554614
 62
7
  0
LINE
  6
BYLAYER
  8
0
 10
4.58762910112301
 11
4.59720162020697
 20
124.618035554614
 21
124.605440134767
 62
7
  0
LINE
  6
BYLAYER
  8
0
 10
4.59720162020697
 11
4.62440772707718
 20
124.605440134767
 21
124.575211127133
 62
7
  0
LINE
  6
BYLAYER
  8
0
 10
4.62440772707718
 11
4.90755276524513
 20
124.575211127133
 21
124.247730211103
 62
7
  0
LINE
  6
BYLAYER
  8
0
 10
4.90755276524513
 11
4.93627032249707
 20
124.247730211103
 21
124.2149821195
 62
7
  0
LINE
  6
BYLAYER
  8
0
 10
4.93627032249707
 11
5.28314818509249
 20
124.2149821195
 21
123.814447768354
 62
7
  0
LINE
  6
BYLAYER
  8
0
 10
5.28314818509249
 11
5.30103368127568
 20
123.814447768354
 21
123.794295096599
 62
7
  0
LINE
  6
BYLAYER
  8
0
 10
5.30103368127568
 11
5.28894207822226
 20
123.794295096599
 21
123.625516470645
 62
7
  0
LINE
  6
BYLAYER
  8
0
 10
5.28894207822226
 11
5.28037719272604
 20
123.625516470645
 21
123.59780654698
 62
7
  0
LINE
  6
BYLAYER
  8
0
 10
5.28037719272604
 11
5.25317108585581
 20
123.59780654698
 21
123.522234027897
 62
7
  0
LINE
  6
BYLAYER
  8
0
 10
5.25317108585581
 11
4.98539245990165
 20
123.522234027897
 21
122.75139433324
 62
7
  0
LINE
  6
BYLAYER
  8
0
 10
4.98539245990165
 11
4.95969780341306
 20
122.75139433324
 21
122.673302730187
 62
7
  0
LINE
  6
BYLAYER
  8
0
 10
4.95969780341306
 11
4.88286574234436
 20
122.673302730187
 21
122.660707310339
 62
7
  0
LINE
  6
BYLAYER
  8
0
 10
4.88286574234436
 11
4.12588100951993
 20
122.660707310339
 21
122.512081356141
 62
7
  0
LINE
  6
BYLAYER
  8
0
 10
4.12588100951993
 11
4.05056039883293
 20
122.512081356141
 21
122.496966852324
 62
7
  0
LINE
  6
BYLAYER
  8
0
 10
4.05056039883293
 11
4.03846879577948
 20
122.496966852324
 21
122.494447768354
 62
7
  0
LINE
  6
BYLAYER
  8
0
 10
4.03846879577948
 11
3.82913291791688
 20
122.494447768354
 21
122.461699676751
 62
7
  0
LINE
  6
BYLAYER
  8
0
 10
3.82913291791688
 11
3.82107184921459
 20
122.461699676751
 21
122.471776012629
 62
7
  0
LINE
  6
BYLAYER
  8
0
 10
3.82107184921459
 11
3.7923542919627
 20
122.471776012629
 21
122.504524104232
 62
7
  0
LINE
  6
BYLAYER
  8
0
 10
3.7923542919627
 11
3.50946116219171
 20
122.504524104232
 21
122.829485936293
 62
7
  0
LINE
  6
BYLAYER
  8
0
 10
3.50946116219171
 11
3.48200314692451
 20
122.829485936293
 21
122.862234027897
 62
7
  0
LINE
  6
BYLAYER
  8
0
 10
3.48200314692451
 11
3.13638482631386
 20
122.862234027897
 21
123.262768379042
 62
7
  0
LINE
  6
BYLAYER
  8
0
 10
3.13638482631386
 11
3.11723978814591
 20
123.262768379042
 21
123.285440134767
 62
7
  0
LINE
  6
BYLAYER
  8
0
 10
3.11723978814591
 11
3.12933139119933
 20
123.285440134767
 21
123.454218760721
 62
7
  0
LINE
  6
BYLAYER
  8
0
 10
3.12933139119933
 11
3.13890391028329
 20
123.454218760721
 21
123.479409600416
 62
7
  0
LINE
  6
BYLAYER
  8
0
 10
3.13890391028329
 11
3.15401841410011
 20
123.479409600416
 21
123.524753111866
 62
7
  0
LINE
  6
BYLAYER
  8
0
 10
3.15401841410011
 11
3.31146116219169
 20
123.524753111866
 21
123.97818822637
 62
7
  0
LINE
  6
BYLAYER
  8
0
 10
3.31146116219169
 11
3.3275832995963
 20
123.97818822637
 21
124.02353173782
 62
7
  0
LINE
  6
BYLAYER
  8
0
 10
3.3275832995963
 11
3.33438482631385
 20
124.02353173782
 21
124.046203493545
 62
7
  0
LINE
  6
BYLAYER
  8
0
 10
3.33438482631385
 11
3.44119398661917
 20
124.046203493545
 21
124.391317997362
 62
7
  0
LINE
  6
BYLAYER
  8
0
 10
3.44119398661917
 11
3.45857566600851
 20
124.391317997362
 21
124.40391341721
 62
7
  0
LINE
  6
BYLAYER
  8
0
 10
3.45857566600851
 11
3.47268253623751
 20
124.40391341721
 21
124.416508837057
 62
7
  0
LINE
  6
BYLAYER
  8
0
 10
3.47268253623751
 11
3.77320925379473
 20
124.416508837057
 21
124.466890516446
 62
7
  0
LINE
  6
BYLAYER
  8
0
 10
3.77320925379473
 11
3.79109474997797
 20
124.466890516446
 21
124.469409600416
 62
7
  0
LINE
  6
BYLAYER
  8
0
 10
3.79109474997797
 11
3.83870543700085
 20
124.469409600416
 21
124.479485936293
 62
7
  0
LINE
  6
BYLAYER
  8
0
 10
3.83870543700085
 11
4.31959856677183
 20
124.479485936293
 21
124.572692043164
 62
7
  0
LINE
  6
BYLAYER
  8
0
 10
4.31959856677183
 11
4.36897261257337
 20
124.572692043164
 21
124.580249295072
 62
7
  0
LINE
  6
BYLAYER
  8
0
 10
4.36897261257337
 11
4.37980467364207
 20
124.580249295072
 21
124.582768379042
 62
7
  0
LINE
  6
BYLAYER
  8
0
 10
4.37980467364207
 11
4.58762910112301
 20
124.582768379042
 21
124.618035554614
 62
7
  0
LINE
  6
BYLAYER
  8
0
 10
4.58762910112301
 11
4.59720162020697
 20
124.618035554614
 21
124.605440134767
 62
7
  0
LINE
  6
BYLAYER
  8
0
 10
4.59720162020697
 11
4.62440772707718
 20
124.605440134767
 21
124.575211127133
 62
7
  0
LINE
  6
BYLAYER
  8
0
 10
4.62440772707718
 11
4.90755276524513
 20
124.575211127133
 21
124.247730211103
 62
7
  0
LINE
  6
BYLAYER
  8
0
 10
4.90755276524513
 11
4.93627032249707
 20
124.247730211103
 21
124.2149821195
 62
7
  0
LINE
  6
BYLAYER
  8
0
 10
4.93627032249707
 11
5.28314818509249
 20
124.2149821195
 21
123.814447768354
 62
7
  0
LINE
  6
BYLAYER
  8
0
 10
5.28314818509249
 11
5.30103368127568
 20
123.814447768354
 21
123.794295096599
 62
7
  0
LINE
  6
BYLAYER
  8
0
 10
5.30103368127568
 11
5.28894207822226
 20
123.794295096599
 21
123.625516470645
 62
7
  0
LINE
  6
BYLAYER
  8
0
 10
5.28894207822226
 11
5.28037719272604
 20
123.625516470645
 21
123.59780654698
 62
7
  0
LINE
  6
BYLAYER
  8
0
 10
5.28037719272604
 11
5.25317108585581
 20
123.59780654698
 21
123.522234027897
 62
7
  0
LINE
  6
BYLAYER
  8
0
 10
5.25317108585581
 11
4.98539245990165
 20
123.522234027897
 21
122.75139433324
 62
7
  0
LINE
  6
BYLAYER
  8
0
 10
4.98539245990165
 11
4.95969780341306
 20
122.75139433324
 21
122.673302730187
 62
7
  0
LINE
  6
BYLAYER
  8
0
 10
5.6524458950161
 11
5.6524458950161
 20
123.539867615683
 21
123.401317997362
 62
7
  0
LINE
  6
BYLAYER
  8
0
 10
5.6524458950161
 11
5.53757566600848
 20
123.401317997362
 21
122.983150058431
 62
7
  0
LINE
  6
BYLAYER
  8
0
 10
5.53757566600848
 11
5.22596497898562
 20
122.983150058431
 21
122.522157692019
 62
7
  0
LINE
  6
BYLAYER
  8
0
 10
5.22596497898562
 11
4.76673597135202
 20
122.522157692019
 21
122.212310363774
 62
7
  0
LINE
  6
BYLAYER
  8
0
 10
4.76673597135202
 11
4.34831612402378
 20
122.212310363774
 21
122.096432501179
 62
7
  0
LINE
  6
BYLAYER
  8
0
 10
4.34831612402378
 11
4.20926268890926
 20
122.096432501179
 21
122.096432501179
 62
7
  0
LINE
  6
BYLAYER
  8
0
 10
4.20926268890926
 11
4.06995734539782
 20
122.096432501179
 21
122.096432501179
 62
7
  0
LINE
  6
BYLAYER
  8
0
 10
4.06995734539782
 11
3.65153749806957
 20
122.096432501179
 21
122.212310363774
 62
7
  0
LINE
  6
BYLAYER
  8
0
 10
3.65153749806957
 11
3.19230849043599
 20
122.212310363774
 21
122.522157692019
 62
7
  0
LINE
  6
BYLAYER
  8
0
 10
3.19230849043599
 11
2.88069780341309
 20
122.522157692019
 21
122.983150058431
 62
7
  0
LINE
  6
BYLAYER
  8
0
 10
2.88069780341309
 11
2.76582757440546
 20
122.983150058431
 21
123.401317997362
 62
7
  0
LINE
  6
BYLAYER
  8
0
 10
2.76582757440546
 11
2.76582757440546
 20
123.401317997362
 21
123.539867615683
 62
7
  0
LINE
  6
BYLAYER
  8
0
 10
2.76582757440546
 11
2.76582757440546
 20
123.539867615683
 21
123.678417234003
 62
7
  0
LINE
  6
BYLAYER
  8
0
 10
2.76582757440546
 11
2.88069780341309
 20
123.678417234003
 21
124.096585172935
 62
7
  0
LINE
  6
BYLAYER
  8
0
 10
2.88069780341309
 11
3.19230849043599
 20
124.096585172935
 21
124.555058455377
 62
7
  0
LINE
  6
BYLAYER
  8
0
 10
3.19230849043599
 11
3.65153749806957
 20
124.555058455377
 21
124.867424867591
 62
7
  0
LINE
  6
BYLAYER
  8
0
 10
3.65153749806957
 11
4.06995734539782
 20
124.867424867591
 21
124.980783646217
 62
7
  0
LINE
  6
BYLAYER
  8
0
 10
4.06995734539782
 11
4.20926268890926
 20
124.980783646217
 21
124.980783646217
 62
7
  0
LINE
  6
BYLAYER
  8
0
 10
4.20926268890926
 11
4.34831612402378
 20
124.980783646217
 21
124.980783646217
 62
7
  0
LINE
  6
BYLAYER
  8
0
 10
4.34831612402378
 11
4.76673597135202
 20
124.980783646217
 21
124.867424867591
 62
7
  0
LINE
  6
BYLAYER
  8
0
 10
4.76673597135202
 11
5.22596497898562
 20
124.867424867591
 21
124.555058455377
 62
7
  0
LINE
  6
BYLAYER
  8
0
 10
5.22596497898562
 11
5.53757566600848
 20
124.555058455377
 21
124.096585172935
 62
7
  0
LINE
  6
BYLAYER
  8
0
 10
5.53757566600848
 11
5.6524458950161
 20
124.096585172935
 21
123.678417234003
 62
7
  0
LINE
  6
BYLAYER
  8
0
 10
5.6524458950161
 11
5.6524458950161
 20
123.678417234003
 21
123.539867615683
 62
7
  0
LINE
  6
BYLAYER
  8
0
 10
5.6524458950161
 11
5.6524458950161
 20
123.539867615683
 21
123.401317997362
 62
7
  0
LINE
  6
BYLAYER
  8
0
 10
5.6524458950161
 11
5.53757566600848
 20
123.401317997362
 21
122.983150058431
 62
7
  0
LINE
  6
BYLAYER
  8
0
 10
5.53757566600848
 11
5.22596497898562
 20
122.983150058431
 21
122.522157692019
 62
7
  0
LINE
  6
BYLAYER
  8
0
 10
5.22596497898562
 11
4.76673597135202
 20
122.522157692019
 21
122.212310363774
 62
7
  0
LINE
  6
BYLAYER
  8
0
 10
4.76673597135202
 11
4.34831612402378
 20
122.212310363774
 21
122.096432501179
 62
7
  0
LINE
  6
BYLAYER
  8
0
 10
4.34831612402378
 11
4.20926268890926
 20
122.096432501179
 21
122.096432501179
 62
7
  0
LINE
  6
BYLAYER
  8
0
 10
4.20926268890926
 11
4.06995734539782
 20
122.096432501179
 21
122.096432501179
 62
7
  0
LINE
  6
BYLAYER
  8
0
 10
4.06995734539782
 11
3.65153749806957
 20
122.096432501179
 21
122.212310363774
 62
7
  0
LINE
  6
BYLAYER
  8
0
 10
3.65153749806957
 11
3.19230849043599
 20
122.212310363774
 21
122.522157692019
 62
7
  0
LINE
  6
BYLAYER
  8
0
 10
3.19230849043599
 11
2.88069780341309
 20
122.522157692019
 21
122.983150058431
 62
7
  0
LINE
  6
BYLAYER
  8
0
 10
2.88069780341309
 11
2.76582757440546
 20
122.983150058431
 21
123.401317997362
 62
7
  0
LINE
  6
BYLAYER
  8
0
 10
2.76582757440546
 11
2.76582757440546
 20
123.401317997362
 21
123.539867615683
 62
7
  0
LINE
  6
BYLAYER
  8
0
 10
2.76582757440546
 11
2.76582757440546
 20
123.539867615683
 21
123.678417234003
 62
7
  0
LINE
  6
BYLAYER
  8
0
 10
2.76582757440546
 11
2.88069780341309
 20
123.678417234003
 21
124.096585172935
 62
7
  0
LINE
  6
BYLAYER
  8
0
 10
2.88069780341309
 11
3.19230849043599
 20
124.096585172935
 21
124.555058455377
 62
7
  0
LINE
  6
BYLAYER
  8
0
 10
3.19230849043599
 11
3.65153749806957
 20
124.555058455377
 21
124.867424867591
 62
7
  0
LINE
  6
BYLAYER
  8
0
 10
3.65153749806957
 11
4.06995734539782
 20
124.867424867591
 21
124.980783646217
 62
7
  0
LINE
  6
BYLAYER
  8
0
 10
4.06995734539782
 11
4.20926268890926
 20
124.980783646217
 21
124.980783646217
 62
7
  0
LINE
  6
BYLAYER
  8
0
 10
4.20926268890926
 11
4.34831612402378
 20
124.980783646217
 21
124.980783646217
 62
7
  0
LINE
  6
BYLAYER
  8
0
 10
4.34831612402378
 11
4.76673597135202
 20
124.980783646217
 21
124.867424867591
 62
7
  0
LINE
  6
BYLAYER
  8
0
 10
4.76673597135202
 11
5.22596497898562
 20
124.867424867591
 21
124.555058455377
 62
7
  0
LINE
  6
BYLAYER
  8
0
 10
5.22596497898562
 11
5.53757566600848
 20
124.555058455377
 21
124.096585172935
 62
7
  0
LINE
  6
BYLAYER
  8
0
 10
5.53757566600848
 11
5.6524458950161
 20
124.096585172935
 21
123.678417234003
 62
7
  0
LINE
  6
BYLAYER
  8
0
 10
5.6524458950161
 11
5.6524458950161
 20
123.678417234003
 21
123.539867615683
 62
7
  0
LINE
  6
BYLAYER
  8
0
 10
4.95969780341306
 11
4.88286574234436
 20
-105.481895743096
 21
-105.495498796531
 62
7
  0
LINE
  6
BYLAYER
  8
0
 10
4.88286574234436
 11
4.12588100951993
 20
-105.495498796531
 21
-105.643117117142
 62
7
  0
LINE
  6
BYLAYER
  8
0
 10
4.12588100951993
 11
4.05056039883293
 20
-105.643117117142
 21
-105.658231620958
 62
7
  0
LINE
  6
BYLAYER
  8
0
 10
4.05056039883293
 11
4.03846879577948
 20
-105.658231620958
 21
-105.659491162943
 62
7
  0
LINE
  6
BYLAYER
  8
0
 10
4.03846879577948
 11
3.82913291791688
 20
-105.659491162943
 21
-105.692491162943
 62
7
  0
LINE
  6
BYLAYER
  8
0
 10
3.82913291791688
 11
3.82107184921459
 20
-105.692491162943
 21
-105.682918643859
 62
7
  0
LINE
  6
BYLAYER
  8
0
 10
3.82107184921459
 11
3.7923542919627
 20
-105.682918643859
 21
-105.650170552256
 62
7
  0
LINE
  6
BYLAYER
  8
0
 10
3.7923542919627
 11
3.50946116219171
 20
-105.650170552256
 21
-105.323445361417
 62
7
  0
LINE
  6
BYLAYER
  8
0
 10
3.50946116219171
 11
3.48200314692451
 20
-105.323445361417
 21
-105.291956811798
 62
7
  0
LINE
  6
BYLAYER
  8
0
 10
3.48200314692451
 11
3.13638482631386
 20
-105.291956811798
 21
-104.89167436905
 62
7
  0
LINE
  6
BYLAYER
  8
0
 10
3.13638482631386
 11
3.11723978814591
 20
-104.89167436905
 21
-104.8710178805
 62
7
  0
LINE
  6
BYLAYER
  8
0
 10
3.11723978814591
 11
3.12933139119933
 20
-104.8710178805
 21
-104.701483529355
 62
7
  0
LINE
  6
BYLAYER
  8
0
 10
3.12933139119933
 11
3.13890391028329
 20
-104.701483529355
 21
-104.675788872867
 62
7
  0
LINE
  6
BYLAYER
  8
0
 10
3.13890391028329
 11
3.15401841410011
 20
-104.675788872867
 21
-104.630445361416
 62
7
  0
LINE
  6
BYLAYER
  8
0
 10
3.15401841410011
 11
3.31146116219169
 20
-104.630445361416
 21
-104.176758338516
 62
7
  0
LINE
  6
BYLAYER
  8
0
 10
3.31146116219169
 11
3.3275832995963
 20
-104.176758338516
 21
-104.131666735462
 62
7
  0
LINE
  6
BYLAYER
  8
0
 10
3.3275832995963
 11
3.33438482631385
 20
-104.131666735462
 21
-104.110002613325
 62
7
  0
LINE
  6
BYLAYER
  8
0
 10
3.33438482631385
 11
3.44119398661917
 20
-104.110002613325
 21
-103.765391926302
 62
7
  0
LINE
  6
BYLAYER
  8
0
 10
3.44119398661917
 11
3.45857566600851
 20
-103.765391926302
 21
-103.750277422485
 62
7
  0
LINE
  6
BYLAYER
  8
0
 10
3.45857566600851
 11
3.47268253623751
 20
-103.750277422485
 21
-103.737933911035
 62
7
  0
LINE
  6
BYLAYER
  8
0
 10
3.47268253623751
 11
3.77320925379473
 20
-103.737933911035
 21
-103.68881177363
 62
7
  0
LINE
  6
BYLAYER
  8
0
 10
3.77320925379473
 11
3.79109474997797
 20
-103.68881177363
 21
-103.686292689661
 62
7
  0
LINE
  6
BYLAYER
  8
0
 10
3.79109474997797
 11
3.83870543700085
 20
-103.686292689661
 21
-103.67646826218
 62
7
  0
LINE
  6
BYLAYER
  8
0
 10
3.83870543700085
 11
4.31959856677183
 20
-103.67646826218
 21
-103.583765972104
 62
7
  0
LINE
  6
BYLAYER
  8
0
 10
4.31959856677183
 11
4.36897261257337
 20
-103.583765972104
 21
-103.575452995004
 62
7
  0
LINE
  6
BYLAYER
  8
0
 10
4.36897261257337
 11
4.37980467364207
 20
-103.575452995004
 21
-103.572682002638
 62
7
  0
LINE
  6
BYLAYER
  8
0
 10
4.37980467364207
 11
4.58762910112301
 20
-103.572682002638
 21
-103.53867436905
 62
7
  0
LINE
  6
BYLAYER
  8
0
 10
4.58762910112301
 11
4.59720162020697
 20
-103.53867436905
 21
-103.549506430119
 62
7
  0
LINE
  6
BYLAYER
  8
0
 10
4.59720162020697
 11
4.62440772707718
 20
-103.549506430119
 21
-103.580994979737
 62
7
  0
LINE
  6
BYLAYER
  8
0
 10
4.62440772707718
 11
4.90755276524513
 20
-103.580994979737
 21
-103.90746826218
 62
7
  0
LINE
  6
BYLAYER
  8
0
 10
4.90755276524513
 11
4.93627032249707
 20
-103.90746826218
 21
-103.940216353783
 62
7
  0
LINE
  6
BYLAYER
  8
0
 10
4.93627032249707
 11
5.28314818509249
 20
-103.940216353783
 21
-104.339491162943
 62
7
  0
LINE
  6
BYLAYER
  8
0
 10
5.28314818509249
 11
5.30103368127568
 20
-104.339491162943
 21
-104.359895743096
 62
7
  0
LINE
  6
BYLAYER
  8
0
 10
5.30103368127568
 11
5.28894207822226
 20
-104.359895743096
 21
-104.529430094241
 62
7
  0
LINE
  6
BYLAYER
  8
0
 10
5.28894207822226
 11
5.28037719272604
 20
-104.529430094241
 21
-104.556636201111
 62
7
  0
LINE
  6
BYLAYER
  8
0
 10
5.28037719272604
 11
5.25317108585581
 20
-104.556636201111
 21
-104.63346826218
 62
7
  0
LINE
  6
BYLAYER
  8
0
 10
5.25317108585581
 11
4.98539245990165
 20
-104.63346826218
 21
-105.404056048439
 62
7
  0
LINE
  6
BYLAYER
  8
0
 10
4.98539245990165
 11
4.95969780341306
 20
-105.404056048439
 21
-105.481895743096
 62
7
  0
LINE
  6
BYLAYER
  8
0
 10
4.95969780341306
 11
4.88286574234436
 20
-105.481895743096
 21
-105.495498796531
 62
7
  0
LINE
  6
BYLAYER
  8
0
 10
4.88286574234436
 11
4.12588100951993
 20
-105.495498796531
 21
-105.643117117142
 62
7
  0
LINE
  6
BYLAYER
  8
0
 10
4.12588100951993
 11
4.05056039883293
 20
-105.643117117142
 21
-105.658231620958
 62
7
  0
LINE
  6
BYLAYER
  8
0
 10
4.05056039883293
 11
4.03846879577948
 20
-105.658231620958
 21
-105.659491162943
 62
7
  0
LINE
  6
BYLAYER
  8
0
 10
4.03846879577948
 11
3.82913291791688
 20
-105.659491162943
 21
-105.692491162943
 62
7
  0
LINE
  6
BYLAYER
  8
0
 10
3.82913291791688
 11
3.82107184921459
 20
-105.692491162943
 21
-105.682918643859
 62
7
  0
LINE
  6
BYLAYER
  8
0
 10
3.82107184921459
 11
3.7923542919627
 20
-105.682918643859
 21
-105.650170552256
 62
7
  0
LINE
  6
BYLAYER
  8
0
 10
3.7923542919627
 11
3.50946116219171
 20
-105.650170552256
 21
-105.323445361417
 62
7
  0
LINE
  6
BYLAYER
  8
0
 10
3.50946116219171
 11
3.48200314692451
 20
-105.323445361417
 21
-105.291956811798
 62
7
  0
LINE
  6
BYLAYER
  8
0
 10
3.48200314692451
 11
3.13638482631386
 20
-105.291956811798
 21
-104.89167436905
 62
7
  0
LINE
  6
BYLAYER
  8
0
 10
3.13638482631386
 11
3.11723978814591
 20
-104.89167436905
 21
-104.8710178805
 62
7
  0
LINE
  6
BYLAYER
  8
0
 10
3.11723978814591
 11
3.12933139119933
 20
-104.8710178805
 21
-104.701483529355
 62
7
  0
LINE
  6
BYLAYER
  8
0
 10
3.12933139119933
 11
3.13890391028329
 20
-104.701483529355
 21
-104.675788872867
 62
7
  0
LINE
  6
BYLAYER
  8
0
 10
3.13890391028329
 11
3.15401841410011
 20
-104.675788872867
 21
-104.630445361416
 62
7
  0
LINE
  6
BYLAYER
  8
0
 10
3.15401841410011
 11
3.31146116219169
 20
-104.630445361416
 21
-104.176758338516
 62
7
  0
LINE
  6
BYLAYER
  8
0
 10
3.31146116219169
 11
3.3275832995963
 20
-104.176758338516
 21
-104.131666735462
 62
7
  0
LINE
  6
BYLAYER
  8
0
 10
3.3275832995963
 11
3.33438482631385
 20
-104.131666735462
 21
-104.110002613325
 62
7
  0
LINE
  6
BYLAYER
  8
0
 10
3.33438482631385
 11
3.44119398661917
 20
-104.110002613325
 21
-103.765391926302
 62
7
  0
LINE
  6
BYLAYER
  8
0
 10
3.44119398661917
 11
3.45857566600851
 20
-103.765391926302
 21
-103.750277422485
 62
7
  0
LINE
  6
BYLAYER
  8
0
 10
3.45857566600851
 11
3.47268253623751
 20
-103.750277422485
 21
-103.737933911035
 62
7
  0
LINE
  6
BYLAYER
  8
0
 10
3.47268253623751
 11
3.77320925379473
 20
-103.737933911035
 21
-103.68881177363
 62
7
  0
LINE
  6
BYLAYER
  8
0
 10
3.77320925379473
 11
3.79109474997797
 20
-103.68881177363
 21
-103.686292689661
 62
7
  0
LINE
  6
BYLAYER
  8
0
 10
3.79109474997797
 11
3.83870543700085
 20
-103.686292689661
 21
-103.67646826218
 62
7
  0
LINE
  6
BYLAYER
  8
0
 10
3.83870543700085
 11
4.31959856677183
 20
-103.67646826218
 21
-103.583765972104
 62
7
  0
LINE
  6
BYLAYER
  8
0
 10
4.31959856677183
 11
4.36897261257337
 20
-103.583765972104
 21
-103.575452995004
 62
7
  0
LINE
  6
BYLAYER
  8
0
 10
4.36897261257337
 11
4.37980467364207
 20
-103.575452995004
 21
-103.572682002638
 62
7
  0
LINE
  6
BYLAYER
  8
0
 10
4.37980467364207
 11
4.58762910112301
 20
-103.572682002638
 21
-103.53867436905
 62
7
  0
LINE
  6
BYLAYER
  8
0
 10
4.58762910112301
 11
4.59720162020697
 20
-103.53867436905
 21
-103.549506430119
 62
7
  0
LINE
  6
BYLAYER
  8
0
 10
4.59720162020697
 11
4.62440772707718
 20
-103.549506430119
 21
-103.580994979737
 62
7
  0
LINE
  6
BYLAYER
  8
0
 10
4.62440772707718
 11
4.90755276524513
 20
-103.580994979737
 21
-103.90746826218
 62
7
  0
LINE
  6
BYLAYER
  8
0
 10
4.90755276524513
 11
4.93627032249707
 20
-103.90746826218
 21
-103.940216353783
 62
7
  0
LINE
  6
BYLAYER
  8
0
 10
4.93627032249707
 11
5.28314818509249
 20
-103.940216353783
 21
-104.339491162943
 62
7
  0
LINE
  6
BYLAYER
  8
0
 10
5.28314818509249
 11
5.30103368127568
 20
-104.339491162943
 21
-104.359895743096
 62
7
  0
LINE
  6
BYLAYER
  8
0
 10
5.30103368127568
 11
5.28894207822226
 20
-104.359895743096
 21
-104.529430094241
 62
7
  0
LINE
  6
BYLAYER
  8
0
 10
5.28894207822226
 11
5.28037719272604
 20
-104.529430094241
 21
-104.556636201111
 62
7
  0
LINE
  6
BYLAYER
  8
0
 10
5.28037719272604
 11
5.25317108585581
 20
-104.556636201111
 21
-104.63346826218
 62
7
  0
LINE
  6
BYLAYER
  8
0
 10
5.25317108585581
 11
4.98539245990165
 20
-104.63346826218
 21
-105.404056048439
 62
7
  0
LINE
  6
BYLAYER
  8
0
 10
4.98539245990165
 11
4.95969780341306
 20
-105.404056048439
 21
-105.481895743096
 62
7
  0
LINE
  6
BYLAYER
  8
0
 10
5.6524458950161
 11
5.6524458950161
 20
-104.616842307981
 21
-104.754888109508
 62
7
  0
LINE
  6
BYLAYER
  8
0
 10
5.6524458950161
 11
5.53757566600848
 20
-104.754888109508
 21
-105.173307956836
 62
7
  0
LINE
  6
BYLAYER
  8
0
 10
5.53757566600848
 11
5.22596497898562
 20
-105.173307956836
 21
-105.632285056073
 62
7
  0
LINE
  6
BYLAYER
  8
0
 10
5.22596497898562
 11
4.76673597135202
 20
-105.632285056073
 21
-105.943895743096
 62
7
  0
LINE
  6
BYLAYER
  8
0
 10
4.76673597135202
 11
4.34831612402378
 20
-105.943895743096
 21
-106.060025514088
 62
7
  0
LINE
  6
BYLAYER
  8
0
 10
4.34831612402378
 11
4.20926268890926
 20
-106.060025514088
 21
-106.060025514088
 62
7
  0
LINE
  6
BYLAYER
  8
0
 10
4.20926268890926
 11
4.06995734539782
 20
-106.060025514088
 21
-106.060025514088
 62
7
  0
LINE
  6
BYLAYER
  8
0
 10
4.06995734539782
 11
3.65153749806957
 20
-106.060025514088
 21
-105.943895743096
 62
7
  0
LINE
  6
BYLAYER
  8
0
 10
3.65153749806957
 11
3.19230849043599
 20
-105.943895743096
 21
-105.632285056073
 62
7
  0
LINE
  6
BYLAYER
  8
0
 10
3.19230849043599
 11
2.88069780341309
 20
-105.632285056073
 21
-105.173307956836
 62
7
  0
LINE
  6
BYLAYER
  8
0
 10
2.88069780341309
 11
2.76582757440546
 20
-105.173307956836
 21
-104.754888109508
 62
7
  0
LINE
  6
BYLAYER
  8
0
 10
2.76582757440546
 11
2.76582757440546
 20
-104.754888109508
 21
-104.616842307981
 62
7
  0
LINE
  6
BYLAYER
  8
0
 10
2.76582757440546
 11
2.76582757440546
 20
-104.616842307981
 21
-104.477285056073
 62
7
  0
LINE
  6
BYLAYER
  8
0
 10
2.76582757440546
 11
2.88069780341309
 20
-104.477285056073
 21
-104.059117117142
 62
7
  0
LINE
  6
BYLAYER
  8
0
 10
2.88069780341309
 11
3.19230849043599
 20
-104.059117117142
 21
-103.600140017905
 62
7
  0
LINE
  6
BYLAYER
  8
0
 10
3.19230849043599
 11
3.65153749806957
 20
-103.600140017905
 21
-103.288529330882
 62
7
  0
LINE
  6
BYLAYER
  8
0
 10
3.65153749806957
 11
4.06995734539782
 20
-103.288529330882
 21
-103.173659101875
 62
7
  0
LINE
  6
BYLAYER
  8
0
 10
4.06995734539782
 11
4.20926268890926
 20
-103.173659101875
 21
-103.173659101875
 62
7
  0
LINE
  6
BYLAYER
  8
0
 10
4.20926268890926
 11
4.34831612402378
 20
-103.173659101875
 21
-103.173659101875
 62
7
  0
LINE
  6
BYLAYER
  8
0
 10
4.34831612402378
 11
4.76673597135202
 20
-103.173659101875
 21
-103.288529330882
 62
7
  0
LINE
  6
BYLAYER
  8
0
 10
4.76673597135202
 11
5.22596497898562
 20
-103.288529330882
 21
-103.600140017905
 62
7
  0
LINE
  6
BYLAYER
  8
0
 10
5.22596497898562
 11
5.53757566600848
 20
-103.600140017905
 21
-104.059117117142
 62
7
  0
LINE
  6
BYLAYER
  8
0
 10
5.53757566600848
 11
5.6524458950161
 20
-104.059117117142
 21
-104.477285056073
 62
7
  0
LINE
  6
BYLAYER
  8
0
 10
5.6524458950161
 11
5.6524458950161
 20
-104.477285056073
 21
-104.616842307981
 62
7
  0
LINE
  6
BYLAYER
  8
0
 10
5.6524458950161
 11
5.6524458950161
 20
-104.616842307981
 21
-104.754888109508
 62
7
  0
LINE
  6
BYLAYER
  8
0
 10
5.6524458950161
 11
5.53757566600848
 20
-104.754888109508
 21
-105.173307956836
 62
7
  0
LINE
  6
BYLAYER
  8
0
 10
5.53757566600848
 11
5.22596497898562
 20
-105.173307956836
 21
-105.632285056073
 62
7
  0
LINE
  6
BYLAYER
  8
0
 10
5.22596497898562
 11
4.76673597135202
 20
-105.632285056073
 21
-105.943895743096
 62
7
  0
LINE
  6
BYLAYER
  8
0
 10
4.76673597135202
 11
4.34831612402378
 20
-105.943895743096
 21
-106.060025514088
 62
7
  0
LINE
  6
BYLAYER
  8
0
 10
4.34831612402378
 11
4.20926268890926
 20
-106.060025514088
 21
-106.060025514088
 62
7
  0
LINE
  6
BYLAYER
  8
0
 10
4.20926268890926
 11
4.06995734539782
 20
-106.060025514088
 21
-106.060025514088
 62
7
  0
LINE
  6
BYLAYER
  8
0
 10
4.06995734539782
 11
3.65153749806957
 20
-106.060025514088
 21
-105.943895743096
 62
7
  0
LINE
  6
BYLAYER
  8
0
 10
3.65153749806957
 11
3.19230849043599
 20
-105.943895743096
 21
-105.632285056073
 62
7
  0
LINE
  6
BYLAYER
  8
0
 10
3.19230849043599
 11
2.88069780341309
 20
-105.632285056073
 21
-105.173307956836
 62
7
  0
LINE
  6
BYLAYER
  8
0
 10
2.88069780341309
 11
2.76582757440546
 20
-105.173307956836
 21
-104.754888109508
 62
7
  0
LINE
  6
BYLAYER
  8
0
 10
2.76582757440546
 11
2.76582757440546
 20
-104.754888109508
 21
-104.616842307981
 62
7
  0
LINE
  6
BYLAYER
  8
0
 10
2.76582757440546
 11
2.76582757440546
 20
-104.616842307981
 21
-104.477285056073
 62
7
  0
LINE
  6
BYLAYER
  8
0
 10
2.76582757440546
 11
2.88069780341309
 20
-104.477285056073
 21
-104.059117117142
 62
7
  0
LINE
  6
BYLAYER
  8
0
 10
2.88069780341309
 11
3.19230849043599
 20
-104.059117117142
 21
-103.600140017905
 62
7
  0
LINE
  6
BYLAYER
  8
0
 10
3.19230849043599
 11
3.65153749806957
 20
-103.600140017905
 21
-103.288529330882
 62
7
  0
LINE
  6
BYLAYER
  8
0
 10
3.65153749806957
 11
4.06995734539782
 20
-103.288529330882
 21
-103.173659101875
 62
7
  0
LINE
  6
BYLAYER
  8
0
 10
4.06995734539782
 11
4.20926268890926
 20
-103.173659101875
 21
-103.173659101875
 62
7
  0
LINE
  6
BYLAYER
  8
0
 10
4.20926268890926
 11
4.34831612402378
 20
-103.173659101875
 21
-103.173659101875
 62
7
  0
LINE
  6
BYLAYER
  8
0
 10
4.34831612402378
 11
4.76673597135202
 20
-103.173659101875
 21
-103.288529330882
 62
7
  0
LINE
  6
BYLAYER
  8
0
 10
4.76673597135202
 11
5.22596497898562
 20
-103.288529330882
 21
-103.600140017905
 62
7
  0
LINE
  6
BYLAYER
  8
0
 10
5.22596497898562
 11
5.53757566600848
 20
-103.600140017905
 21
-104.059117117142
 62
7
  0
LINE
  6
BYLAYER
  8
0
 10
5.53757566600848
 11
5.6524458950161
 20
-104.059117117142
 21
-104.477285056073
 62
7
  0
LINE
  6
BYLAYER
  8
0
 10
5.6524458950161
 11
5.6524458950161
 20
-104.477285056073
 21
-104.616842307981
 62
7
  0
LINE
  6
BYLAYER
  8
0
 10
-25.3305235706327
 11
-25.3305235706327
 20
-10.2086285675234
 21
108.442997386675
 62
7
  0
LINE
  6
BYLAYER
  8
0
 10
8.3775909331841
 11
6.39305658203902
 20
15.3006233408736
 21
15.3006233408736
 62
7
  0
LINE
  6
BYLAYER
  8
0
 10
6.39305658203902
 11
6.39305658203902
 20
15.3006233408736
 21
13.3160889897285
 62
7
  0
LINE
  6
BYLAYER
  8
0
 10
6.39305658203902
 11
8.3775909331841
 20
13.3160889897285
 21
13.3160889897285
 62
7
  0
LINE
  6
BYLAYER
  8
0
 10
8.3775909331841
 11
8.3775909331841
 20
15.3006233408736
 21
13.3160889897285
 62
7
  0
LINE
  6
BYLAYER
  8
0
 10
14.7231634522681
 11
12.7401405515047
 20
15.3006233408736
 21
15.3006233408736
 62
7
  0
LINE
  6
BYLAYER
  8
0
 10
12.7401405515047
 11
12.7401405515047
 20
15.3006233408736
 21
13.3160889897285
 62
7
  0
LINE
  6
BYLAYER
  8
0
 10
12.7401405515047
 11
14.7231634522681
 20
13.3160889897285
 21
13.3160889897285
 62
7
  0
LINE
  6
BYLAYER
  8
0
 10
14.7231634522681
 11
14.7231634522681
 20
15.3006233408736
 21
13.3160889897285
 62
7
  0
LINE
  6
BYLAYER
  8
0
 10
33.750308490436
 11
-25.3305235706327
 20
-10.2086285675234
 21
-10.2086285675234
 62
7
  0
LINE
  6
BYLAYER
  8
0
 10
-24.8194014332281
 11
-25.3305235706327
 20
-9.71262093393563
 21
-10.2086285675234
 62
7
  0
LINE
  6
BYLAYER
  8
0
 10
33.750308490436
 11
33.750308490436
 20
-10.2086285675234
 21
108.442997386675
 62
7
  0
LINE
  6
BYLAYER
  8
0
 10
33.2391863530314
 11
33.750308490436
 20
-9.71262093393563
 21
-10.2086285675234
 62
7
  0
LINE
  6
BYLAYER
  8
0
 10
33.750308490436
 11
-25.3305235706327
 20
108.442997386675
 21
108.442997386675
 62
7
  0
LINE
  6
BYLAYER
  8
0
 10
33.2391863530314
 11
33.750308490436
 20
107.929104256904
 21
108.442997386675
 62
7
  0
LINE
  6
BYLAYER
  8
0
 10
-24.8194014332281
 11
-25.3305235706327
 20
107.929104256904
 21
108.442997386675
 62
7
  0
LINE
  6
BYLAYER
  8
0
 10
19.0867207041764
 11
19.0867207041764
 20
15.3006233408736
 21
13.3160889897285
 62
7
  0
LINE
  6
BYLAYER
  8
0
 10
21.0697436049398
 11
19.0867207041764
 20
15.3006233408736
 21
15.3006233408736
 62
7
  0
LINE
  6
BYLAYER
  8
0
 10
21.0697436049398
 11
21.0697436049398
 20
15.3006233408736
 21
13.3160889897285
 62
7
  0
LINE
  6
BYLAYER
  8
0
 10
19.0867207041764
 11
21.0697436049398
 20
13.3160889897285
 21
13.3160889897285
 62
7
  0
LINE
  6
BYLAYER
  8
0
 10
0.0434535286039335
 11
0.0434535286039335
 20
15.3006233408736
 21
13.3160889897285
 62
7
  0
LINE
  6
BYLAYER
  8
0
 10
2.02672833776423
 11
0.0434535286039335
 20
15.3006233408736
 21
15.3006233408736
 62
7
  0
LINE
  6
BYLAYER
  8
0
 10
2.02672833776423
 11
2.02672833776423
 20
15.3006233408736
 21
13.3160889897285
 62
7
  0
LINE
  6
BYLAYER
  8
0
 10
0.0434535286039335
 11
2.02672833776423
 20
13.3160889897285
 21
13.3160889897285
 62
7
  0
LINE
  6
BYLAYER
  8
0
 10
-6.30337853246481
 11
-6.30337853246481
 20
15.3006233408736
 21
13.3160889897285
 62
7
  0
LINE
  6
BYLAYER
  8
0
 10
-4.32035563170142
 11
-6.30337853246481
 20
15.3006233408736
 21
15.3006233408736
 62
7
  0
LINE
  6
BYLAYER
  8
0
 10
-4.32035563170142
 11
-4.32035563170142
 20
15.3006233408736
 21
13.3160889897285
 62
7
  0
LINE
  6
BYLAYER
  8
0
 10
-6.30337853246481
 11
-4.32035563170142
 20
13.3160889897285
 21
13.3160889897285
 62
7
  0
LINE
  6
BYLAYER
  8
0
 10
-12.6504625019304
 11
-12.6504625019304
 20
15.3006233408736
 21
13.3160889897285
 62
7
  0
LINE
  6
BYLAYER
  8
0
 10
-10.6674396011671
 11
-12.6504625019304
 20
15.3006233408736
 21
15.3006233408736
 62
7
  0
LINE
  6
BYLAYER
  8
0
 10
-10.6674396011671
 11
-10.6674396011671
 20
15.3006233408736
 21
13.3160889897285
 62
7
  0
LINE
  6
BYLAYER
  8
0
 10
-12.6504625019304
 11
-10.6674396011671
 20
13.3160889897285
 21
13.3160889897285
 62
7
  0
LINE
  6
BYLAYER
  8
0
 10
-12.6504625019304
 11
-12.6504625019304
 20
21.6504783027057
 21
19.6659439515606
 62
7
  0
LINE
  6
BYLAYER
  8
0
 10
-10.6674396011671
 11
-12.6504625019304
 20
21.6504783027057
 21
21.6504783027057
 62
7
  0
LINE
  6
BYLAYER
  8
0
 10
-10.6674396011671
 11
-10.6674396011671
 20
21.6504783027057
 21
19.6659439515606
 62
7
  0
LINE
  6
BYLAYER
  8
0
 10
-12.6504625019304
 11
-10.6674396011671
 20
19.6659439515606
 21
19.6659439515606
 62
7
  0
LINE
  6
BYLAYER
  8
0
 10
-6.30337853246481
 11
-6.30337853246481
 20
21.6504783027057
 21
19.6659439515606
 62
7
  0
LINE
  6
BYLAYER
  8
0
 10
-4.32035563170142
 11
-6.30337853246481
 20
21.6504783027057
 21
21.6504783027057
 62
7
  0
LINE
  6
BYLAYER
  8
0
 10
-4.32035563170142
 11
-4.32035563170142
 20
21.6504783027057
 21
19.6659439515606
 62
7
  0
LINE
  6
BYLAYER
  8
0
 10
-6.30337853246481
 11
-4.32035563170142
 20
19.6659439515606
 21
19.6659439515606
 62
7
  0
LINE
  6
BYLAYER
  8
0
 10
0.0434535286039335
 11
0.0434535286039335
 20
21.6504783027057
 21
19.6659439515606
 62
7
  0
LINE
  6
BYLAYER
  8
0
 10
2.02672833776423
 11
0.0434535286039335
 20
21.6504783027057
 21
21.6504783027057
 62
7
  0
LINE
  6
BYLAYER
  8
0
 10
2.02672833776423
 11
2.02672833776423
 20
21.6504783027057
 21
19.6659439515606
 62
7
  0
LINE
  6
BYLAYER
  8
0
 10
0.0434535286039335
 11
2.02672833776423
 20
19.6659439515606
 21
19.6659439515606
 62
7
  0
LINE
  6
BYLAYER
  8
0
 10
6.39305658203902
 11
6.39305658203902
 20
21.6504783027057
 21
19.6659439515606
 62
7
  0
LINE
  6
BYLAYER
  8
0
 10
8.3775909331841
 11
6.39305658203902
 20
21.6504783027057
 21
21.6504783027057
 62
7
  0
LINE
  6
BYLAYER
  8
0
 10
8.3775909331841
 11
8.3775909331841
 20
21.6504783027057
 21
19.6659439515606
 62
7
  0
LINE
  6
BYLAYER
  8
0
 10
6.39305658203902
 11
8.3775909331841
 20
19.6659439515606
 21
19.6659439515606
 62
7
  0
LINE
  6
BYLAYER
  8
0
 10
12.7401405515047
 11
12.7401405515047
 20
21.6504783027057
 21
19.6659439515606
 62
7
  0
LINE
  6
BYLAYER
  8
0
 10
14.7231634522681
 11
12.7401405515047
 20
21.6504783027057
 21
21.6504783027057
 62
7
  0
LINE
  6
BYLAYER
  8
0
 10
14.7231634522681
 11
14.7231634522681
 20
21.6504783027057
 21
19.6659439515606
 62
7
  0
LINE
  6
BYLAYER
  8
0
 10
12.7401405515047
 11
14.7231634522681
 20
19.6659439515606
 21
19.6659439515606
 62
7
  0
LINE
  6
BYLAYER
  8
0
 10
19.0867207041764
 11
19.0867207041764
 20
21.6504783027057
 21
19.6659439515606
 62
7
  0
LINE
  6
BYLAYER
  8
0
 10
21.0697436049398
 11
19.0867207041764
 20
21.6504783027057
 21
21.6504783027057
 62
7
  0
LINE
  6
BYLAYER
  8
0
 10
21.0697436049398
 11
21.0697436049398
 20
21.6504783027057
 21
19.6659439515606
 62
7
  0
LINE
  6
BYLAYER
  8
0
 10
19.0867207041764
 11
21.0697436049398
 20
19.6659439515606
 21
19.6659439515606
 62
7
  0
LINE
  6
BYLAYER
  8
0
 10
19.0867207041764
 11
19.0867207041764
 20
27.9970584553774
 21
26.0130279210263
 62
7
  0
LINE
  6
BYLAYER
  8
0
 10
21.0697436049398
 11
19.0867207041764
 20
27.9970584553774
 21
27.9970584553774
 62
7
  0
LINE
  6
BYLAYER
  8
0
 10
21.0697436049398
 11
21.0697436049398
 20
27.9970584553774
 21
26.0130279210263
 62
7
  0
LINE
  6
BYLAYER
  8
0
 10
19.0867207041764
 11
21.0697436049398
 20
26.0130279210263
 21
26.0130279210263
 62
7
  0
LINE
  6
BYLAYER
  8
0
 10
12.7401405515047
 11
12.7401405515047
 20
27.9970584553774
 21
26.0130279210263
 62
7
  0
LINE
  6
BYLAYER
  8
0
 10
14.7231634522681
 11
12.7401405515047
 20
27.9970584553774
 21
27.9970584553774
 62
7
  0
LINE
  6
BYLAYER
  8
0
 10
14.7231634522681
 11
14.7231634522681
 20
27.9970584553774
 21
26.0130279210263
 62
7
  0
LINE
  6
BYLAYER
  8
0
 10
12.7401405515047
 11
14.7231634522681
 20
26.0130279210263
 21
26.0130279210263
 62
7
  0
LINE
  6
BYLAYER
  8
0
 10
6.39305658203902
 11
6.39305658203902
 20
27.9970584553774
 21
26.0130279210263
 62
7
  0
LINE
  6
BYLAYER
  8
0
 10
8.3775909331841
 11
6.39305658203902
 20
27.9970584553774
 21
27.9970584553774
 62
7
  0
LINE
  6
BYLAYER
  8
0
 10
8.3775909331841
 11
8.3775909331841
 20
27.9970584553774
 21
26.0130279210263
 62
7
  0
LINE
  6
BYLAYER
  8
0
 10
6.39305658203902
 11
8.3775909331841
 20
26.0130279210263
 21
26.0130279210263
 62
7
  0
LINE
  6
BYLAYER
  8
0
 10
0.0434535286039335
 11
0.0434535286039335
 20
27.9970584553774
 21
26.0130279210263
 62
7
  0
LINE
  6
BYLAYER
  8
0
 10
2.02672833776423
 11
0.0434535286039335
 20
27.9970584553774
 21
27.9970584553774
 62
7
  0
LINE
  6
BYLAYER
  8
0
 10
2.02672833776423
 11
2.02672833776423
 20
27.9970584553774
 21
26.0130279210263
 62
7
  0
LINE
  6
BYLAYER
  8
0
 10
0.0434535286039335
 11
2.02672833776423
 20
26.0130279210263
 21
26.0130279210263
 62
7
  0
LINE
  6
BYLAYER
  8
0
 10
-6.30337853246481
 11
-6.30337853246481
 20
27.9970584553774
 21
26.0130279210263
 62
7
  0
LINE
  6
BYLAYER
  8
0
 10
-4.32035563170142
 11
-6.30337853246481
 20
27.9970584553774
 21
27.9970584553774
 62
7
  0
LINE
  6
BYLAYER
  8
0
 10
-4.32035563170142
 11
-4.32035563170142
 20
27.9970584553774
 21
26.0130279210263
 62
7
  0
LINE
  6
BYLAYER
  8
0
 10
-6.30337853246481
 11
-4.32035563170142
 20
26.0130279210263
 21
26.0130279210263
 62
7
  0
LINE
  6
BYLAYER
  8
0
 10
-12.6504625019304
 11
-12.6504625019304
 20
27.9970584553774
 21
26.0130279210263
 62
7
  0
LINE
  6
BYLAYER
  8
0
 10
-10.6674396011671
 11
-12.6504625019304
 20
27.9970584553774
 21
27.9970584553774
 62
7
  0
LINE
  6
BYLAYER
  8
0
 10
-10.6674396011671
 11
-10.6674396011671
 20
27.9970584553774
 21
26.0130279210263
 62
7
  0
LINE
  6
BYLAYER
  8
0
 10
-12.6504625019304
 11
-10.6674396011671
 20
26.0130279210263
 21
26.0130279210263
 62
7
  0
LINE
  6
BYLAYER
  8
0
 10
-12.6504625019304
 11
-12.6504625019304
 20
34.3441424248431
 21
32.359608073698
 62
7
  0
LINE
  6
BYLAYER
  8
0
 10
-10.6674396011671
 11
-12.6504625019304
 20
34.3441424248431
 21
34.3441424248431
 62
7
  0
LINE
  6
BYLAYER
  8
0
 10
-10.6674396011671
 11
-10.6674396011671
 20
34.3441424248431
 21
32.359608073698
 62
7
  0
LINE
  6
BYLAYER
  8
0
 10
-12.6504625019304
 11
-10.6674396011671
 20
32.359608073698
 21
32.359608073698
 62
7
  0
LINE
  6
BYLAYER
  8
0
 10
-6.30337853246481
 11
-6.30337853246481
 20
34.3441424248431
 21
32.359608073698
 62
7
  0
LINE
  6
BYLAYER
  8
0
 10
-4.32035563170142
 11
-6.30337853246481
 20
34.3441424248431
 21
34.3441424248431
 62
7
  0
LINE
  6
BYLAYER
  8
0
 10
-4.32035563170142
 11
-4.32035563170142
 20
34.3441424248431
 21
32.359608073698
 62
7
  0
LINE
  6
BYLAYER
  8
0
 10
-6.30337853246481
 11
-4.32035563170142
 20
32.359608073698
 21
32.359608073698
 62
7
  0
LINE
  6
BYLAYER
  8
0
 10
2.02672833776423
 11
0.0434535286039335
 20
34.3441424248431
 21
34.3441424248431
 62
7
  0
LINE
  6
BYLAYER
  8
0
 10
2.02672833776423
 11
2.02672833776423
 20
34.3441424248431
 21
32.359608073698
 62
7
  0
LINE
  6
BYLAYER
  8
0
 10
0.0434535286039335
 11
2.02672833776423
 20
32.359608073698
 21
32.359608073698
 62
7
  0
LINE
  6
BYLAYER
  8
0
 10
0.0434535286039335
 11
0.0434535286039335
 20
34.3441424248431
 21
32.359608073698
 62
7
  0
LINE
  6
BYLAYER
  8
0
 10
6.39305658203902
 11
6.39305658203902
 20
34.3441424248431
 21
32.359608073698
 62
7
  0
LINE
  6
BYLAYER
  8
0
 10
8.3775909331841
 11
6.39305658203902
 20
34.3441424248431
 21
34.3441424248431
 62
7
  0
LINE
  6
BYLAYER
  8
0
 10
8.3775909331841
 11
8.3775909331841
 20
34.3441424248431
 21
32.359608073698
 62
7
  0
LINE
  6
BYLAYER
  8
0
 10
6.39305658203902
 11
8.3775909331841
 20
32.359608073698
 21
32.359608073698
 62
7
  0
LINE
  6
BYLAYER
  8
0
 10
12.7401405515047
 11
12.7401405515047
 20
34.3441424248431
 21
32.359608073698
 62
7
  0
LINE
  6
BYLAYER
  8
0
 10
14.7231634522681
 11
12.7401405515047
 20
34.3441424248431
 21
34.3441424248431
 62
7
  0
LINE
  6
BYLAYER
  8
0
 10
14.7231634522681
 11
14.7231634522681
 20
34.3441424248431
 21
32.359608073698
 62
7
  0
LINE
  6
BYLAYER
  8
0
 10
12.7401405515047
 11
14.7231634522681
 20
32.359608073698
 21
32.359608073698
 62
7
  0
LINE
  6
BYLAYER
  8
0
 10
19.0867207041764
 11
19.0867207041764
 20
34.3441424248431
 21
32.359608073698
 62
7
  0
LINE
  6
BYLAYER
  8
0
 10
21.0697436049398
 11
19.0867207041764
 20
34.3441424248431
 21
34.3441424248431
 62
7
  0
LINE
  6
BYLAYER
  8
0
 10
21.0697436049398
 11
21.0697436049398
 20
34.3441424248431
 21
32.359608073698
 62
7
  0
LINE
  6
BYLAYER
  8
0
 10
19.0867207041764
 11
21.0697436049398
 20
32.359608073698
 21
32.359608073698
 62
7
  0
LINE
  6
BYLAYER
  8
0
 10
19.0867207041764
 11
19.0867207041764
 20
40.6922340278965
 21
38.7066920431637
 62
7
  0
LINE
  6
BYLAYER
  8
0
 10
21.0697436049398
 11
19.0867207041764
 20
40.6922340278965
 21
40.6922340278965
 62
7
  0
LINE
  6
BYLAYER
  8
0
 10
21.0697436049398
 11
21.0697436049398
 20
40.6922340278965
 21
38.7066920431637
 62
7
  0
LINE
  6
BYLAYER
  8
0
 10
19.0867207041764
 11
21.0697436049398
 20
38.7066920431637
 21
38.7066920431637
 62
7
  0
LINE
  6
BYLAYER
  8
0
 10
12.7401405515047
 11
12.7401405515047
 20
40.6922340278965
 21
38.7066920431637
 62
7
  0
LINE
  6
BYLAYER
  8
0
 10
14.7231634522681
 11
12.7401405515047
 20
40.6922340278965
 21
40.6922340278965
 62
7
  0
LINE
  6
BYLAYER
  8
0
 10
14.7231634522681
 11
14.7231634522681
 20
40.6922340278965
 21
38.7066920431637
 62
7
  0
LINE
  6
BYLAYER
  8
0
 10
12.7401405515047
 11
14.7231634522681
 20
38.7066920431637
 21
38.7066920431637
 62
7
  0
LINE
  6
BYLAYER
  8
0
 10
6.39305658203902
 11
6.39305658203902
 20
40.6922340278965
 21
38.7066920431637
 62
7
  0
LINE
  6
BYLAYER
  8
0
 10
8.3775909331841
 11
6.39305658203902
 20
40.6922340278965
 21
40.6922340278965
 62
7
  0
LINE
  6
BYLAYER
  8
0
 10
8.3775909331841
 11
8.3775909331841
 20
40.6922340278965
 21
38.7066920431637
 62
7
  0
LINE
  6
BYLAYER
  8
0
 10
6.39305658203902
 11
8.3775909331841
 20
38.7066920431637
 21
38.7066920431637
 62
7
  0
LINE
  6
BYLAYER
  8
0
 10
0.0434535286039335
 11
0.0434535286039335
 20
40.6922340278965
 21
38.7066920431637
 62
7
  0
LINE
  6
BYLAYER
  8
0
 10
2.02672833776423
 11
0.0434535286039335
 20
40.6922340278965
 21
40.6922340278965
 62
7
  0
LINE
  6
BYLAYER
  8
0
 10
2.02672833776423
 11
2.02672833776423
 20
40.6922340278965
 21
38.7066920431637
 62
7
  0
LINE
  6
BYLAYER
  8
0
 10
0.0434535286039335
 11
2.02672833776423
 20
38.7066920431637
 21
38.7066920431637
 62
7
  0
LINE
  6
BYLAYER
  8
0
 10
-6.30337853246481
 11
-6.30337853246481
 20
40.6922340278965
 21
38.7066920431637
 62
7
  0
LINE
  6
BYLAYER
  8
0
 10
-4.32035563170142
 11
-6.30337853246481
 20
40.6922340278965
 21
40.6922340278965
 62
7
  0
LINE
  6
BYLAYER
  8
0
 10
-4.32035563170142
 11
-4.32035563170142
 20
40.6922340278965
 21
38.7066920431637
 62
7
  0
LINE
  6
BYLAYER
  8
0
 10
-6.30337853246481
 11
-4.32035563170142
 20
38.7066920431637
 21
38.7066920431637
 62
7
  0
LINE
  6
BYLAYER
  8
0
 10
-12.6504625019304
 11
-12.6504625019304
 20
40.6922340278965
 21
38.7066920431637
 62
7
  0
LINE
  6
BYLAYER
  8
0
 10
-10.6674396011671
 11
-12.6504625019304
 20
40.6922340278965
 21
40.6922340278965
 62
7
  0
LINE
  6
BYLAYER
  8
0
 10
-10.6674396011671
 11
-10.6674396011671
 20
40.6922340278965
 21
38.7066920431637
 62
7
  0
LINE
  6
BYLAYER
  8
0
 10
-12.6504625019304
 11
-10.6674396011671
 20
38.7066920431637
 21
38.7066920431637
 62
7
  0
LINE
  6
BYLAYER
  8
0
 10
-12.6504625019304
 11
-12.6504625019304
 20
47.035287463011
 21
45.0527683790415
 62
7
  0
LINE
  6
BYLAYER
  8
0
 10
-10.6674396011671
 11
-12.6504625019304
 20
47.035287463011
 21
47.035287463011
 62
7
  0
LINE
  6
BYLAYER
  8
0
 10
-10.6674396011671
 11
-10.6674396011671
 20
47.035287463011
 21
45.0527683790415
 62
7
  0
LINE
  6
BYLAYER
  8
0
 10
-12.6504625019304
 11
-10.6674396011671
 20
45.0527683790415
 21
45.0527683790415
 62
7
  0
LINE
  6
BYLAYER
  8
0
 10
-6.30337853246481
 11
-6.30337853246481
 20
47.035287463011
 21
45.0527683790415
 62
7
  0
LINE
  6
BYLAYER
  8
0
 10
-4.32035563170142
 11
-6.30337853246481
 20
47.035287463011
 21
47.035287463011
 62
7
  0
LINE
  6
BYLAYER
  8
0
 10
-4.32035563170142
 11
-4.32035563170142
 20
47.035287463011
 21
45.0527683790415
 62
7
  0
LINE
  6
BYLAYER
  8
0
 10
-6.30337853246481
 11
-4.32035563170142
 20
45.0527683790415
 21
45.0527683790415
 62
7
  0
LINE
  6
BYLAYER
  8
0
 10
0.0434535286039335
 11
0.0434535286039335
 20
47.035287463011
 21
45.0527683790415
 62
7
  0
LINE
  6
BYLAYER
  8
0
 10
2.02672833776423
 11
0.0434535286039335
 20
47.035287463011
 21
47.035287463011
 62
7
  0
LINE
  6
BYLAYER
  8
0
 10
2.02672833776423
 11
2.02672833776423
 20
47.035287463011
 21
45.0527683790415
 62
7
  0
LINE
  6
BYLAYER
  8
0
 10
0.0434535286039335
 11
2.02672833776423
 20
45.0527683790415
 21
45.0527683790415
 62
7
  0
LINE
  6
BYLAYER
  8
0
 10
6.39305658203902
 11
6.39305658203902
 20
47.035287463011
 21
45.0527683790415
 62
7
  0
LINE
  6
BYLAYER
  8
0
 10
8.3775909331841
 11
6.39305658203902
 20
47.035287463011
 21
47.035287463011
 62
7
  0
LINE
  6
BYLAYER
  8
0
 10
8.3775909331841
 11
8.3775909331841
 20
47.035287463011
 21
45.0527683790415
 62
7
  0
LINE
  6
BYLAYER
  8
0
 10
6.39305658203902
 11
8.3775909331841
 20
45.0527683790415
 21
45.0527683790415
 62
7
  0
LINE
  6
BYLAYER
  8
0
 10
12.7401405515047
 11
12.7401405515047
 20
47.035287463011
 21
45.0527683790415
 62
7
  0
LINE
  6
BYLAYER
  8
0
 10
14.7231634522681
 11
12.7401405515047
 20
47.035287463011
 21
47.035287463011
 62
7
  0
LINE
  6
BYLAYER
  8
0
 10
14.7231634522681
 11
14.7231634522681
 20
47.035287463011
 21
45.0527683790415
 62
7
  0
LINE
  6
BYLAYER
  8
0
 10
12.7401405515047
 11
14.7231634522681
 20
45.0527683790415
 21
45.0527683790415
 62
7
  0
LINE
  6
BYLAYER
  8
0
 10
19.0867207041764
 11
19.0867207041764
 20
47.035287463011
 21
45.0527683790415
 62
7
  0
LINE
  6
BYLAYER
  8
0
 10
21.0697436049398
 11
19.0867207041764
 20
47.035287463011
 21
47.035287463011
 62
7
  0
LINE
  6
BYLAYER
  8
0
 10
21.0697436049398
 11
21.0697436049398
 20
47.035287463011
 21
45.0527683790415
 62
7
  0
LINE
  6
BYLAYER
  8
0
 10
19.0867207041764
 11
21.0697436049398
 20
45.0527683790415
 21
45.0527683790415
 62
7
  0
LINE
  6
BYLAYER
  8
0
 10
46.01194971181
 11
45.9996062003597
 20
-107.10267436905
 21
-106.938682002638
 62
7
  0
LINE
  6
BYLAYER
  8
0
 10
45.9996062003597
 11
45.8466978034131
 20
-106.938682002638
 21
-106.455269788897
 62
7
  0
LINE
  6
BYLAYER
  8
0
 10
45.8466978034131
 11
45.4776520018863
 20
-106.455269788897
 21
-105.912407193478
 62
7
  0
LINE
  6
BYLAYER
  8
0
 10
45.4776520018863
 11
44.9461252843291
 20
-105.912407193478
 21
-105.53681177363
 62
7
  0
LINE
  6
BYLAYER
  8
0
 10
44.9461252843291
 11
44.4581787194436
 20
-105.53681177363
 21
-105.387682002638
 62
7
  0
LINE
  6
BYLAYER
  8
0
 10
44.4581787194436
 11
44.2954458950161
 20
-105.387682002638
 21
-105.38339955989
 62
7
  0
LINE
  6
BYLAYER
  8
0
 10
44.2954458950161
 11
44.1314535286039
 20
-105.38339955989
 21
-105.378361391951
 62
7
  0
LINE
  6
BYLAYER
  8
0
 10
44.1314535286039
 11
43.6367054370009
 20
-105.378361391951
 21
-105.501040781264
 62
7
  0
LINE
  6
BYLAYER
  8
0
 10
43.6367054370009
 11
43.0792321545581
 20
-105.501040781264
 21
-105.855223987371
 62
7
  0
LINE
  6
BYLAYER
  8
0
 10
43.0792321545581
 11
42.6938123072298
 20
-105.855223987371
 21
-106.386498796531
 62
7
  0
LINE
  6
BYLAYER
  8
0
 10
42.6938123072298
 11
42.5474535286039
 20
-106.386498796531
 21
-106.874697269813
 62
7
  0
LINE
  6
BYLAYER
  8
0
 10
42.5474535286039
 11
42.5474535286039
 20
-106.874697269813
 21
-107.038689636226
 62
7
  0
LINE
  6
BYLAYER
  8
0
 10
42.5474535286039
 11
42.5461939866192
 20
-107.038689636226
 21
-107.191598033172
 62
7
  0
LINE
  6
BYLAYER
  8
0
 10
42.5461939866192
 11
42.6527512385276
 20
-107.191598033172
 21
-107.652338491188
 62
7
  0
LINE
  6
BYLAYER
  8
0
 10
42.6527512385276
 11
42.9547894064665
 20
-107.652338491188
 21
-108.19746826218
 62
7
  0
LINE
  6
BYLAYER
  8
0
 10
42.9547894064665
 11
43.4165374980695
 20
-108.19746826218
 21
-108.606063682027
 62
7
  0
LINE
  6
BYLAYER
  8
0
 10
43.4165374980695
 11
43.8515832995963
 20
-108.606063682027
 21
-108.797514063707
 62
7
  0
LINE
  6
BYLAYER
  8
0
 10
43.8515832995963
 11
44.0029802461611
 20
-108.797514063707
 21
-108.819178185844
 62
7
  0
LINE
  6
BYLAYER
  8
0
 10
44.0029802461611
 11
44.1848581087566
 20
-108.819178185844
 21
-108.845376659126
 62
7
  0
LINE
  6
BYLAYER
  8
0
 10
44.1848581087566
 11
44.7549268110467
 20
-108.845376659126
 21
-108.761994979737
 62
7
  0
LINE
  6
BYLAYER
  8
0
 10
44.7549268110467
 11
45.3821787194436
 20
-108.761994979737
 21
-108.405292689661
 62
7
  0
LINE
  6
BYLAYER
  8
0
 10
45.3821787194436
 11
45.8210031469245
 20
-108.405292689661
 21
-107.827414827065
 62
7
  0
LINE
  6
BYLAYER
  8
0
 10
45.8210031469245
 11
46.0011176507413
 20
-107.827414827065
 21
-107.286063682027
 62
7
  0
LINE
  6
BYLAYER
  8
0
 10
46.0011176507413
 11
46.01194971181
 20
-107.286063682027
 21
-107.10267436905
 62
7
  0
LINE
  6
BYLAYER
  8
0
 10
-26.4348899828465
 11
34.8559344446344
 20
109.64711952408
 21
109.64711952408
 62
7
  0
LINE
  6
BYLAYER
  8
0
 10
-26.4348899828465
 11
-26.4348899828465
 20
-90.7885827659967
 21
109.64711952408
 62
7
  0
LINE
  6
BYLAYER
  8
0
 10
34.8559344446344
 11
-26.4348899828465
 20
-90.7885827659967
 21
-90.7885827659967
 62
7
  0
LINE
  6
BYLAYER
  8
0
 10
34.8559344446344
 11
34.8559344446344
 20
109.64711952408
 21
-90.787071315615
 62
7
  0
LINE
  6
BYLAYER
  8
0
 10
43.3742168873825
 11
45.1798962766955
 20
-107.046750704928
 21
-107.046750704928
 62
7
  0
LINE
  6
BYLAYER
  8
0
 10
45.7744000934894
 11
45.7250260476879
 20
-107.074208720195
 21
-107.064636201111
 62
7
  0
LINE
  6
BYLAYER
  8
0
 10
45.7250260476879
 11
45.3149191774589
 20
-107.064636201111
 21
-107.046750704928
 62
7
  0
LINE
  6
BYLAYER
  8
0
 10
45.3149191774589
 11
45.1798962766955
 20
-107.046750704928
 21
-107.046750704928
 62
7
  0
LINE
  6
BYLAYER
  8
0
 10
45.7744000934894
 11
45.8031176507413
 20
-107.074208720195
 21
-107.101414827065
 62
7
  0
LINE
  6
BYLAYER
  8
0
 10
42.7756825362375
 11
42.7482245209703
 20
-107.074208720195
 21
-107.101414827065
 62
7
  0
LINE
  6
BYLAYER
  8
0
 10
43.3742168873825
 11
43.3253466583749
 20
-107.046750704928
 21
-107.046750704928
 62
7
  0
LINE
  6
BYLAYER
  8
0
 10
43.3253466583749
 11
42.8235451316574
 20
-107.046750704928
 21
-107.064636201111
 62
7
  0
LINE
  6
BYLAYER
  8
0
 10
42.8235451316574
 11
42.7756825362375
 20
-107.064636201111
 21
-107.074208720195
 62
7
  0
LINE
  6
BYLAYER
  8
0
 10
-24.7947144103274
 11
-25.2990350210144
 20
-69.3164148270654
 21
-69.8126743690501
 62
7
  0
LINE
  6
BYLAYER
  8
0
 10
-24.7947144103274
 11
-25.2990350210144
 20
-50.6230484148516
 21
-50.1187278041646
 62
7
  0
LINE
  6
BYLAYER
  8
0
 10
33.2142474217337
 11
33.7188199408176
 20
-50.6230484148516
 21
-50.1187278041646
 62
7
  0
LINE
  6
BYLAYER
  8
0
 10
33.2142474217337
 11
33.7188199408176
 20
-69.3164148270654
 21
-69.8126743690501
 62
7
  0
LINE
  6
BYLAYER
  8
0
 10
-25.2977754790297
 11
-25.2977754790297
 20
-69.8126743690501
 21
-50.1187278041646
 62
7
  0
LINE
  6
BYLAYER
  8
0
 10
33.7188199408176
 11
33.7188199408176
 20
-69.8126743690501
 21
-50.1187278041646
 62
7
  0
LINE
  6
BYLAYER
  8
0
 10
-24.7947144103274
 11
-25.2990350210144
 20
-49.4819033766837
 21
-49.9794224606531
 62
7
  0
LINE
  6
BYLAYER
  8
0
 10
-24.7947144103274
 11
-25.2990350210144
 20
-30.788285056073
 21
-30.2811934530196
 62
7
  0
LINE
  6
BYLAYER
  8
0
 10
33.2142474217337
 11
33.7188199408176
 20
-30.788285056073
 21
-30.2811934530196
 62
7
  0
LINE
  6
BYLAYER
  8
0
 10
33.2142474217337
 11
33.7188199408176
 20
-49.4819033766837
 21
-49.9794224606531
 62
7
  0
LINE
  6
BYLAYER
  8
0
 10
-25.2977754790297
 11
-25.2977754790297
 20
-49.9794224606531
 21
-30.2811934530196
 62
7
  0
LINE
  6
BYLAYER
  8
0
 10
33.7188199408176
 11
33.7188199408176
 20
-49.9794224606531
 21
-30.2811934530196
 62
7
  0
LINE
  6
BYLAYER
  8
0
 10
-24.7947144103274
 11
-25.2990350210144
 20
-29.6483995598898
 21
-30.1406285675234
 62
7
  0
LINE
  6
BYLAYER
  8
0
 10
-24.7947144103274
 11
-25.2990350210144
 20
-10.9507507049279
 21
-10.4466820026379
 62
7
  0
LINE
  6
BYLAYER
  8
0
 10
-25.2977754790297
 11
33.7188199408176
 20
-10.4466820026379
 21
-10.4466820026379
 62
7
  0
LINE
  6
BYLAYER
  8
0
 10
33.2142474217337
 11
33.7188199408176
 20
-10.9507507049279
 21
-10.4466820026379
 62
7
  0
LINE
  6
BYLAYER
  8
0
 10
33.2142474217337
 11
33.7188199408176
 20
-29.6483995598898
 21
-30.1406285675234
 62
7
  0
LINE
  6
BYLAYER
  8
0
 10
-25.2977754790297
 11
-25.2977754790297
 20
-30.1406285675234
 21
-10.4466820026379
 62
7
  0
LINE
  6
BYLAYER
  8
0
 10
33.7188199408176
 11
33.7188199408176
 20
-30.1406285675234
 21
-10.4466820026379
 62
7
  0
LINE
  6
BYLAYER
  8
0
 10
33.1626062003596
 11
33.665163452268
 20
-70.4578117736302
 21
-69.9537430713402
 62
7
  0
LINE
  6
BYLAYER
  8
0
 10
33.1626062003596
 11
33.665163452268
 20
-89.151430094241
 21
-89.6476896362257
 62
7
  0
LINE
  6
BYLAYER
  8
0
 10
33.665163452268
 11
33.665163452268
 20
-89.6476896362257
 21
-69.9537430713402
 62
7
  0
LINE
  6
BYLAYER
  8
0
 10
-24.7428212805564
 11
-25.2458823492587
 20
-89.151430094241
 21
-89.6476896362257
 62
7
  0
LINE
  6
BYLAYER
  8
0
 10
-24.7428212805564
 11
-25.2458823492587
 20
-70.4578117736302
 21
-69.9537430713402
 62
7
  0
LINE
  6
BYLAYER
  8
0
 10
-25.2458823492587
 11
33.665163452268
 20
-89.6476896362257
 21
-89.6476896362257
 62
7
  0
LINE
  6
BYLAYER
  8
0
 10
-25.2458823492587
 11
-25.2458823492587
 20
-89.6476896362257
 21
-69.9537430713402
 62
7
  0
LINE
  6
BYLAYER
  8
0
 10
49.5096978034131
 11
49.2429268110467
 20
135.1956691424
 21
135.238493569881
 62
7
  0
LINE
  6
BYLAYER
  8
0
 10
49.2429268110467
 11
47.8627207041764
 20
135.238493569881
 21
135.28887524927
 62
7
  0
LINE
  6
BYLAYER
  8
0
 10
47.8627207041764
 11
46.6243390247871
 20
135.28887524927
 21
135.253608073698
 62
7
  0
LINE
  6
BYLAYER
  8
0
 10
46.6243390247871
 11
46.2132245209703
 20
135.253608073698
 21
135.253608073698
 62
7
  0
LINE
  6
BYLAYER
  8
0
 10
46.2132245209703
 11
39.0119191774589
 20
135.253608073698
 21
135.253608073698
 62
7
  0
LINE
  6
BYLAYER
  8
0
 10
39.0119191774589
 11
28.3544306278405
 20
135.253608073698
 21
135.253608073698
 62
7
  0
LINE
  6
BYLAYER
  8
0
 10
28.3544306278405
 11
15.4705756660085
 20
135.253608073698
 21
135.253608073698
 62
7
  0
LINE
  6
BYLAYER
  8
0
 10
15.4705756660085
 11
1.58790391028329
 20
135.253608073698
 21
135.253608073698
 62
7
  0
LINE
  6
BYLAYER
  8
0
 10
1.58790391028329
 11
-12.0655312042205
 20
135.253608073698
 21
135.253608073698
 62
7
  0
LINE
  6
BYLAYER
  8
0
 10
-12.0655312042205
 11
-24.2589052500221
 20
135.253608073698
 21
135.253608073698
 62
7
  0
LINE
  6
BYLAYER
  8
0
 10
-24.2589052500221
 11
-33.7644167004037
 20
135.253608073698
 21
135.253608073698
 62
7
  0
LINE
  6
BYLAYER
  8
0
 10
-33.7644167004037
 11
-39.3527525782663
 20
135.253608073698
 21
135.253608073698
 62
7
  0
LINE
  6
BYLAYER
  8
0
 10
-39.3527525782663
 11
-40.2943861660526
 20
135.253608073698
 21
135.253608073698
 62
7
  0
LINE
  6
BYLAYER
  8
0
 10
-40.2943861660526
 11
-40.5389892194877
 20
135.253608073698
 21
135.253608073698
 62
7
  0
LINE
  6
BYLAYER
  8
0
 10
-40.5389892194877
 11
-41.2715388378083
 20
135.253608073698
 21
135.15032563095
 62
7
  0
LINE
  6
BYLAYER
  8
0
 10
-41.2715388378083
 11
-42.1927678454419
 20
135.15032563095
 21
134.858111890492
 62
7
  0
LINE
  6
BYLAYER
  8
0
 10
-42.1927678454419
 11
-43.0346457080373
 20
134.858111890492
 21
134.39460044011
 62
7
  0
LINE
  6
BYLAYER
  8
0
 10
-43.0346457080373
 11
-43.7742487614724
 20
134.39460044011
 21
133.7849821195
 62
7
  0
LINE
  6
BYLAYER
  8
0
 10
-43.7742487614724
 11
-44.388905250022
 20
133.7849821195
 21
133.049409600416
 62
7
  0
LINE
  6
BYLAYER
  8
0
 10
-44.388905250022
 11
-44.8549357843732
 20
133.049409600416
 21
132.213073722553
 62
7
  0
LINE
  6
BYLAYER
  8
0
 10
-44.8549357843732
 11
-45.1489128836098
 20
132.213073722553
 21
131.296127157667
 62
7
  0
LINE
  6
BYLAYER
  8
0
 10
-45.1489128836098
 11
-45.2499281507854
 20
131.296127157667
 21
130.565592806522
 62
7
  0
LINE
  6
BYLAYER
  8
0
 10
-45.2499281507854
 11
-45.2484167004037
 20
130.565592806522
 21
130.321241661484
 62
7
  0
LINE
  6
BYLAYER
  8
0
 10
-45.2484167004037
 11
-45.2484167004037
 20
130.321241661484
 21
129.96353173782
 62
7
  0
LINE
  6
BYLAYER
  8
0
 10
-45.2484167004037
 11
-45.2484167004037
 20
129.96353173782
 21
127.734142424843
 62
7
  0
LINE
  6
BYLAYER
  8
0
 10
-45.2484167004037
 11
-45.2484167004037
 20
127.734142424843
 21
123.607882882858
 62
7
  0
LINE
  6
BYLAYER
  8
0
 10
-45.2484167004037
 11
-45.2484167004037
 20
123.607882882858
 21
117.75353173782
 62
7
  0
LINE
  6
BYLAYER
  8
0
 10
-45.2484167004037
 11
-45.2484167004037
 20
117.75353173782
 21
110.334829447744
 62
7
  0
LINE
  6
BYLAYER
  8
0
 10
-45.2484167004037
 11
-45.2484167004037
 20
110.334829447744
 21
101.520554638584
 62
7
  0
LINE
  6
BYLAYER
  8
0
 10
-45.2484167004037
 11
-45.2484167004037
 20
101.520554638584
 21
91.4744477683545
 62
7
  0
LINE
  6
BYLAYER
  8
0
 10
-45.2484167004037
 11
-45.2484167004037
 20
91.4744477683545
 21
80.365287463011
 62
7
  0
LINE
  6
BYLAYER
  8
0
 10
-45.2484167004037
 11
-45.2484167004037
 20
80.365287463011
 21
68.3618523485072
 62
7
  0
LINE
  6
BYLAYER
  8
0
 10
-45.2484167004037
 11
-45.2484167004037
 20
68.3618523485072
 21
55.6253637988889
 62
7
  0
LINE
  6
BYLAYER
  8
0
 10
-45.2484167004037
 11
-45.2484167004037
 20
55.6253637988889
 21
42.3271195240797
 62
7
  0
LINE
  6
BYLAYER
  8
0
 10
-45.2484167004037
 11
-45.2484167004037
 20
42.3271195240797
 21
28.6341347912553
 62
7
  0
LINE
  6
BYLAYER
  8
0
 10
-45.2484167004037
 11
-45.2484167004037
 20
28.6341347912553
 21
14.7104019668278
 62
7
  0
LINE
  6
BYLAYER
  8
0
 10
-45.2484167004037
 11
-45.2484167004037
 20
14.7104019668278
 21
0.724951585148375
 62
7
  0
LINE
  6
BYLAYER
  8
0
 10
-45.2484167004037
 11
-45.2484167004037
 20
0.724951585148375
 21
-13.1579720789738
 62
7
  0
LINE
  6
BYLAYER
  8
0
 10
-45.2484167004037
 11
-45.2484167004037
 20
-13.1579720789738
 21
-26.7703461247753
 62
7
  0
LINE
  6
BYLAYER
  8
0
 10
-45.2484167004037
 11
-45.2484167004037
 20
-26.7703461247753
 21
-39.9464148270654
 62
7
  0
LINE
  6
BYLAYER
  8
0
 10
-45.2484167004037
 11
-45.2484167004037
 20
-39.9464148270654
 21
-52.5173995598898
 62
7
  0
LINE
  6
BYLAYER
  8
0
 10
-45.2484167004037
 11
-45.2484167004037
 20
-52.5173995598898
 21
-64.3172926896607
 62
7
  0
LINE
  6
BYLAYER
  8
0
 10
-45.2484167004037
 11
-45.2484167004037
 20
-64.3172926896607
 21
-75.1810942163783
 62
7
  0
LINE
  6
BYLAYER
  8
0
 10
-45.2484167004037
 11
-45.2484167004037
 20
-75.1810942163783
 21
-84.9405293308822
 62
7
  0
LINE
  6
BYLAYER
  8
0
 10
-45.2484167004037
 11
-45.2484167004037
 20
-84.9405293308822
 21
-93.4275751324089
 62
7
  0
LINE
  6
BYLAYER
  8
0
 10
-45.2484167004037
 11
-45.2484167004037
 20
-93.4275751324089
 21
-100.480002613325
 62
7
  0
LINE
  6
BYLAYER
  8
0
 10
-45.2484167004037
 11
-45.2484167004037
 20
-100.480002613325
 21
-105.927521697294
 62
7
  0
LINE
  6
BYLAYER
  8
0
 10
-45.2484167004037
 11
-45.2484167004037
 20
-105.927521697294
 21
-109.604124750729
 62
7
  0
LINE
  6
BYLAYER
  8
0
 10
-45.2484167004037
 11
-45.2484167004037
 20
-109.604124750729
 21
-111.341033147676
 62
7
  0
LINE
  6
BYLAYER
  8
0
 10
-45.2484167004037
 11
-45.2484167004037
 20
-111.341033147676
 21
-111.734765972104
 62
7
  0
LINE
  6
BYLAYER
  8
0
 10
-45.2484167004037
 11
-44.9987754790297
 20
-111.734765972104
 21
-112.916720170577
 62
7
  0
LINE
  6
BYLAYER
  8
0
 10
-44.9987754790297
 11
-44.4355083034572
 20
-112.916720170577
 21
-114.12512475073
 62
7
  0
LINE
  6
BYLAYER
  8
0
 10
-44.4355083034572
 11
-44.2798289141442
 20
-114.12512475073
 21
-114.343781239279
 62
7
  0
LINE
  6
BYLAYER
  8
0
 10
-44.2798289141442
 11
-44.1047525782663
 20
-114.343781239279
 21
-114.588384292714
 62
7
  0
LINE
  6
BYLAYER
  8
0
 10
-44.1047525782663
 11
-43.4530655553655
 20
-114.588384292714
 21
-115.23881177363
 62
7
  0
LINE
  6
BYLAYER
  8
0
 10
-43.4530655553655
 11
-42.4620579217778
 20
-115.23881177363
 21
-115.879666735462
 62
7
  0
LINE
  6
BYLAYER
  8
0
 10
-42.4620579217778
 11
-41.3425770057472
 20
-115.879666735462
 21
-116.265338491188
 62
7
  0
LINE
  6
BYLAYER
  8
0
 10
-41.3425770057472
 11
-40.4364625019304
 20
-116.265338491188
 21
-116.395071315615
 62
7
  0
LINE
  6
BYLAYER
  8
0
 10
-40.4364625019304
 11
-40.1344243339915
 20
-116.395071315615
 21
-116.395071315615
 62
7
  0
LINE
  6
BYLAYER
  8
0
 10
-40.1344243339915
 11
-36.1328594484953
 20
-116.395071315615
 21
-116.395071315615
 62
7
  0
LINE
  6
BYLAYER
  8
0
 10
-36.1328594484953
 11
-27.8027525782663
 20
-116.395071315615
 21
-116.395071315615
 62
7
  0
LINE
  6
BYLAYER
  8
0
 10
-27.8027525782663
 11
-16.3731647920068
 20
-116.395071315615
 21
-116.395071315615
 62
7
  0
LINE
  6
BYLAYER
  8
0
 10
-16.3731647920068
 11
-3.07265334162511
 20
-116.395071315615
 21
-116.395071315615
 62
7
  0
LINE
  6
BYLAYER
  8
0
 10
-3.07265334162511
 11
10.8704764293673
 20
-116.395071315615
 21
-116.395071315615
 62
7
  0
LINE
  6
BYLAYER
  8
0
 10
10.8704764293673
 11
24.2256520018863
 20
-116.395071315615
 21
-116.395071315615
 62
7
  0
LINE
  6
BYLAYER
  8
0
 10
24.2256520018863
 11
35.7658275744054
 20
-116.395071315615
 21
-116.395071315615
 62
7
  0
LINE
  6
BYLAYER
  8
0
 10
35.7658275744054
 11
44.2614382614284
 20
-116.395071315615
 21
-116.395071315615
 62
7
  0
LINE
  6
BYLAYER
  8
0
 10
44.2614382614284
 11
48.4844306278405
 20
-116.395071315615
 21
-116.395071315615
 62
7
  0
LINE
  6
BYLAYER
  8
0
 10
48.4844306278405
 11
48.7413771927261
 20
-116.395071315615
 21
-116.395071315615
 62
7
  0
LINE
  6
BYLAYER
  8
0
 10
48.7413771927261
 11
49.5162474217337
 20
-116.395071315615
 21
-116.296827040806
 62
7
  0
LINE
  6
BYLAYER
  8
0
 10
49.5162474217337
 11
50.4840794828024
 20
-116.296827040806
 21
-116.013682002638
 62
7
  0
LINE
  6
BYLAYER
  8
0
 10
50.4840794828024
 11
51.3639955133368
 20
-116.013682002638
 21
-115.561254521722
 62
7
  0
LINE
  6
BYLAYER
  8
0
 10
51.3639955133368
 11
52.1335756660085
 20
-115.561254521722
 21
-114.958437727829
 62
7
  0
LINE
  6
BYLAYER
  8
0
 10
52.1335756660085
 11
52.7719115438711
 20
-114.958437727829
 21
-114.221857575157
 62
7
  0
LINE
  6
BYLAYER
  8
0
 10
52.7719115438711
 11
53.2543161240237
 20
-114.221857575157
 21
-113.366628567523
 62
7
  0
LINE
  6
BYLAYER
  8
0
 10
53.2543161240237
 11
53.5603848263139
 20
-113.366628567523
 21
-112.411140017905
 62
7
  0
LINE
  6
BYLAYER
  8
0
 10
53.5603848263139
 11
53.668201620207
 20
-112.411140017905
 21
-111.630727804165
 62
7
  0
LINE
  6
BYLAYER
  8
0
 10
53.668201620207
 11
53.668201620207
 20
-111.630727804165
 21
-111.370758338516
 62
7
  0
LINE
  6
BYLAYER
  8
0
 10
53.668201620207
 11
53.668201620207
 20
-111.370758338516
 21
-109.724033147676
 62
7
  0
LINE
  6
BYLAYER
  8
0
 10
53.668201620207
 11
53.668201620207
 20
-109.724033147676
 21
-106.132575132409
 62
7
  0
LINE
  6
BYLAYER
  8
0
 10
53.668201620207
 11
53.668201620207
 20
-106.132575132409
 21
-100.759872842333
 62
7
  0
LINE
  6
BYLAYER
  8
0
 10
53.668201620207
 11
53.668201620207
 20
-100.759872842333
 21
-93.7774758957677
 62
7
  0
LINE
  6
BYLAYER
  8
0
 10
53.668201620207
 11
53.668201620207
 20
-93.7774758957677
 21
-85.3503842927142
 62
7
  0
LINE
  6
BYLAYER
  8
0
 10
53.668201620207
 11
53.668201620207
 20
-85.3503842927142
 21
-75.6443537583631
 62
7
  0
LINE
  6
BYLAYER
  8
0
 10
53.668201620207
 11
53.668201620207
 20
-75.6443537583631
 21
-64.8269033766837
 62
7
  0
LINE
  6
BYLAYER
  8
0
 10
53.668201620207
 11
53.668201620207
 20
-64.8269033766837
 21
-53.0653003232486
 62
7
  0
LINE
  6
BYLAYER
  8
0
 10
53.668201620207
 11
53.668201620207
 20
-53.0653003232486
 21
-40.5245445980577
 62
7
  0
LINE
  6
BYLAYER
  8
0
 10
53.668201620207
 11
53.668201620207
 20
-40.5245445980577
 21
-27.3741705522562
 62
7
  0
LINE
  6
BYLAYER
  8
0
 10
53.668201620207
 11
53.668201620207
 20
-27.3741705522562
 21
-13.7784224606531
 62
7
  0
LINE
  6
BYLAYER
  8
0
 10
53.668201620207
 11
53.668201620207
 20
-13.7784224606531
 21
0.0961882263697476
 62
7
  0
LINE
  6
BYLAYER
  8
0
 10
53.668201620207
 11
53.668201620207
 20
0.0961882263697476
 21
14.0816386080491
 62
7
  0
LINE
  6
BYLAYER
  8
0
 10
53.668201620207
 11
53.668201620207
 20
14.0816386080491
 21
28.0121729591941
 62
7
  0
LINE
  6
BYLAYER
  8
0
 10
53.668201620207
 11
53.668201620207
 20
28.0121729591941
 21
41.7200202874385
 62
7
  0
LINE
  6
BYLAYER
  8
0
 10
53.668201620207
 11
53.668201620207
 20
41.7200202874385
 21
55.0384172340034
 62
7
  0
LINE
  6
BYLAYER
  8
0
 10
53.668201620207
 11
53.668201620207
 20
55.0384172340034
 21
67.8026157072858
 62
7
  0
LINE
  6
BYLAYER
  8
0
 10
53.668201620207
 11
53.668201620207
 20
67.8026157072858
 21
79.8438370813316
 62
7
  0
LINE
  6
BYLAYER
  8
0
 10
53.668201620207
 11
53.668201620207
 20
79.8438370813316
 21
90.9958218141561
 62
7
  0
LINE
  6
BYLAYER
  8
0
 10
53.668201620207
 11
53.668201620207
 20
90.9958218141561
 21
101.092310363774
 62
7
  0
LINE
  6
BYLAYER
  8
0
 10
53.668201620207
 11
53.668201620207
 20
101.092310363774
 21
109.967043188202
 62
7
  0
LINE
  6
BYLAYER
  8
0
 10
53.668201620207
 11
53.668201620207
 20
109.967043188202
 21
117.451241661484
 62
7
  0
LINE
  6
BYLAYER
  8
0
 10
53.668201620207
 11
53.668201620207
 20
117.451241661484
 21
123.381165325606
 62
7
  0
LINE
  6
BYLAYER
  8
0
 10
53.668201620207
 11
53.668201620207
 20
123.381165325606
 21
127.588035554614
 62
7
  0
LINE
  6
BYLAYER
  8
0
 10
53.668201620207
 11
53.668201620207
 20
127.588035554614
 21
129.905592806522
 62
7
  0
LINE
  6
BYLAYER
  8
0
 10
53.668201620207
 11
53.668201620207
 20
129.905592806522
 21
130.303608073698
 62
7
  0
LINE
  6
BYLAYER
  8
0
 10
53.668201620207
 11
53.668201620207
 20
130.303608073698
 21
130.731852348507
 62
7
  0
LINE
  6
BYLAYER
  8
0
 10
53.668201620207
 11
53.3455069637184
 20
130.731852348507
 21
132.014066088965
 62
7
  0
LINE
  6
BYLAYER
  8
0
 10
53.3455069637184
 11
52.4615603988329
 20
132.014066088965
 21
133.49780654698
 62
7
  0
LINE
  6
BYLAYER
  8
0
 10
52.4615603988329
 11
51.141308490436
 20
133.49780654698
 21
134.611241661484
 62
7
  0
LINE
  6
BYLAYER
  8
0
 10
51.141308490436
 11
49.9291252843291
 20
134.611241661484
 21
135.130172959194
 62
7
  0
LINE
  6
BYLAYER
  8
0
 10
49.9291252843291
 11
49.5096978034131
 20
135.130172959194
 21
135.1956691424
 62
7
  0
LINE
  6
BYLAYER
  8
0
 10
49.5096978034131
 11
49.5096978034131
 20
135.1956691424
 21
135.1956691424
 62
7
  0
LINE
  6
BYLAYER
  8
0
 10
32.9668733759322
 11
-25.3305235706327
 20
-89.151430094241
 21
-89.151430094241
 62
7
  0
LINE
  6
BYLAYER
  8
0
 10
-25.3305235706327
 11
-25.3305235706327
 20
-89.151430094241
 21
108.442997386675
 62
7
  0
LINE
  6
BYLAYER
  8
0
 10
-25.3305235706327
 11
32.9668733759322
 20
108.442997386675
 21
108.442997386675
 62
7
  0
LINE
  6
BYLAYER
  8
0
 10
32.9668733759322
 11
32.9668733759322
 20
108.442997386675
 21
-89.151430094241
 62
7
  0
LINE
  6
BYLAYER
  8
0
 10
32.9668733759322
 11
32.9668733759322
 20
-89.151430094241
 21
-89.151430094241
 62
7
  0
LINE
  6
BYLAYER
  8
0
 10
49.5096978034131
 11
49.2429268110467
 20
135.1956691424
 21
135.238493569881
 62
7
  0
LINE
  6
BYLAYER
  8
0
 10
49.2429268110467
 11
47.8627207041764
 20
135.238493569881
 21
135.28887524927
 62
7
  0
LINE
  6
BYLAYER
  8
0
 10
47.8627207041764
 11
46.6243390247871
 20
135.28887524927
 21
135.253608073698
 62
7
  0
LINE
  6
BYLAYER
  8
0
 10
46.6243390247871
 11
46.2132245209703
 20
135.253608073698
 21
135.253608073698
 62
7
  0
LINE
  6
BYLAYER
  8
0
 10
46.2132245209703
 11
39.0119191774589
 20
135.253608073698
 21
135.253608073698
 62
7
  0
LINE
  6
BYLAYER
  8
0
 10
39.0119191774589
 11
28.3544306278405
 20
135.253608073698
 21
135.253608073698
 62
7
  0
LINE
  6
BYLAYER
  8
0
 10
28.3544306278405
 11
15.4705756660085
 20
135.253608073698
 21
135.253608073698
 62
7
  0
LINE
  6
BYLAYER
  8
0
 10
15.4705756660085
 11
1.58790391028329
 20
135.253608073698
 21
135.253608073698
 62
7
  0
LINE
  6
BYLAYER
  8
0
 10
1.58790391028329
 11
-12.0655312042205
 20
135.253608073698
 21
135.253608073698
 62
7
  0
LINE
  6
BYLAYER
  8
0
 10
-12.0655312042205
 11
-24.2589052500221
 20
135.253608073698
 21
135.253608073698
 62
7
  0
LINE
  6
BYLAYER
  8
0
 10
-24.2589052500221
 11
-33.7644167004037
 20
135.253608073698
 21
135.253608073698
 62
7
  0
LINE
  6
BYLAYER
  8
0
 10
-33.7644167004037
 11
-39.3527525782663
 20
135.253608073698
 21
135.253608073698
 62
7
  0
LINE
  6
BYLAYER
  8
0
 10
-39.3527525782663
 11
-40.2943861660526
 20
135.253608073698
 21
135.253608073698
 62
7
  0
LINE
  6
BYLAYER
  8
0
 10
-40.2943861660526
 11
-40.5389892194877
 20
135.253608073698
 21
135.253608073698
 62
7
  0
LINE
  6
BYLAYER
  8
0
 10
-40.5389892194877
 11
-41.2715388378083
 20
135.253608073698
 21
135.15032563095
 62
7
  0
LINE
  6
BYLAYER
  8
0
 10
-41.2715388378083
 11
-42.1927678454419
 20
135.15032563095
 21
134.858111890492
 62
7
  0
LINE
  6
BYLAYER
  8
0
 10
-42.1927678454419
 11
-43.0346457080373
 20
134.858111890492
 21
134.39460044011
 62
7
  0
LINE
  6
BYLAYER
  8
0
 10
-43.0346457080373
 11
-43.7742487614724
 20
134.39460044011
 21
133.7849821195
 62
7
  0
LINE
  6
BYLAYER
  8
0
 10
-43.7742487614724
 11
-44.388905250022
 20
133.7849821195
 21
133.049409600416
 62
7
  0
LINE
  6
BYLAYER
  8
0
 10
-44.388905250022
 11
-44.8549357843732
 20
133.049409600416
 21
132.213073722553
 62
7
  0
LINE
  6
BYLAYER
  8
0
 10
-44.8549357843732
 11
-45.1489128836098
 20
132.213073722553
 21
131.296127157667
 62
7
  0
LINE
  6
BYLAYER
  8
0
 10
-45.1489128836098
 11
-45.2499281507854
 20
131.296127157667
 21
130.565592806522
 62
7
  0
LINE
  6
BYLAYER
  8
0
 10
-45.2499281507854
 11
-45.2484167004037
 20
130.565592806522
 21
130.321241661484
 62
7
  0
LINE
  6
BYLAYER
  8
0
 10
-45.2484167004037
 11
-45.2484167004037
 20
130.321241661484
 21
129.96353173782
 62
7
  0
LINE
  6
BYLAYER
  8
0
 10
-45.2484167004037
 11
-45.2484167004037
 20
129.96353173782
 21
127.734142424843
 62
7
  0
LINE
  6
BYLAYER
  8
0
 10
-45.2484167004037
 11
-45.2484167004037
 20
127.734142424843
 21
123.607882882858
 62
7
  0
LINE
  6
BYLAYER
  8
0
 10
-45.2484167004037
 11
-45.2484167004037
 20
123.607882882858
 21
117.75353173782
 62
7
  0
LINE
  6
BYLAYER
  8
0
 10
-45.2484167004037
 11
-45.2484167004037
 20
117.75353173782
 21
110.334829447744
 62
7
  0
LINE
  6
BYLAYER
  8
0
 10
-45.2484167004037
 11
-45.2484167004037
 20
110.334829447744
 21
101.520554638584
 62
7
  0
LINE
  6
BYLAYER
  8
0
 10
-45.2484167004037
 11
-45.2484167004037
 20
101.520554638584
 21
91.4744477683545
 62
7
  0
LINE
  6
BYLAYER
  8
0
 10
-45.2484167004037
 11
-45.2484167004037
 20
91.4744477683545
 21
80.365287463011
 62
7
  0
LINE
  6
BYLAYER
  8
0
 10
-45.2484167004037
 11
-45.2484167004037
 20
80.365287463011
 21
68.3618523485072
 62
7
  0
LINE
  6
BYLAYER
  8
0
 10
-45.2484167004037
 11
-45.2484167004037
 20
68.3618523485072
 21
55.6253637988889
 62
7
  0
LINE
  6
BYLAYER
  8
0
 10
-45.2484167004037
 11
-45.2484167004037
 20
55.6253637988889
 21
42.3271195240797
 62
7
  0
LINE
  6
BYLAYER
  8
0
 10
-45.2484167004037
 11
-45.2484167004037
 20
42.3271195240797
 21
28.6341347912553
 62
7
  0
LINE
  6
BYLAYER
  8
0
 10
-45.2484167004037
 11
-45.2484167004037
 20
28.6341347912553
 21
14.7104019668278
 62
7
  0
LINE
  6
BYLAYER
  8
0
 10
-45.2484167004037
 11
-45.2484167004037
 20
14.7104019668278
 21
0.724951585148375
 62
7
  0
LINE
  6
BYLAYER
  8
0
 10
-45.2484167004037
 11
-45.2484167004037
 20
0.724951585148375
 21
-13.1579720789738
 62
7
  0
LINE
  6
BYLAYER
  8
0
 10
-45.2484167004037
 11
-45.2484167004037
 20
-13.1579720789738
 21
-26.7703461247753
 62
7
  0
LINE
  6
BYLAYER
  8
0
 10
-45.2484167004037
 11
-45.2484167004037
 20
-26.7703461247753
 21
-39.9464148270654
 62
7
  0
LINE
  6
BYLAYER
  8
0
 10
-45.2484167004037
 11
-45.2484167004037
 20
-39.9464148270654
 21
-52.5173995598898
 62
7
  0
LINE
  6
BYLAYER
  8
0
 10
-45.2484167004037
 11
-45.2484167004037
 20
-52.5173995598898
 21
-64.3172926896607
 62
7
  0
LINE
  6
BYLAYER
  8
0
 10
-45.2484167004037
 11
-45.2484167004037
 20
-64.3172926896607
 21
-75.1810942163783
 62
7
  0
LINE
  6
BYLAYER
  8
0
 10
-45.2484167004037
 11
-45.2484167004037
 20
-75.1810942163783
 21
-84.9405293308822
 62
7
  0
LINE
  6
BYLAYER
  8
0
 10
-45.2484167004037
 11
-45.2484167004037
 20
-84.9405293308822
 21
-93.4275751324089
 62
7
  0
LINE
  6
BYLAYER
  8
0
 10
-45.2484167004037
 11
-45.2484167004037
 20
-93.4275751324089
 21
-100.480002613325
 62
7
  0
LINE
  6
BYLAYER
  8
0
 10
-45.2484167004037
 11
-45.2484167004037
 20
-100.480002613325
 21
-105.927521697294
 62
7
  0
LINE
  6
BYLAYER
  8
0
 10
-45.2484167004037
 11
-45.2484167004037
 20
-105.927521697294
 21
-109.604124750729
 62
7
  0
LINE
  6
BYLAYER
  8
0
 10
-45.2484167004037
 11
-45.2484167004037
 20
-109.604124750729
 21
-111.341033147676
 62
7
  0
LINE
  6
BYLAYER
  8
0
 10
-45.2484167004037
 11
-45.2484167004037
 20
-111.341033147676
 21
-111.734765972104
 62
7
  0
LINE
  6
BYLAYER
  8
0
 10
-45.2484167004037
 11
-44.9987754790297
 20
-111.734765972104
 21
-112.916720170577
 62
7
  0
LINE
  6
BYLAYER
  8
0
 10
-44.9987754790297
 11
-44.4355083034572
 20
-112.916720170577
 21
-114.12512475073
 62
7
  0
LINE
  6
BYLAYER
  8
0
 10
-44.4355083034572
 11
-44.2798289141442
 20
-114.12512475073
 21
-114.343781239279
 62
7
  0
LINE
  6
BYLAYER
  8
0
 10
-44.2798289141442
 11
-44.1047525782663
 20
-114.343781239279
 21
-114.588384292714
 62
7
  0
LINE
  6
BYLAYER
  8
0
 10
-44.1047525782663
 11
-43.4530655553655
 20
-114.588384292714
 21
-115.23881177363
 62
7
  0
LINE
  6
BYLAYER
  8
0
 10
-43.4530655553655
 11
-42.4620579217778
 20
-115.23881177363
 21
-115.879666735462
 62
7
  0
LINE
  6
BYLAYER
  8
0
 10
-42.4620579217778
 11
-41.3425770057472
 20
-115.879666735462
 21
-116.265338491188
 62
7
  0
LINE
  6
BYLAYER
  8
0
 10
-41.3425770057472
 11
-40.4364625019304
 20
-116.265338491188
 21
-116.395071315615
 62
7
  0
LINE
  6
BYLAYER
  8
0
 10
-40.4364625019304
 11
-40.1344243339915
 20
-116.395071315615
 21
-116.395071315615
 62
7
  0
LINE
  6
BYLAYER
  8
0
 10
-40.1344243339915
 11
-36.1328594484953
 20
-116.395071315615
 21
-116.395071315615
 62
7
  0
LINE
  6
BYLAYER
  8
0
 10
-36.1328594484953
 11
-27.8027525782663
 20
-116.395071315615
 21
-116.395071315615
 62
7
  0
LINE
  6
BYLAYER
  8
0
 10
-27.8027525782663
 11
-16.3731647920068
 20
-116.395071315615
 21
-116.395071315615
 62
7
  0
LINE
  6
BYLAYER
  8
0
 10
-16.3731647920068
 11
-3.07265334162511
 20
-116.395071315615
 21
-116.395071315615
 62
7
  0
LINE
  6
BYLAYER
  8
0
 10
-3.07265334162511
 11
10.8704764293673
 20
-116.395071315615
 21
-116.395071315615
 62
7
  0
LINE
  6
BYLAYER
  8
0
 10
10.8704764293673
 11
24.2256520018863
 20
-116.395071315615
 21
-116.395071315615
 62
7
  0
LINE
  6
BYLAYER
  8
0
 10
24.2256520018863
 11
35.7658275744054
 20
-116.395071315615
 21
-116.395071315615
 62
7
  0
LINE
  6
BYLAYER
  8
0
 10
35.7658275744054
 11
44.2614382614284
 20
-116.395071315615
 21
-116.395071315615
 62
7
  0
LINE
  6
BYLAYER
  8
0
 10
44.2614382614284
 11
48.4844306278405
 20
-116.395071315615
 21
-116.395071315615
 62
7
  0
LINE
  6
BYLAYER
  8
0
 10
48.4844306278405
 11
48.7413771927261
 20
-116.395071315615
 21
-116.395071315615
 62
7
  0
LINE
  6
BYLAYER
  8
0
 10
48.7413771927261
 11
49.5162474217337
 20
-116.395071315615
 21
-116.296827040806
 62
7
  0
LINE
  6
BYLAYER
  8
0
 10
49.5162474217337
 11
50.4840794828024
 20
-116.296827040806
 21
-116.013682002638
 62
7
  0
LINE
  6
BYLAYER
  8
0
 10
50.4840794828024
 11
51.3639955133368
 20
-116.013682002638
 21
-115.561254521722
 62
7
  0
LINE
  6
BYLAYER
  8
0
 10
51.3639955133368
 11
52.1335756660085
 20
-115.561254521722
 21
-114.958437727829
 62
7
  0
LINE
  6
BYLAYER
  8
0
 10
52.1335756660085
 11
52.7719115438711
 20
-114.958437727829
 21
-114.221857575157
 62
7
  0
LINE
  6
BYLAYER
  8
0
 10
52.7719115438711
 11
53.2543161240237
 20
-114.221857575157
 21
-113.366628567523
 62
7
  0
LINE
  6
BYLAYER
  8
0
 10
53.2543161240237
 11
53.5603848263139
 20
-113.366628567523
 21
-112.411140017905
 62
7
  0
LINE
  6
BYLAYER
  8
0
 10
53.5603848263139
 11
53.668201620207
 20
-112.411140017905
 21
-111.630727804165
 62
7
  0
LINE
  6
BYLAYER
  8
0
 10
53.668201620207
 11
53.668201620207
 20
-111.630727804165
 21
-111.370758338516
 62
7
  0
LINE
  6
BYLAYER
  8
0
 10
53.668201620207
 11
53.668201620207
 20
-111.370758338516
 21
-109.724033147676
 62
7
  0
LINE
  6
BYLAYER
  8
0
 10
53.668201620207
 11
53.668201620207
 20
-109.724033147676
 21
-106.132575132409
 62
7
  0
LINE
  6
BYLAYER
  8
0
 10
53.668201620207
 11
53.668201620207
 20
-106.132575132409
 21
-100.759872842333
 62
7
  0
LINE
  6
BYLAYER
  8
0
 10
53.668201620207
 11
53.668201620207
 20
-100.759872842333
 21
-93.7774758957677
 62
7
  0
LINE
  6
BYLAYER
  8
0
 10
53.668201620207
 11
53.668201620207
 20
-93.7774758957677
 21
-85.3503842927142
 62
7
  0
LINE
  6
BYLAYER
  8
0
 10
53.668201620207
 11
53.668201620207
 20
-85.3503842927142
 21
-75.6443537583631
 62
7
  0
LINE
  6
BYLAYER
  8
0
 10
53.668201620207
 11
53.668201620207
 20
-75.6443537583631
 21
-64.8269033766837
 62
7
  0
LINE
  6
BYLAYER
  8
0
 10
53.668201620207
 11
53.668201620207
 20
-64.8269033766837
 21
-53.0653003232486
 62
7
  0
LINE
  6
BYLAYER
  8
0
 10
53.668201620207
 11
53.668201620207
 20
-53.0653003232486
 21
-40.5245445980577
 62
7
  0
LINE
  6
BYLAYER
  8
0
 10
53.668201620207
 11
53.668201620207
 20
-40.5245445980577
 21
-27.3741705522562
 62
7
  0
LINE
  6
BYLAYER
  8
0
 10
53.668201620207
 11
53.668201620207
 20
-27.3741705522562
 21
-13.7784224606531
 62
7
  0
LINE
  6
BYLAYER
  8
0
 10
53.668201620207
 11
53.668201620207
 20
-13.7784224606531
 21
0.0961882263697476
 62
7
  0
LINE
  6
BYLAYER
  8
0
 10
53.668201620207
 11
53.668201620207
 20
0.0961882263697476
 21
14.0816386080491
 62
7
  0
LINE
  6
BYLAYER
  8
0
 10
53.668201620207
 11
53.668201620207
 20
14.0816386080491
 21
28.0121729591941
 62
7
  0
LINE
  6
BYLAYER
  8
0
 10
53.668201620207
 11
53.668201620207
 20
28.0121729591941
 21
41.7200202874385
 62
7
  0
LINE
  6
BYLAYER
  8
0
 10
53.668201620207
 11
53.668201620207
 20
41.7200202874385
 21
55.0384172340034
 62
7
  0
LINE
  6
BYLAYER
  8
0
 10
53.668201620207
 11
53.668201620207
 20
55.0384172340034
 21
67.8026157072858
 62
7
  0
LINE
  6
BYLAYER
  8
0
 10
53.668201620207
 11
53.668201620207
 20
67.8026157072858
 21
79.8438370813316
 62
7
  0
LINE
  6
BYLAYER
  8
0
 10
53.668201620207
 11
53.668201620207
 20
79.8438370813316
 21
90.9958218141561
 62
7
  0
LINE
  6
BYLAYER
  8
0
 10
53.668201620207
 11
53.668201620207
 20
90.9958218141561
 21
101.092310363774
 62
7
  0
LINE
  6
BYLAYER
  8
0
 10
53.668201620207
 11
53.668201620207
 20
101.092310363774
 21
109.967043188202
 62
7
  0
LINE
  6
BYLAYER
  8
0
 10
53.668201620207
 11
53.668201620207
 20
109.967043188202
 21
117.451241661484
 62
7
  0
LINE
  6
BYLAYER
  8
0
 10
53.668201620207
 11
53.668201620207
 20
117.451241661484
 21
123.381165325606
 62
7
  0
LINE
  6
BYLAYER
  8
0
 10
53.668201620207
 11
53.668201620207
 20
123.381165325606
 21
127.588035554614
 62
7
  0
LINE
  6
BYLAYER
  8
0
 10
53.668201620207
 11
53.668201620207
 20
127.588035554614
 21
129.905592806522
 62
7
  0
LINE
  6
BYLAYER
  8
0
 10
53.668201620207
 11
53.668201620207
 20
129.905592806522
 21
130.303608073698
 62
7
  0
LINE
  6
BYLAYER
  8
0
 10
53.668201620207
 11
53.668201620207
 20
130.303608073698
 21
130.731852348507
 62
7
  0
LINE
  6
BYLAYER
  8
0
 10
53.668201620207
 11
53.3455069637184
 20
130.731852348507
 21
132.014066088965
 62
7
  0
LINE
  6
BYLAYER
  8
0
 10
53.3455069637184
 11
52.4615603988329
 20
132.014066088965
 21
133.49780654698
 62
7
  0
LINE
  6
BYLAYER
  8
0
 10
52.4615603988329
 11
51.141308490436
 20
133.49780654698
 21
134.611241661484
 62
7
  0
LINE
  6
BYLAYER
  8
0
 10
51.141308490436
 11
49.9291252843291
 20
134.611241661484
 21
135.130172959194
 62
7
  0
LINE
  6
BYLAYER
  8
0
 10
49.9291252843291
 11
49.5096978034131
 20
135.130172959194
 21
135.1956691424
 62
7
  0
LINE
  6
BYLAYER
  8
0
 10
49.5096978034131
 11
49.5096978034131
 20
135.1956691424
 21
135.1956691424
 62
7
  0
LINE
  6
BYLAYER
  8
0
 10
32.9668733759322
 11
-25.3305235706327
 20
-89.151430094241
 21
-89.151430094241
 62
7
  0
LINE
  6
BYLAYER
  8
0
 10
-25.3305235706327
 11
-25.3305235706327
 20
-89.151430094241
 21
108.442997386675
 62
7
  0
LINE
  6
BYLAYER
  8
0
 10
-25.3305235706327
 11
32.9668733759322
 20
108.442997386675
 21
108.442997386675
 62
7
  0
LINE
  6
BYLAYER
  8
0
 10
32.9668733759322
 11
32.9668733759322
 20
108.442997386675
 21
-89.151430094241
 62
7
  0
LINE
  6
BYLAYER
  8
0
 10
32.9668733759322
 11
32.9668733759322
 20
-89.151430094241
 21
-89.151430094241
 62
7
  0
LINE
  6
BYLAYER
  8
0
 10
297.292590933184
 11
297.282514597306
 20
-135.375613300348
 21
-135.375613300348
 62
7
  0
LINE
  6
BYLAYER
  8
0
 10
297.292590933184
 11
297.282514597306
 20
143.3549821195
 21
143.349943951561
 62
7
  0
LINE
  6
BYLAYER
  8
0
 10
297.282514597306
 11
297.279995513337
 20
133.512921050797
 21
134.296356165301
 62
7
  0
LINE
  6
BYLAYER
  8
0
 10
297.279995513337
 11
297.274957345398
 20
134.296356165301
 21
142.118111890492
 62
7
  0
LINE
  6
BYLAYER
  8
0
 10
297.274957345398
 11
297.274957345398
 20
142.118111890492
 21
142.899027921026
 62
7
  0
LINE
  6
BYLAYER
  8
0
 10
297.274957345398
 11
297.274957345398
 20
142.899027921026
 21
143.012386699652
 62
7
  0
LINE
  6
BYLAYER
  8
0
 10
297.274957345398
 11
297.282514597306
 20
143.012386699652
 21
143.264295096599
 62
7
  0
LINE
  6
BYLAYER
  8
0
 10
297.282514597306
 11
297.282514597306
 20
143.264295096599
 21
143.347424867591
 62
7
  0
LINE
  6
BYLAYER
  8
0
 10
297.282514597306
 11
297.282514597306
 20
-125.536827040806
 21
-123.474452995004
 62
7
  0
LINE
  6
BYLAYER
  8
0
 10
297.282514597306
 11
297.292590933184
 20
-123.474452995004
 21
-118.83581177363
 62
7
  0
LINE
  6
BYLAYER
  8
0
 10
297.292590933184
 11
297.292590933184
 20
-118.83581177363
 21
-117.290101849966
 62
7
  0
LINE
  6
BYLAYER
  8
0
 10
297.292590933184
 11
297.292590933184
 20
-117.290101849966
 21
-116.4210178805
 62
7
  0
LINE
  6
BYLAYER
  8
0
 10
297.292590933184
 11
297.292590933184
 20
-116.4210178805
 21
-114.465201086607
 62
7
  0
LINE
  6
BYLAYER
  8
0
 10
297.292590933184
 11
297.292590933184
 20
-114.465201086607
 21
-113.81326215531
 62
7
  0
LINE
  6
BYLAYER
  8
0
 10
297.292590933184
 11
297.292590933184
 20
-113.81326215531
 21
121.786585172935
 62
7
  0
LINE
  6
BYLAYER
  8
0
 10
297.292590933184
 11
297.292590933184
 20
121.786585172935
 21
123.849714943927
 62
7
  0
LINE
  6
BYLAYER
  8
0
 10
297.292590933184
 11
297.285033681276
 20
123.849714943927
 21
128.487348531713
 62
7
  0
LINE
  6
BYLAYER
  8
0
 10
297.285033681276
 11
297.285033681276
 20
128.487348531713
 21
130.034066088965
 62
7
  0
LINE
  6
BYLAYER
  8
0
 10
297.285033681276
 11
297.285033681276
 20
130.034066088965
 21
130.903150058431
 62
7
  0
LINE
  6
BYLAYER
  8
0
 10
297.285033681276
 11
297.282514597306
 20
130.903150058431
 21
132.860478302706
 62
7
  0
LINE
  6
BYLAYER
  8
0
 10
297.282514597306
 11
297.282514597306
 20
132.860478302706
 21
133.512921050797
 62
7
  0
LINE
  6
BYLAYER
  8
0
 10
297.282514597306
 11
297.279995513337
 20
-125.536827040806
 21
-126.318498796531
 62
7
  0
LINE
  6
BYLAYER
  8
0
 10
297.279995513337
 11
297.274957345398
 20
-126.318498796531
 21
-134.142773605691
 62
7
  0
LINE
  6
BYLAYER
  8
0
 10
297.274957345398
 11
297.274957345398
 20
-134.142773605691
 21
-134.925956811798
 62
7
  0
LINE
  6
BYLAYER
  8
0
 10
297.274957345398
 11
297.274957345398
 20
-134.925956811798
 21
-135.036544598058
 62
7
  0
LINE
  6
BYLAYER
  8
0
 10
297.274957345398
 11
297.282514597306
 20
-135.036544598058
 21
-135.286689636226
 62
7
  0
LINE
  6
BYLAYER
  8
0
 10
297.282514597306
 11
297.282514597306
 20
-135.286689636226
 21
-135.3713308576
 62
7
  0
LINE
  6
BYLAYER
  8
0
 10
299.587476429367
 11
299.587476429367
 20
-113.680758338516
 21
-112.575132384317
 62
7
  0
LINE
  6
BYLAYER
  8
0
 10
299.587476429367
 11
299.587476429367
 20
124.932921050797
 21
129.696508837057
 62
7
  0
LINE
  6
BYLAYER
  8
0
 10
299.587476429367
 11
299.587476429367
 20
-121.719659101875
 21
-116.958086582791
 62
7
  0
LINE
  6
BYLAYER
  8
0
 10
299.587476429367
 11
299.587476429367
 20
124.932921050797
 21
-116.958086582791
 62
7
  0
LINE
  6
BYLAYER
  8
0
 10
299.587476429367
 11
299.587476429367
 20
104.165592806522
 21
-96.1900026133249
 62
7
  0
LINE
  6
BYLAYER
  8
0
 10
303.240148185092
 11
303.209919177459
 20
62.469714943927
 21
62.469714943927
 62
7
  0
LINE
  6
BYLAYER
  8
0
 10
303.240148185092
 11
303.600377192726
 20
62.469714943927
 21
63.0566615088125
 62
7
  0
LINE
  6
BYLAYER
  8
0
 10
303.600377192726
 11
305.199995513337
 20
63.0566615088125
 21
66.0946767759881
 62
7
  0
LINE
  6
BYLAYER
  8
0
 10
305.199995513337
 11
306.467094749978
 20
66.0946767759881
 21
69.2863561653011
 62
7
  0
LINE
  6
BYLAYER
  8
0
 10
306.467094749978
 11
306.663583299596
 20
69.2863561653011
 21
69.9463561653011
 62
7
  0
LINE
  6
BYLAYER
  8
0
 10
306.663583299596
 11
306.857552765245
 20
69.9463561653011
 21
70.6139134172095
 62
7
  0
LINE
  6
BYLAYER
  8
0
 10
306.857552765245
 11
307.940758872115
 20
70.6139134172095
 21
77.4255164706446
 62
7
  0
LINE
  6
BYLAYER
  8
0
 10
307.940758872115
 11
307.960911543871
 20
77.4255164706446
 21
78.1182645622476
 62
7
  0
LINE
  6
BYLAYER
  8
0
 10
307.960911543871
 11
307.960911543871
 20
78.1182645622476
 21
78.1736844095759
 62
7
  0
LINE
  6
BYLAYER
  8
0
 10
307.960911543871
 11
307.963430627841
 20
78.1736844095759
 21
78.6195622721713
 62
7
  0
LINE
  6
BYLAYER
  8
0
 10
307.963430627841
 11
307.963430627841
 20
78.6195622721713
 21
78.7681882263698
 62
7
  0
LINE
  6
BYLAYER
  8
0
 10
307.963430627841
 11
307.963430627841
 20
78.7681882263698
 21
79.7959744859117
 62
7
  0
LINE
  6
BYLAYER
  8
0
 10
307.963430627841
 11
307.68381230723
 20
79.7959744859117
 21
82.8768141805682
 62
7
  0
LINE
  6
BYLAYER
  8
0
 10
307.68381230723
 11
307.041445895016
 20
82.8768141805682
 21
86.2498676156827
 62
7
  0
LINE
  6
BYLAYER
  8
0
 10
307.041445895016
 11
306.857552765245
 20
86.2498676156827
 21
86.9123866996522
 62
7
  0
LINE
  6
BYLAYER
  8
0
 10
306.857552765245
 11
306.673659635474
 20
86.9123866996522
 21
87.5824630355301
 62
7
  0
LINE
  6
BYLAYER
  8
0
 10
306.673659635474
 11
305.46953749807
 20
87.5824630355301
 21
90.8220050202629
 62
7
  0
LINE
  6
BYLAYER
  8
0
 10
305.46953749807
 11
303.932896276696
 20
90.8220050202629
 21
93.9179592187362
 62
7
  0
LINE
  6
BYLAYER
  8
0
 10
303.932896276696
 11
303.58022452097
 20
93.9179592187362
 21
94.5124630355301
 62
7
  0
LINE
  6
BYLAYER
  8
0
 10
303.58022452097
 11
303.552514597306
 20
94.5124630355301
 21
94.5578065469805
 62
7
  0
LINE
  6
BYLAYER
  8
0
 10
303.552514597306
 11
303.265339024787
 20
94.5578065469805
 21
95.0187989133927
 62
7
  0
LINE
  6
BYLAYER
  8
0
 10
303.265339024787
 11
303.240148185092
 20
95.0187989133927
 21
95.064142424843
 62
7
  0
LINE
  6
BYLAYER
  8
0
 10
303.240148185092
 11
303.209919177459
 20
95.064142424843
 21
95.064142424843
 62
7
  0
LINE
  6
BYLAYER
  8
0
 10
303.240148185092
 11
303.240148185092
 20
62.469714943927
 21
70.9539897530873
 62
7
  0
LINE
  6
BYLAYER
  8
0
 10
303.240148185092
 11
303.240148185092
 20
70.9539897530873
 21
95.064142424843
 62
7
  0
LINE
  6
BYLAYER
  8
0
 10
300.617781772879
 11
300.854575666008
 20
58.9304019668278
 21
59.207501203469
 62
7
  0
LINE
  6
BYLAYER
  8
0
 10
300.854575666008
 11
303.005873375932
 20
59.207501203469
 21
62.1145241042323
 62
7
  0
LINE
  6
BYLAYER
  8
0
 10
303.005873375932
 11
303.20488100952
 20
62.1145241042323
 21
62.4168141805683
 62
7
  0
LINE
  6
BYLAYER
  8
0
 10
303.20488100952
 11
303.010911543871
 20
95.1145241042323
 21
95.4193332645377
 62
7
  0
LINE
  6
BYLAYER
  8
0
 10
303.010911543871
 11
300.854575666008
 20
95.4193332645377
 21
98.3288752492705
 62
7
  0
LINE
  6
BYLAYER
  8
0
 10
300.854575666008
 11
300.617781772879
 20
98.3288752492705
 21
98.6009363179728
 62
7
  0
LINE
  6
BYLAYER
  8
0
 10
303.20488100952
 11
303.20488100952
 20
86.6050584553774
 21
62.4168141805683
 62
7
  0
LINE
  6
BYLAYER
  8
0
 10
303.20488100952
 11
303.20488100952
 20
95.1145241042323
 21
86.6050584553774
 62
7
  0
LINE
  6
BYLAYER
  8
0
 10
297.189308490436
 11
297.201903910283
 20
-135.417933911035
 21
-135.407101849966
 62
7
  0
LINE
  6
BYLAYER
  8
0
 10
297.201903910283
 11
297.353048948451
 20
-135.407101849966
 21
-135.29626215531
 62
7
  0
LINE
  6
BYLAYER
  8
0
 10
297.353048948451
 11
297.365644368299
 20
-135.29626215531
 21
-135.283918643859
 62
7
  0
LINE
  6
BYLAYER
  8
0
 10
297.365644368299
 11
297.348010780512
 20
143.25925692866
 21
143.274371432477
 62
7
  0
LINE
  6
BYLAYER
  8
0
 10
297.348010780512
 11
297.201903910283
 20
143.274371432477
 21
143.385211127133
 62
7
  0
LINE
  6
BYLAYER
  8
0
 10
297.201903910283
 11
297.189308490436
 20
143.385211127133
 21
143.392768379042
 62
7
  0
LINE
  6
BYLAYER
  8
0
 10
299.584957345398
 11
299.587476429367
 20
-122.584712536989
 21
-122.433063682027
 62
7
  0
LINE
  6
BYLAYER
  8
0
 10
297.365644368299
 11
297.410987879749
 20
-135.285430094241
 21
-135.141842307981
 62
7
  0
LINE
  6
BYLAYER
  8
0
 10
299.584957345398
 11
299.587476429367
 20
130.558035554614
 21
130.409409600416
 62
7
  0
LINE
  6
BYLAYER
  8
0
 10
297.365644368299
 11
297.410987879749
 20
143.25925692866
 21
143.1156691424
 62
7
  0
LINE
  6
BYLAYER
  8
0
 10
299.584957345398
 11
299.584957345398
 20
-121.719659101875
 21
-121.900025514088
 62
7
  0
LINE
  6
BYLAYER
  8
0
 10
299.584957345398
 11
299.584957345398
 20
-121.900025514088
 21
-122.383689636226
 62
7
  0
LINE
  6
BYLAYER
  8
0
 10
299.584957345398
 11
299.587476429367
 20
-122.383689636226
 21
-122.443895743096
 62
7
  0
LINE
  6
BYLAYER
  8
0
 10
299.584957345398
 11
299.584957345398
 20
-117.280529330882
 21
-118.570804140042
 62
7
  0
LINE
  6
BYLAYER
  8
0
 10
299.584957345398
 11
299.582438261428
 20
-118.570804140042
 21
-122.013384292714
 62
7
  0
LINE
  6
BYLAYER
  8
0
 10
299.582438261428
 11
299.587476429367
 20
-122.013384292714
 21
-122.443895743096
 62
7
  0
LINE
  6
BYLAYER
  8
0
 10
299.584957345398
 11
299.587476429367
 20
-117.280529330882
 21
-113.81326215531
 62
7
  0
LINE
  6
BYLAYER
  8
0
 10
299.587476429367
 11
299.584957345398
 20
130.419485936293
 21
130.359027921026
 62
7
  0
LINE
  6
BYLAYER
  8
0
 10
299.584957345398
 11
299.582438261428
 20
130.359027921026
 21
129.862768379042
 62
7
  0
LINE
  6
BYLAYER
  8
0
 10
299.582438261428
 11
299.582438261428
 20
129.862768379042
 21
129.696508837057
 62
7
  0
LINE
  6
BYLAYER
  8
0
 10
299.584957345398
 11
299.584957345398
 20
125.255363798889
 21
126.547653875225
 62
7
  0
LINE
  6
BYLAYER
  8
0
 10
299.584957345398
 11
299.582438261428
 20
126.547653875225
 21
129.988722577515
 62
7
  0
LINE
  6
BYLAYER
  8
0
 10
299.582438261428
 11
299.587476429367
 20
129.988722577515
 21
130.419485936293
 62
7
  0
LINE
  6
BYLAYER
  8
0
 10
299.584957345398
 11
299.587476429367
 20
125.255363798889
 21
121.786585172935
 62
7
  0
LINE
  6
BYLAYER
  8
0
 10
299.587476429367
 11
299.587476429367
 20
121.786585172935
 21
-113.81326215531
 62
7
  0
LINE
  6
BYLAYER
  8
0
 10
297.164117650741
 11
296.118697803413
 20
143.392768379042
 21
143.430554638584
 62
7
  0
LINE
  6
BYLAYER
  8
0
 10
296.118697803413
 11
296.118697803413
 20
133.512921050797
 21
143.430554638584
 62
7
  0
LINE
  6
BYLAYER
  8
0
 10
296.118697803413
 11
296.118697803413
 20
-125.536827040806
 21
133.512921050797
 62
7
  0
LINE
  6
BYLAYER
  8
0
 10
296.118697803413
 11
296.118697803413
 20
-135.456223987371
 21
-125.536827040806
 62
7
  0
LINE
  6
BYLAYER
  8
0
 10
297.164117650741
 11
296.118697803413
 20
-135.417933911035
 21
-135.456223987371
 62
7
  0
LINE
  6
BYLAYER
  8
0
 10
297.189308490436
 11
297.164117650741
 20
-135.417933911035
 21
-135.417933911035
 62
7
  0
LINE
  6
BYLAYER
  8
0
 10
297.189308490436
 11
297.164117650741
 20
143.392768379042
 21
143.392768379042
 62
7
  0
LINE
  6
BYLAYER
  8
0
 10
297.418545131657
 11
297.64022452097
 20
-135.141842307981
 21
-134.490155285081
 62
7
  0
LINE
  6
BYLAYER
  8
0
 10
297.64022452097
 11
299.191980246161
 20
-134.490155285081
 21
-127.80274307134
 62
7
  0
LINE
  6
BYLAYER
  8
0
 10
299.191980246161
 11
299.282667269062
 20
-127.80274307134
 21
-127.120827040806
 62
7
  0
LINE
  6
BYLAYER
  8
0
 10
299.282667269062
 11
299.330529864482
 20
-127.120827040806
 21
-126.744979712562
 62
7
  0
LINE
  6
BYLAYER
  8
0
 10
299.330529864482
 11
299.584957345398
 20
-126.744979712562
 21
-122.961819407218
 62
7
  0
LINE
  6
BYLAYER
  8
0
 10
299.584957345398
 11
299.582438261428
 20
-122.961819407218
 21
-122.584712536989
 62
7
  0
LINE
  6
BYLAYER
  8
0
 10
299.584957345398
 11
299.584957345398
 20
130.558035554614
 21
132.60605082179
 62
7
  0
LINE
  6
BYLAYER
  8
0
 10
299.584957345398
 11
298.801522230894
 20
132.60605082179
 21
138.067424867591
 62
7
  0
LINE
  6
BYLAYER
  8
0
 10
298.801522230894
 11
298.652896276696
 20
138.067424867591
 21
138.740020287438
 62
7
  0
LINE
  6
BYLAYER
  8
0
 10
298.652896276696
 11
298.574804673642
 20
138.740020287438
 21
139.11032563095
 62
7
  0
LINE
  6
BYLAYER
  8
0
 10
298.574804673642
 11
297.541980246161
 20
139.11032563095
 21
142.760478302706
 62
7
  0
LINE
  6
BYLAYER
  8
0
 10
297.541980246161
 11
297.418545131657
 20
142.760478302706
 21
143.1156691424
 62
7
  0
LINE
  6
BYLAYER
  8
0
 10
269.718697803413
 11
269.726255055321
 20
133.512921050797
 21
121.786585172935
 62
7
  0
LINE
  6
BYLAYER
  8
0
 10
269.726255055321
 11
269.726255055321
 20
121.786585172935
 21
-113.81326215531
 62
7
  0
LINE
  6
BYLAYER
  8
0
 10
269.718697803413
 11
269.726255055321
 20
-125.536827040806
 21
-113.81326215531
 62
7
  0
LINE
  6
BYLAYER
  8
0
 10
259.884193986619
 11
153.57053749807
 20
-135.456223987371
 21
-135.456223987371
 62
7
  0
LINE
  6
BYLAYER
  8
0
 10
259.884193986619
 11
260.395568032421
 20
-135.456223987371
 21
-135.448162918668
 62
7
  0
LINE
  6
BYLAYER
  8
0
 10
260.395568032421
 11
261.934728337764
 20
-135.448162918668
 21
-135.222452995004
 62
7
  0
LINE
  6
BYLAYER
  8
0
 10
261.934728337764
 11
263.884499330131
 20
-135.222452995004
 21
-134.597972078974
 62
7
  0
LINE
  6
BYLAYER
  8
0
 10
263.884499330131
 11
265.665491696543
 20
-134.597972078974
 21
-133.593361391951
 62
7
  0
LINE
  6
BYLAYER
  8
0
 10
265.665491696543
 11
266.867094749978
 20
-133.593361391951
 21
-132.601094216378
 62
7
  0
LINE
  6
BYLAYER
  8
0
 10
266.867094749978
 11
267.212209253795
 20
-132.601094216378
 21
-132.221216353783
 62
7
  0
LINE
  6
BYLAYER
  8
0
 10
267.212209253795
 11
267.630377192726
 20
-132.221216353783
 21
-131.75946826218
 62
7
  0
LINE
  6
BYLAYER
  8
0
 10
267.630377192726
 11
269.116636734711
 20
-131.75946826218
 21
-129.11619345302
 62
7
  0
LINE
  6
BYLAYER
  8
0
 10
269.116636734711
 11
269.794270322497
 20
-129.11619345302
 21
-126.155765972104
 62
7
  0
LINE
  6
BYLAYER
  8
0
 10
269.794270322497
 11
269.804346658375
 20
-126.155765972104
 21
-125.536827040806
 62
7
  0
LINE
  6
BYLAYER
  8
0
 10
269.804346658375
 11
269.796789406467
 20
133.512921050797
 21
134.026814180568
 62
7
  0
LINE
  6
BYLAYER
  8
0
 10
269.796789406467
 11
269.572590933184
 20
134.026814180568
 21
135.563455401942
 62
7
  0
LINE
  6
BYLAYER
  8
0
 10
269.572590933184
 11
268.945339024787
 20
135.563455401942
 21
137.515745478278
 62
7
  0
LINE
  6
BYLAYER
  8
0
 10
268.945339024787
 11
267.94274360494
 20
137.515745478278
 21
139.294218760721
 62
7
  0
LINE
  6
BYLAYER
  8
0
 10
267.94274360494
 11
266.947705437001
 20
139.294218760721
 21
140.495821814156
 62
7
  0
LINE
  6
BYLAYER
  8
0
 10
266.947705437001
 11
266.567323757612
 20
140.495821814156
 21
140.838417234003
 62
7
  0
LINE
  6
BYLAYER
  8
0
 10
266.567323757612
 11
266.106331391199
 20
140.838417234003
 21
141.259104256904
 62
7
  0
LINE
  6
BYLAYER
  8
0
 10
266.106331391199
 11
263.46381230723
 20
141.259104256904
 21
142.745363798889
 62
7
  0
LINE
  6
BYLAYER
  8
0
 10
263.46381230723
 11
260.503888643108
 20
142.745363798889
 21
143.420478302706
 62
7
  0
LINE
  6
BYLAYER
  8
0
 10
260.503888643108
 11
259.884193986619
 20
143.420478302706
 21
143.430554638584
 62
7
  0
LINE
  6
BYLAYER
  8
0
 10
153.57053749807
 11
259.884193986619
 20
143.430554638584
 21
143.430554638584
 62
7
  0
LINE
  6
BYLAYER
  8
0
 10
153.57053749807
 11
153.056896276696
 20
143.430554638584
 21
143.422997386675
 62
7
  0
LINE
  6
BYLAYER
  8
0
 10
153.056896276696
 11
151.517735971352
 20
143.422997386675
 21
143.201317997362
 62
7
  0
LINE
  6
BYLAYER
  8
0
 10
151.517735971352
 11
149.567713070589
 20
143.201317997362
 21
142.574066088965
 62
7
  0
LINE
  6
BYLAYER
  8
0
 10
149.567713070589
 11
147.786720704176
 20
142.574066088965
 21
141.568951585148
 62
7
  0
LINE
  6
BYLAYER
  8
0
 10
147.786720704176
 11
146.586629101123
 20
141.568951585148
 21
140.576432501179
 62
7
  0
LINE
  6
BYLAYER
  8
0
 10
146.586629101123
 11
146.242522230894
 20
140.576432501179
 21
140.19353173782
 62
7
  0
LINE
  6
BYLAYER
  8
0
 10
146.242522230894
 11
145.824354291963
 20
140.19353173782
 21
139.735058455377
 62
7
  0
LINE
  6
BYLAYER
  8
0
 10
145.824354291963
 11
144.336079482802
 20
139.735058455377
 21
137.090020287438
 62
7
  0
LINE
  6
BYLAYER
  8
0
 10
144.336079482802
 11
143.660713070589
 20
137.090020287438
 21
134.132615707286
 62
7
  0
LINE
  6
BYLAYER
  8
0
 10
143.660713070589
 11
143.651392459902
 20
134.132615707286
 21
133.512921050797
 62
7
  0
LINE
  6
BYLAYER
  8
0
 10
143.651392459902
 11
143.651392459902
 20
-125.536827040806
 21
133.512921050797
 62
7
  0
LINE
  6
BYLAYER
  8
0
 10
143.651392459902
 11
143.657942078222
 20
-125.536827040806
 21
-126.04794917821
 62
7
  0
LINE
  6
BYLAYER
  8
0
 10
143.657942078222
 11
143.879369559138
 20
-126.04794917821
 21
-127.582575132409
 62
7
  0
LINE
  6
BYLAYER
  8
0
 10
143.879369559138
 11
144.502590933184
 20
-127.582575132409
 21
-129.539651468287
 62
7
  0
LINE
  6
BYLAYER
  8
0
 10
144.502590933184
 11
145.508461162192
 20
-129.539651468287
 21
-131.327697269813
 62
7
  0
LINE
  6
BYLAYER
  8
0
 10
145.508461162192
 11
146.503499330131
 20
-131.327697269813
 21
-132.523002613325
 62
7
  0
LINE
  6
BYLAYER
  8
0
 10
146.503499330131
 11
146.887659635474
 20
-132.523002613325
 21
-132.863582765997
 62
7
  0
LINE
  6
BYLAYER
  8
0
 10
146.887659635474
 11
147.35494971181
 20
-132.863582765997
 21
-133.277720170577
 62
7
  0
LINE
  6
BYLAYER
  8
0
 10
147.35494971181
 11
149.992682536237
 20
-133.277720170577
 21
-134.764735437752
 62
7
  0
LINE
  6
BYLAYER
  8
0
 10
149.992682536237
 11
152.946056582039
 20
-134.764735437752
 21
-135.44388047592
 62
7
  0
LINE
  6
BYLAYER
  8
0
 10
152.946056582039
 11
153.57053749807
 20
-135.44388047592
 21
-135.456223987371
 62
7
  0
LINE
  6
BYLAYER
  8
0
 10
94.8670642156268
 11
94.8670642156268
 20
-108.221903376684
 21
-107.112498796531
 62
7
  0
LINE
  6
BYLAYER
  8
0
 10
92.6832703224971
 11
94.8658046736421
 20
135.152844714919
 21
135.152844714919
 62
7
  0
LINE
  6
BYLAYER
  8
0
 10
93.0825451316573
 11
94.8658046736421
 20
-116.258285056073
 21
-116.258285056073
 62
7
  0
LINE
  6
BYLAYER
  8
0
 10
94.8670642156268
 11
94.8670642156268
 20
130.391776012629
 21
135.152844714919
 62
7
  0
LINE
  6
BYLAYER
  8
0
 10
94.8670642156268
 11
94.8670642156268
 20
-116.258285056073
 21
-111.499735437752
 62
7
  0
LINE
  6
BYLAYER
  8
0
 10
94.8670642156268
 11
94.8670642156268
 20
130.391776012629
 21
-111.500994979737
 62
7
  0
LINE
  6
BYLAYER
  8
0
 10
90.6017512385276
 11
92.6832703224971
 20
-116.395071315615
 21
-116.377185819432
 62
7
  0
LINE
  6
BYLAYER
  8
0
 10
90.6017512385276
 11
92.6832703224971
 20
135.28887524927
 21
135.271241661484
 62
7
  0
LINE
  6
BYLAYER
  8
0
 10
90.6017512385276
 11
90.6017512385276
 20
-111.444819407218
 21
130.338875249271
 62
7
  0
LINE
  6
BYLAYER
  8
0
 10
90.6017512385276
 11
90.6017512385276
 20
-111.444819407218
 21
-116.395071315615
 62
7
  0
LINE
  6
BYLAYER
  8
0
 10
83.2611405515047
 11
90.6017512385276
 20
-116.010911010271
 21
-116.395071315615
 62
7
  0
LINE
  6
BYLAYER
  8
0
 10
90.6017512385276
 11
90.6017512385276
 20
135.28887524927
 21
130.338875249271
 62
7
  0
LINE
  6
BYLAYER
  8
0
 10
77.4120794828024
 11
90.6017512385276
 20
134.601165325606
 21
135.28887524927
 62
7
  0
LINE
  6
BYLAYER
  8
0
 10
92.6832703224971
 11
92.6832703224971
 20
-116.377185819432
 21
-111.444819407218
 62
7
  0
LINE
  6
BYLAYER
  8
0
 10
92.6832703224971
 11
92.6832703224971
 20
130.338875249271
 21
-111.444819407218
 62
7
  0
LINE
  6
BYLAYER
  8
0
 10
92.6832703224971
 11
92.6832703224971
 20
135.271241661484
 21
130.338875249271
 62
7
  0
LINE
  6
BYLAYER
  8
0
 10
82.8661481850924
 11
82.8661481850924
 20
-111.052598033172
 21
-115.989246888134
 62
7
  0
LINE
  6
BYLAYER
  8
0
 10
78.4053542919627
 11
82.8661481850924
 20
-115.758246888134
 21
-115.989246888134
 62
7
  0
LINE
  6
BYLAYER
  8
0
 10
78.4053542919627
 11
78.4053542919627
 20
-113.669926277447
 21
-115.758246888134
 62
7
  0
LINE
  6
BYLAYER
  8
0
 10
82.8661481850924
 11
82.8661481850924
 20
-111.052598033172
 21
-111.03874307134
 62
7
  0
LINE
  6
BYLAYER
  8
0
 10
78.4053542919627
 11
70.0712168873825
 20
-113.669926277447
 21
-113.235384292714
 62
7
  0
LINE
  6
BYLAYER
  8
0
 10
82.8661481850924
 11
82.8565756660085
 20
0.38588288285834
 21
0.719661508812521
 62
7
  0
LINE
  6
BYLAYER
  8
0
 10
82.8565756660085
 11
82.4754382614283
 20
0.719661508812521
 21
2.27897448591173
 62
7
  0
LINE
  6
BYLAYER
  8
0
 10
82.4754382614283
 11
81.6459039102833
 20
2.27897448591173
 21
3.65212715766748
 62
7
  0
LINE
  6
BYLAYER
  8
0
 10
81.6459039102833
 11
81.4133924599016
 20
3.65212715766748
 21
3.89169204316369
 62
7
  0
LINE
  6
BYLAYER
  8
0
 10
78.4683313911993
 11
81.4133924599016
 20
6.83675311186593
 21
3.89169204316369
 62
7
  0
LINE
  6
BYLAYER
  8
0
 10
77.0155756660085
 11
77.0193542919627
 20
10.3463408981255
 21
10.0128141805682
 62
7
  0
LINE
  6
BYLAYER
  8
0
 10
77.0193542919627
 11
77.4050260476879
 20
10.0128141805682
 21
8.45350120346902
 62
7
  0
LINE
  6
BYLAYER
  8
0
 10
77.4050260476879
 11
78.238590933184
 20
8.45350120346902
 21
7.07984471491935
 62
7
  0
LINE
  6
BYLAYER
  8
0
 10
78.238590933184
 11
78.4683313911993
 20
7.07984471491935
 21
6.83675311186593
 62
7
  0
LINE
  6
BYLAYER
  8
0
 10
77.0155756660085
 11
77.0155756660085
 20
10.3463408981255
 21
129.625974485912
 62
7
  0
LINE
  6
BYLAYER
  8
0
 10
82.8661481850924
 11
82.8661481850924
 20
-111.03874307134
 21
0.38588288285834
 62
7
  0
LINE
  6
BYLAYER
  8
0
 10
77.0155756660085
 11
77.0155756660085
 20
134.578493569881
 21
129.625974485912
 62
7
  0
LINE
  6
BYLAYER
  8
0
 10
70.0712168873825
 11
77.0155756660085
 20
134.215745478278
 21
134.578493569881
 62
7
  0
LINE
  6
BYLAYER
  8
0
 10
70.0712168873825
 11
70.0712168873825
 20
-113.235384292714
 21
-110.261353758363
 62
7
  0
LINE
  6
BYLAYER
  8
0
 10
70.0712168873825
 11
70.0712168873825
 20
129.260707310339
 21
-110.261353758363
 62
7
  0
LINE
  6
BYLAYER
  8
0
 10
70.0712168873825
 11
70.0712168873825
 20
134.215745478278
 21
129.260707310339
 62
7
  0
LINE
  6
BYLAYER
  8
0
 10
98.5189802461612
 11
98.4874916965428
 20
67.9285699057591
 21
67.9285699057591
 62
7
  0
LINE
  6
BYLAYER
  8
0
 10
98.5189802461612
 11
98.8797130705887
 20
67.9285699057591
 21
68.5129973866752
 62
7
  0
LINE
  6
BYLAYER
  8
0
 10
98.8797130705887
 11
100.478827574405
 20
68.5129973866752
 21
71.5535317378202
 62
7
  0
LINE
  6
BYLAYER
  8
0
 10
100.478827574405
 11
101.74567490265
 20
71.5535317378202
 21
74.7426920431637
 62
7
  0
LINE
  6
BYLAYER
  8
0
 10
101.74567490265
 11
101.94115581868
 20
74.7426920431637
 21
75.4026920431636
 62
7
  0
LINE
  6
BYLAYER
  8
0
 10
101.94115581868
 11
102.136888643108
 20
75.4026920431636
 21
76.070249295072
 62
7
  0
LINE
  6
BYLAYER
  8
0
 10
102.136888643108
 11
103.220346658375
 20
76.070249295072
 21
82.8818523485072
 62
7
  0
LINE
  6
BYLAYER
  8
0
 10
103.220346658375
 11
103.241003146925
 20
82.8818523485072
 21
83.5771195240797
 62
7
  0
LINE
  6
BYLAYER
  8
0
 10
103.241003146925
 11
103.242262688909
 20
83.5771195240797
 21
83.6300202874385
 62
7
  0
LINE
  6
BYLAYER
  8
0
 10
103.242262688909
 11
103.24629322326
 20
83.6300202874385
 21
84.0784172340034
 62
7
  0
LINE
  6
BYLAYER
  8
0
 10
103.24629322326
 11
103.24629322326
 20
84.0784172340034
 21
84.2245241042324
 62
7
  0
LINE
  6
BYLAYER
  8
0
 10
103.24629322326
 11
103.24629322326
 20
84.2245241042324
 21
85.2548294477438
 62
7
  0
LINE
  6
BYLAYER
  8
0
 10
103.24629322326
 11
102.968690169825
 20
85.2548294477438
 21
88.3381882263697
 62
7
  0
LINE
  6
BYLAYER
  8
0
 10
102.968690169825
 11
102.321285589673
 20
88.3381882263697
 21
91.7112416614843
 62
7
  0
LINE
  6
BYLAYER
  8
0
 10
102.321285589673
 11
102.136888643108
 20
91.7112416614843
 21
92.3712416614843
 62
7
  0
LINE
  6
BYLAYER
  8
0
 10
102.136888643108
 11
101.947957345398
 20
92.3712416614843
 21
93.0413179973621
 62
7
  0
LINE
  6
BYLAYER
  8
0
 10
101.947957345398
 11
100.745346658375
 20
93.0413179973621
 21
96.280859982095
 62
7
  0
LINE
  6
BYLAYER
  8
0
 10
100.745346658375
 11
99.2117283377642
 20
96.280859982095
 21
99.3717760126293
 62
7
  0
LINE
  6
BYLAYER
  8
0
 10
99.2117283377642
 11
98.859056582039
 20
99.3717760126293
 21
99.9687989133927
 62
7
  0
LINE
  6
BYLAYER
  8
0
 10
98.859056582039
 11
98.8318504751688
 20
99.9687989133927
 21
100.016661508813
 62
7
  0
LINE
  6
BYLAYER
  8
0
 10
98.8318504751688
 11
98.5464382614284
 20
100.016661508813
 21
100.477653875225
 62
7
  0
LINE
  6
BYLAYER
  8
0
 10
98.5464382614284
 11
98.5189802461612
 20
100.477653875225
 21
100.522997386675
 62
7
  0
LINE
  6
BYLAYER
  8
0
 10
98.5189802461612
 11
98.4874916965428
 20
100.522997386675
 21
100.522997386675
 62
7
  0
LINE
  6
BYLAYER
  8
0
 10
98.5189802461612
 11
98.5189802461612
 20
67.9285699057591
 21
76.4128447149194
 62
7
  0
LINE
  6
BYLAYER
  8
0
 10
98.5189802461612
 11
98.5189802461612
 20
76.4128447149194
 21
100.522997386675
 62
7
  0
LINE
  6
BYLAYER
  8
0
 10
95.89888100952
 11
96.1339115438711
 20
64.3917760126293
 21
64.6688752492705
 62
7
  0
LINE
  6
BYLAYER
  8
0
 10
96.1339115438711
 11
98.2867207041764
 20
64.6688752492705
 21
67.5758981500339
 62
7
  0
LINE
  6
BYLAYER
  8
0
 10
98.2867207041764
 11
98.4874916965428
 20
67.5758981500339
 21
67.8807073103393
 62
7
  0
LINE
  6
BYLAYER
  8
0
 10
98.4874916965428
 11
98.2907512385276
 20
100.570859982095
 21
100.873150058431
 62
7
  0
LINE
  6
BYLAYER
  8
0
 10
98.2907512385276
 11
97.265735971352
 20
100.873150058431
 21
102.372005020263
 62
7
  0
LINE
  6
BYLAYER
  8
0
 10
97.265735971352
 11
96.1424764293673
 20
102.372005020263
 21
103.795287463011
 62
7
  0
LINE
  6
BYLAYER
  8
0
 10
96.1424764293673
 11
95.89888100952
 20
103.795287463011
 21
104.059791279805
 62
7
  0
LINE
  6
BYLAYER
  8
0
 10
98.4874916965428
 11
98.4874916965428
 20
92.06139433324
 21
67.8807073103393
 62
7
  0
LINE
  6
BYLAYER
  8
0
 10
98.4874916965428
 11
98.4874916965428
 20
100.570859982095
 21
92.06139433324
 62
7
  0
ENDSEC
  0
EOF
