  0
SECTION
  2
HEADER
  9
$ACADVER
  1
AC1015
  9
$ACADMAINTVER
 70
     6
  9
$DWGCODEPAGE
  3
ASCII
  9
$INSBASE
 10
0.0
 20
0.0
 30
0.0
  9
$EXTMIN
 10
1.000000000000000E+20
 20
1.000000000000000E+20
 30
1.000000000000000E+20
  9
$EXTMAX
 10
-1.000000000000000E+20
 20
-1.000000000000000E+20
 30
-1.000000000000000E+20
  9
$LIMMIN
 10
0.0
 20
0.0
  9
$LIMMAX
 10
12.0
 20
9.0
  9
$ORTHOMODE
 70
     0
  9
$REGENMODE
 70
     1
  9
$FILLMODE
 70
     1
  9
$QTEXTMODE
 70
     0
  9
$MIRRTEXT
 70
     1
  9
$LTSCALE
 40
1.0
  9
$ATTMODE
 70
     1
  9
$TEXTSIZE
 40
0.2
  9
$TRACEWID
 40
0.05
  9
$TEXTSTYLE
  7
Standard
  9
$CLAYER
  8
0
  9
$CELTYPE
  6
ByLayer
  9
$CECOLOR
 62
   256
  9
$CELTSCALE
 40
1.0
  9
$DISPSILH
 70
     0
  9
$DIMSCALE
 40
1.0
  9
$DIMASZ
 40
0.18
  9
$DIMEXO
 40
0.0625
  9
$DIMDLI
 40
0.38
  9
$DIMRND
 40
0.0
  9
$DIMDLE
 40
0.0
  9
$DIMEXE
 40
0.18
  9
$DIMTP
 40
0.0
  9
$DIMTM
 40
0.0
  9
$DIMTXT
 40
0.18
  9
$DIMCEN
 40
0.09
  9
$DIMTSZ
 40
0.0
  9
$DIMTOL
 70
     0
  9
$DIMLIM
 70
     0
  9
$DIMTIH
 70
     1
  9
$DIMTOH
 70
     1
  9
$DIMSE1
 70
     0
  9
$DIMSE2
 70
     0
  9
$DIMTAD
 70
     0
  9
$DIMZIN
 70
     0
  9
$DIMBLK
  1

  9
$DIMASO
 70
     1
  9
$DIMSHO
 70
     1
  9
$DIMPOST
  1

  9
$DIMAPOST
  1

  9
$DIMALT
 70
     0
  9
$DIMALTD
 70
     2
  9
$DIMALTF
 40
25.4
  9
$DIMLFAC
 40
1.0
  9
$DIMTOFL
 70
     0
  9
$DIMTVP
 40
0.0
  9
$DIMTIX
 70
     0
  9
$DIMSOXD
 70
     0
  9
$DIMSAH
 70
     0
  9
$DIMBLK1
  1

  9
$DIMBLK2
  1

  9
$DIMSTYLE
  2
Standard
  9
$DIMCLRD
 70
     0
  9
$DIMCLRE
 70
     0
  9
$DIMCLRT
 70
     0
  9
$DIMTFAC
 40
1.0
  9
$DIMGAP
 40
0.09
  9
$DIMJUST
 70
     0
  9
$DIMSD1
 70
     0
  9
$DIMSD2
 70
     0
  9
$DIMTOLJ
 70
     1
  9
$DIMTZIN
 70
     0
  9
$DIMALTZ
 70
     0
  9
$DIMALTTZ
 70
     0
  9
$DIMUPT
 70
     0
  9
$DIMDEC
 70
     4
  9
$DIMTDEC
 70
     4
  9
$DIMALTU
 70
     2
  9
$DIMALTTD
 70
     2
  9
$DIMTXSTY
  7
Standard
  9
$DIMAUNIT
 70
     0
  9
$DIMADEC
 70
     0
  9
$DIMALTRND
 40
0.0
  9
$DIMAZIN
 70
     0
  9
$DIMDSEP
 70
    46
  9
$DIMATFIT
 70
     3
  9
$DIMFRAC
 70
     0
  9
$DIMLDRBLK
  1

  9
$DIMLUNIT
 70
     2
  9
$DIMLWD
 70
    -2
  9
$DIMLWE
 70
    -2
  9
$DIMTMOVE
 70
     0
  9
$LUNITS
 70
     2
  9
$LUPREC
 70
     4
  9
$SKETCHINC
 40
0.1
  9
$FILLETRAD
 40
0.5
  9
$AUNITS
 70
     0
  9
$AUPREC
 70
     0
  9
$MENU
  1
.
  9
$ELEVATION
 40
0.0
  9
$PELEVATION
 40
0.0
  9
$THICKNESS
 40
0.0
  9
$LIMCHECK
 70
     0
  9
$CHAMFERA
 40
0.5
  9
$CHAMFERB
 40
0.5
  9
$CHAMFERC
 40
1.0
  9
$CHAMFERD
 40
0.0
  9
$SKPOLY
 70
     0
  9
$TDCREATE
 40
2456069.595105231
  9
$TDUCREATE
 40
2456069.511771898
  9
$TDUPDATE
 40
2456069.595105243
  9
$TDUUPDATE
 40
2456069.51177191
  9
$TDINDWG
 40
0.0000000116
  9
$TDUSRTIMER
 40
0.0000000116
  9
$USRTIMER
 70
     1
  9
$ANGBASE
 50
0.0
  9
$ANGDIR
 70
     0
  9
$PDMODE
 70
     0
  9
$PDSIZE
 40
0.0
  9
$PLINEWID
 40
0.0
  9
$SPLFRAME
 70
     0
  9
$SPLINETYPE
 70
     6
  9
$SPLINESEGS
 70
     8
  9
$HANDSEED
  5
3A9
  9
$SURFTAB1
 70
     6
  9
$SURFTAB2
 70
     6
  9
$SURFTYPE
 70
     6
  9
$SURFU
 70
     6
  9
$SURFV
 70
     6
  9
$UCSBASE
  2

  9
$UCSNAME
  2

  9
$UCSORG
 10
0.0
 20
0.0
 30
0.0
  9
$UCSXDIR
 10
1.0
 20
0.0
 30
0.0
  9
$UCSYDIR
 10
0.0
 20
1.0
 30
0.0
  9
$UCSORTHOREF
  2

  9
$UCSORTHOVIEW
 70
     0
  9
$UCSORGTOP
 10
0.0
 20
0.0
 30
0.0
  9
$UCSORGBOTTOM
 10
0.0
 20
0.0
 30
0.0
  9
$UCSORGLEFT
 10
0.0
 20
0.0
 30
0.0
  9
$UCSORGRIGHT
 10
0.0
 20
0.0
 30
0.0
  9
$UCSORGFRONT
 10
0.0
 20
0.0
 30
0.0
  9
$UCSORGBACK
 10
0.0
 20
0.0
 30
0.0
  9
$PUCSBASE
  2

  9
$PUCSNAME
  2

  9
$PUCSORG
 10
0.0
 20
0.0
 30
0.0
  9
$PUCSXDIR
 10
1.0
 20
0.0
 30
0.0
  9
$PUCSYDIR
 10
0.0
 20
1.0
 30
0.0
  9
$PUCSORTHOREF
  2

  9
$PUCSORTHOVIEW
 70
     0
  9
$PUCSORGTOP
 10
0.0
 20
0.0
 30
0.0
  9
$PUCSORGBOTTOM
 10
0.0
 20
0.0
 30
0.0
  9
$PUCSORGLEFT
 10
0.0
 20
0.0
 30
0.0
  9
$PUCSORGRIGHT
 10
0.0
 20
0.0
 30
0.0
  9
$PUCSORGFRONT
 10
0.0
 20
0.0
 30
0.0
  9
$PUCSORGBACK
 10
0.0
 20
0.0
 30
0.0
  9
$USERI1
 70
     0
  9
$USERI2
 70
     0
  9
$USERI3
 70
     0
  9
$USERI4
 70
     0
  9
$USERI5
 70
     0
  9
$USERR1
 40
0.0
  9
$USERR2
 40
0.0
  9
$USERR3
 40
0.0
  9
$USERR4
 40
0.0
  9
$USERR5
 40
0.0
  9
$WORLDVIEW
 70
     1
  9
$SHADEDGE
 70
     3
  9
$SHADEDIF
 70
    70
  9
$TILEMODE
 70
     1
  9
$MAXACTVP
 70
    64
  9
$PINSBASE
 10
0.0
 20
0.0
 30
0.0
  9
$PLIMCHECK
 70
     0
  9
$PEXTMIN
 10
1.000000000000000E+20
 20
1.000000000000000E+20
 30
1.000000000000000E+20
  9
$PEXTMAX
 10
-1.000000000000000E+20
 20
-1.000000000000000E+20
 30
-1.000000000000000E+20
  9
$PLIMMIN
 10
0.0
 20
0.0
  9
$PLIMMAX
 10
12.0
 20
9.0
  9
$UNITMODE
 70
     0
  9
$VISRETAIN
 70
     1
  9
$PLINEGEN
 70
     0
  9
$PSLTSCALE
 70
     1
  9
$TREEDEPTH
 70
  3020
  9
$CMLSTYLE
  2
Standard
  9
$CMLJUST
 70
     0
  9
$CMLSCALE
 40
1.0
  9
$PROXYGRAPHICS
 70
     1
  9
$MEASUREMENT
 70
     0
  9
$CELWEIGHT
370
    -1
  9
$ENDCAPS
280
     0
  9
$JOINSTYLE
280
     0
  9
$LWDISPLAY
290
     1
  9
$INSUNITS
 70
     1
  9
$HYPERLINKBASE
  1

  9
$STYLESHEET
  1

  9
$XEDIT
290
     1
  9
$CEPSNTYPE
380
     0
  9
$PSTYLEMODE
290
     1
  9
$FINGERPRINTGUID
  2
{EB28C210-812C-4398-8E03-759BE92E6BDC}
  9
$VERSIONGUID
  2
{FAEB1C32-E019-11D5-929B-00C0DF256EC4}
  9
$EXTNAMES
290
     1
  9
$PSVPSCALE
 40
0.0
  9
$OLESTARTUP
290
     0
  0
ENDSEC
  0
SECTION
  2
CLASSES
  0
CLASS
  1
ACDBDICTIONARYWDFLT
  2
AcDbDictionaryWithDefault
  3
ObjectDBX Classes
 90
        0
280
     0
281
     0
  0
CLASS
  1
VISUALSTYLE
  2
AcDbVisualStyle
  3
ObjectDBX Classes
 90
     4095
280
     0
281
     0
  0
CLASS
  1
ACDBPLACEHOLDER
  2
AcDbPlaceHolder
  3
ObjectDBX Classes
 90
        0
280
     0
281
     0
  0
CLASS
  1
LAYOUT
  2
AcDbLayout
  3
ObjectDBX Classes
 90
        0
280
     0
281
     0
  0
ENDSEC
  0
SECTION
  2
TABLES
  0
TABLE
  2
VPORT
  5
8
330
0
100
AcDbSymbolTable
 70
     1
  0
VPORT
  5
29
330
8
100
AcDbSymbolTableRecord
100
AcDbViewportTableRecord
  2
*Active
 70
     0
 10
0.0
 20
0.0
 11
1.0
 21
1.0
 12
0.0
 22
0.0
 13
0.0
 23
0.0
 14
0.5
 24
0.5
 15
0.5
 25
0.5
 16
0.0
 26
0.0
 36
1.0
 17
10.4944395648141
 27
14.85336672856392
 37
0.0
 40
30.27795684814085
 41
0.7070707187937394
 42
50.0
 43
0.0
 44
0.0
 50
0.0
 51
0.0
 71
     0
 72
   100
 73
     1
 74
     3
 75
     0
 76
     0
 77
     0
 78
     0
281
     0
 65
     1
110
0.0
120
0.0
130
0.0
111
1.0
121
0.0
131
0.0
112
0.0
122
1.0
132
0.0
 79
     0
146
0.0
  0
ENDTAB
  0
TABLE
  2
LTYPE
  5
5
330
0
100
AcDbSymbolTable
 70
     1
  0
LTYPE
  5
14
330
5
100
AcDbSymbolTableRecord
100
AcDbLinetypeTableRecord
  2
ByBlock
 70
     0
  3

 72
    65
 73
     0
 40
0.0
  0
LTYPE
  5
15
330
5
100
AcDbSymbolTableRecord
100
AcDbLinetypeTableRecord
  2
ByLayer
 70
     0
  3

 72
    65
 73
     0
 40
0.0
  0
LTYPE
  5
16
330
5
100
AcDbSymbolTableRecord
100
AcDbLinetypeTableRecord
  2
Continuous
 70
     0
  3
Solid line
 72
    65
 73
     0
 40
0.0
  0
ENDTAB
  0
TABLE
  2
LAYER
  5
2
330
0
100
AcDbSymbolTable
 70
     2
  0
LAYER
  5
10
330
2
100
AcDbSymbolTableRecord
100
AcDbLayerTableRecord
  2
0
 70
     0
 62
     7
  6
Continuous
370
    -3
390
F
  0
LAYER
  5
3B
330
2
100
AcDbSymbolTableRecord
100
AcDbLayerTableRecord
  2
Livello 1
 70
     0
 62
     7
  6
Continuous
370
    -3
390
F
  0
ENDTAB
  0
TABLE
  2
STYLE
  5
3
330
0
100
AcDbSymbolTable
 70
     1
  0
STYLE
  5
11
330
3
100
AcDbSymbolTableRecord
100
AcDbTextStyleTableRecord
  2
Standard
 70
     0
 40
0.0
 41
1.0
 50
0.0
 71
     0
 42
0.2
  3
txt
  4

  0
ENDTAB
  0
TABLE
  2
VIEW
  5
6
330
0
100
AcDbSymbolTable
 70
     0
  0
ENDTAB
  0
TABLE
  2
UCS
  5
7
330
0
100
AcDbSymbolTable
 70
     0
  0
ENDTAB
  0
TABLE
  2
APPID
  5
9
330
0
100
AcDbSymbolTable
 70
     1
  0
APPID
  5
12
330
9
100
AcDbSymbolTableRecord
100
AcDbRegAppTableRecord
  2
ACAD
 70
     0
  0
ENDTAB
  0
TABLE
  2
DIMSTYLE
  5
A
330
0
100
AcDbSymbolTable
 70
     1
100
AcDbDimStyleTable
  0
DIMSTYLE
105
27
330
A
100
AcDbSymbolTableRecord
100
AcDbDimStyleTableRecord
  2
Standard
 70
     0
340
11
  0
ENDTAB
  0
TABLE
  2
BLOCK_RECORD
  5
1
330
0
100
AcDbSymbolTable
 70
     8
  0
BLOCK_RECORD
  5
1F
330
1
100
AcDbSymbolTableRecord
100
AcDbBlockTableRecord
  2
*Model_Space
340
22
  0
BLOCK_RECORD
  5
1B
330
1
100
AcDbSymbolTableRecord
100
AcDbBlockTableRecord
  2
*Paper_Space
340
1E
  0
BLOCK_RECORD
  5
23
330
1
100
AcDbSymbolTableRecord
100
AcDbBlockTableRecord
  2
*Paper_Space0
340
26
  0
BLOCK_RECORD
  5
3C
330
1
100
AcDbSymbolTableRecord
100
AcDbBlockTableRecord
  2
block 2
340
0
102
{BLKREFS
331
3D
102
}
  0
BLOCK_RECORD
  5
46
330
1
100
AcDbSymbolTableRecord
100
AcDbBlockTableRecord
  2
block 3
340
0
102
{BLKREFS
331
47
102
}
  0
BLOCK_RECORD
  5
50
330
1
100
AcDbSymbolTableRecord
100
AcDbBlockTableRecord
  2
block 4
340
0
102
{BLKREFS
331
51
102
}
  0
BLOCK_RECORD
  5
5A
330
1
100
AcDbSymbolTableRecord
100
AcDbBlockTableRecord
  2
block 5
340
0
102
{BLKREFS
331
5B
102
}
  0
BLOCK_RECORD
  5
13C
330
1
100
AcDbSymbolTableRecord
100
AcDbBlockTableRecord
  2
block 6
340
0
102
{BLKREFS
331
13D
102
}
  0
BLOCK_RECORD
  5
394
330
1
100
AcDbSymbolTableRecord
100
AcDbBlockTableRecord
  2
block 7
340
0
102
{BLKREFS
331
395
102
}
  0
BLOCK_RECORD
  5
39E
330
1
100
AcDbSymbolTableRecord
100
AcDbBlockTableRecord
  2
block 8
340
0
102
{BLKREFS
331
39F
102
}
  0
ENDTAB
  0
ENDSEC
  0
SECTION
  2
BLOCKS
  0
BLOCK
  5
20
330
1F
100
AcDbEntity
  8
0
100
AcDbBlockBegin
  2
*Model_Space
 70
     0
 71
     0
 10
0.0
 20
0.0
 30
0.0
  3
*Model_Space
  1

  0
ENDBLK
  5
21
330
1F
100
AcDbEntity
  8
0
100
AcDbBlockEnd
  0
BLOCK
  5
1C
330
1B
100
AcDbEntity
 67
     1
  8
0
100
AcDbBlockBegin
  2
*Paper_Space
 70
     0
 71
     0
 10
0.0
 20
0.0
 30
0.0
  3
*Paper_Space
  1

  0
ENDBLK
  5
1D
330
1B
100
AcDbEntity
 67
     1
  8
0
100
AcDbBlockEnd
  0
BLOCK
  5
24
330
23
100
AcDbEntity
  8
0
100
AcDbBlockBegin
  2
*Paper_Space0
 70
     0
 71
     0
 10
0.0
 20
0.0
 30
0.0
  3
*Paper_Space0
  1

  0
ENDBLK
  5
25
330
23
100
AcDbEntity
  8
0
100
AcDbBlockEnd
  0
BLOCK
  5
3E
330
3C
100
AcDbEntity
  8
0
100
AcDbBlockBegin
  2
block 2
 70
     0
 71
     0
 10
0.0
 20
0.0
 30
0.0
  3
block 2
  1

  0
POLYLINE
  5
40
330
3C
100
AcDbEntity
  8
Livello 1
370
     0
100
AcDb2dPolyline
 66
     1
 10
0.0
 20
0.0
 30
0.0
  0
VERTEX
  5
41
330
40
100
AcDbEntity
  8
Livello 1
370
     0
100
AcDbVertex
100
AcDb2dVertex
 10
20.98887912962821
 20
0.0112310186909551
 30
0.0
  0
VERTEX
  5
42
330
40
100
AcDbEntity
  8
Livello 1
370
     0
100
AcDbVertex
100
AcDb2dVertex
 10
20.98887912962821
 20
29.69550243843689
 30
0.0
  0
VERTEX
  5
43
330
40
100
AcDbEntity
  8
Livello 1
370
     0
100
AcDbVertex
100
AcDb2dVertex
 10
0.0
 20
29.69550243843689
 30
0.0
  0
VERTEX
  5
44
330
40
100
AcDbEntity
  8
Livello 1
370
     0
100
AcDbVertex
100
AcDb2dVertex
 10
0.0
 20
0.0112310186909551
 30
0.0
  0
SEQEND
  5
45
330
40
100
AcDbEntity
  8
Livello 1
370
     0
  0
ENDBLK
  5
3F
330
3C
100
AcDbEntity
  8
0
100
AcDbBlockEnd
  0
BLOCK
  5
48
330
46
100
AcDbEntity
  8
0
100
AcDbBlockBegin
  2
block 3
 70
     0
 71
     0
 10
0.0
 20
0.0
 30
0.0
  3
block 3
  1

  0
POLYLINE
  5
4A
330
46
100
AcDbEntity
  8
Livello 1
370
     0
100
AcDb2dPolyline
 66
     1
 10
0.0
 20
0.0
 30
0.0
  0
VERTEX
  5
4B
330
4A
100
AcDbEntity
  8
Livello 1
370
     0
100
AcDbVertex
100
AcDb2dVertex
 10
20.98887912962821
 20
0.0112310186909551
 30
0.0
  0
VERTEX
  5
4C
330
4A
100
AcDbEntity
  8
Livello 1
370
     0
100
AcDbVertex
100
AcDb2dVertex
 10
20.98887912962821
 20
29.69550243843689
 30
0.0
  0
VERTEX
  5
4D
330
4A
100
AcDbEntity
  8
Livello 1
370
     0
100
AcDbVertex
100
AcDb2dVertex
 10
0.0
 20
29.69550243843689
 30
0.0
  0
VERTEX
  5
4E
330
4A
100
AcDbEntity
  8
Livello 1
370
     0
100
AcDbVertex
100
AcDb2dVertex
 10
0.0
 20
0.0112310186909551
 30
0.0
  0
SEQEND
  5
4F
330
4A
100
AcDbEntity
  8
Livello 1
370
     0
  0
ENDBLK
  5
49
330
46
100
AcDbEntity
  8
0
100
AcDbBlockEnd
  0
BLOCK
  5
52
330
50
100
AcDbEntity
  8
0
100
AcDbBlockBegin
  2
block 4
 70
     0
 71
     0
 10
0.0
 20
0.0
 30
0.0
  3
block 4
  1

  0
POLYLINE
  5
54
330
50
100
AcDbEntity
  8
Livello 1
370
     0
100
AcDb2dPolyline
 66
     1
 10
0.0
 20
0.0
 30
0.0
  0
VERTEX
  5
55
330
54
100
AcDbEntity
  8
Livello 1
370
     0
100
AcDbVertex
100
AcDb2dVertex
 10
20.98887912962821
 20
0.0112310186909551
 30
0.0
  0
VERTEX
  5
56
330
54
100
AcDbEntity
  8
Livello 1
370
     0
100
AcDbVertex
100
AcDb2dVertex
 10
20.98887912962821
 20
29.69550243843689
 30
0.0
  0
VERTEX
  5
57
330
54
100
AcDbEntity
  8
Livello 1
370
     0
100
AcDbVertex
100
AcDb2dVertex
 10
0.0
 20
29.69550243843689
 30
0.0
  0
VERTEX
  5
58
330
54
100
AcDbEntity
  8
Livello 1
370
     0
100
AcDbVertex
100
AcDb2dVertex
 10
0.0
 20
0.0112310186909551
 30
0.0
  0
SEQEND
  5
59
330
54
100
AcDbEntity
  8
Livello 1
370
     0
  0
ENDBLK
  5
53
330
50
100
AcDbEntity
  8
0
100
AcDbBlockEnd
  0
BLOCK
  5
5C
330
5A
100
AcDbEntity
  8
0
100
AcDbBlockBegin
  2
block 5
 70
     0
 71
     0
 10
0.0
 20
0.0
 30
0.0
  3
block 5
  1

  0
POLYLINE
  5
5E
330
5A
100
AcDbEntity
  8
Livello 1
370
     0
100
AcDb2dPolyline
 66
     1
 10
0.0
 20
0.0
 30
0.0
  0
VERTEX
  5
5F
330
5E
100
AcDbEntity
  8
Livello 1
370
     0
100
AcDbVertex
100
AcDb2dVertex
 10
20.98887912962821
 20
0.0112310186909551
 30
0.0
  0
VERTEX
  5
60
330
5E
100
AcDbEntity
  8
Livello 1
370
     0
100
AcDbVertex
100
AcDb2dVertex
 10
20.98887912962821
 20
29.69550243843689
 30
0.0
  0
VERTEX
  5
61
330
5E
100
AcDbEntity
  8
Livello 1
370
     0
100
AcDbVertex
100
AcDb2dVertex
 10
0.0
 20
29.69550243843689
 30
0.0
  0
VERTEX
  5
62
330
5E
100
AcDbEntity
  8
Livello 1
370
     0
100
AcDbVertex
100
AcDb2dVertex
 10
0.0
 20
0.0112310186909551
 30
0.0
  0
SEQEND
  5
63
330
5E
100
AcDbEntity
  8
Livello 1
370
     0
  0
POLYLINE
  5
64
330
5A
100
AcDbEntity
  8
Livello 1
 62
   250
370
    15
100
AcDb2dPolyline
 66
     1
 10
0.0
 20
0.0
 30
0.0
  0
VERTEX
  5
65
330
64
100
AcDbEntity
  8
Livello 1
 62
   250
370
    15
100
AcDbVertex
100
AcDb2dVertex
 10
3.027327978342464
 20
21.71197069804679
 30
0.0
  0
VERTEX
  5
66
330
64
100
AcDbEntity
  8
Livello 1
 62
   250
370
    15
100
AcDbVertex
100
AcDb2dVertex
 10
3.027327978342464
 20
14.22573881901846
 30
0.0
  0
SEQEND
  5
67
330
64
100
AcDbEntity
  8
Livello 1
370
    15
  0
POLYLINE
  5
68
330
5A
100
AcDbEntity
  8
Livello 1
 62
   250
370
    15
100
AcDb2dPolyline
 66
     1
 10
0.0
 20
0.0
 30
0.0
  0
VERTEX
  5
69
330
68
100
AcDbEntity
  8
Livello 1
 62
   250
370
    15
100
AcDbVertex
100
AcDb2dVertex
 10
4.359581732323829
 20
15.15216005711194
 30
0.0
  0
VERTEX
  5
6A
330
68
100
AcDbEntity
  8
Livello 1
 62
   250
370
    15
100
AcDbVertex
100
AcDb2dVertex
 10
4.359581732323829
 20
20.78563558739726
 30
0.0
  0
SEQEND
  5
6B
330
68
100
AcDbEntity
  8
Livello 1
370
    15
  0
POLYLINE
  5
6C
330
5A
100
AcDbEntity
  8
Livello 1
 62
   250
370
    15
100
AcDb2dPolyline
 66
     1
 10
0.0
 20
0.0
 30
0.0
  0
VERTEX
  5
6D
330
6C
100
AcDbEntity
  8
Livello 1
 62
   250
370
    15
100
AcDbVertex
100
AcDb2dVertex
 10
4.374102819373637
 20
20.81323082043853
 30
0.0
  0
VERTEX
  5
6E
330
6C
100
AcDbEntity
  8
Livello 1
 62
   250
370
    15
100
AcDbVertex
100
AcDb2dVertex
 10
4.374102819373637
 20
20.80007054700312
 30
0.0
  0
SEQEND
  5
6F
330
6C
100
AcDbEntity
  8
Livello 1
370
    15
  0
POLYLINE
  5
70
330
5A
100
AcDbEntity
  8
Livello 1
 62
   250
370
    15
100
AcDb2dPolyline
 66
     1
 10
0.0
 20
0.0
 30
0.0
  0
VERTEX
  5
71
330
70
100
AcDbEntity
  8
Livello 1
 62
   250
370
    15
100
AcDbVertex
100
AcDb2dVertex
 10
4.374102819373637
 20
15.12316955947869
 30
0.0
  0
VERTEX
  5
72
330
70
100
AcDbEntity
  8
Livello 1
 62
   250
370
    15
100
AcDbVertex
100
AcDb2dVertex
 10
4.374102819373637
 20
15.1376906465285
 30
0.0
  0
SEQEND
  5
73
330
70
100
AcDbEntity
  8
Livello 1
370
    15
  0
POLYLINE
  5
74
330
5A
100
AcDbEntity
  8
Livello 1
 62
   250
370
    15
100
AcDb2dPolyline
 66
     1
 10
0.0
 20
0.0
 30
0.0
  0
VERTEX
  5
75
330
74
100
AcDbEntity
  8
Livello 1
 62
   250
370
    15
100
AcDbVertex
100
AcDb2dVertex
 10
3.056318475975712
 20
14.19552531168114
 30
0.0
  0
VERTEX
  5
76
330
74
100
AcDbEntity
  8
Livello 1
 62
   250
370
    15
100
AcDbVertex
100
AcDb2dVertex
 10
12.56785442495456
 20
14.19552531168114
 30
0.0
  0
SEQEND
  5
77
330
74
100
AcDbEntity
  8
Livello 1
370
    15
  0
POLYLINE
  5
78
330
5A
100
AcDbEntity
  8
Livello 1
 62
   250
370
    15
100
AcDb2dPolyline
 66
     1
 10
0.0
 20
0.0
 30
0.0
  0
VERTEX
  5
79
330
78
100
AcDbEntity
  8
Livello 1
 62
   250
370
    15
100
AcDbVertex
100
AcDb2dVertex
 10
4.533559169100894
 20
20.45349371255217
 30
0.0
  0
VERTEX
  5
7A
330
78
100
AcDbEntity
  8
Livello 1
 62
   250
370
    15
100
AcDbVertex
100
AcDb2dVertex
 10
4.533559169100894
 20
20.55238524369446
 30
0.0
  0
SEQEND
  5
7B
330
78
100
AcDbEntity
  8
Livello 1
370
    15
  0
POLYLINE
  5
7C
330
5A
100
AcDbEntity
  8
Livello 1
 62
   250
370
    15
100
AcDb2dPolyline
 66
     1
 10
0.0
 20
0.0
 30
0.0
  0
VERTEX
  5
7D
330
7C
100
AcDbEntity
  8
Livello 1
 62
   250
370
    15
100
AcDbVertex
100
AcDb2dVertex
 10
4.548045805173123
 20
20.45747280046262
 30
0.0
  0
VERTEX
  5
7E
330
7C
100
AcDbEntity
  8
Livello 1
 62
   250
370
    15
100
AcDbVertex
100
AcDb2dVertex
 10
4.548045805173123
 20
20.64068309923102
 30
0.0
  0
SEQEND
  5
7F
330
7C
100
AcDbEntity
  8
Livello 1
370
    15
  0
POLYLINE
  5
80
330
5A
100
AcDbEntity
  8
Livello 1
 62
   250
370
    15
100
AcDb2dPolyline
 66
     1
 10
0.0
 20
0.0
 30
0.0
  0
VERTEX
  5
81
330
80
100
AcDbEntity
  8
Livello 1
 62
   250
370
    15
100
AcDbVertex
100
AcDb2dVertex
 10
4.536194668885734
 20
15.50798697904301
 30
0.0
  0
VERTEX
  5
82
330
80
100
AcDbEntity
  8
Livello 1
 62
   250
370
    15
100
AcDbVertex
100
AcDb2dVertex
 10
4.536194668885734
 20
20.42987756742135
 30
0.0
  0
SEQEND
  5
83
330
80
100
AcDbEntity
  8
Livello 1
370
    15
  0
POLYLINE
  5
84
330
5A
100
AcDbEntity
  8
Livello 1
 62
   250
370
    15
100
AcDb2dPolyline
 66
     1
 10
0.0
 20
0.0
 30
0.0
  0
VERTEX
  5
85
330
84
100
AcDbEntity
  8
Livello 1
 62
   250
370
    15
100
AcDbVertex
100
AcDb2dVertex
 10
4.548045805173123
 20
15.29716422174455
 30
0.0
  0
VERTEX
  5
86
330
84
100
AcDbEntity
  8
Livello 1
 62
   250
370
    15
100
AcDbVertex
100
AcDb2dVertex
 10
4.548045805173123
 20
15.29187599668608
 30
0.0
  0
SEQEND
  5
87
330
84
100
AcDbEntity
  8
Livello 1
370
    15
  0
POLYLINE
  5
88
330
5A
100
AcDbEntity
  8
Livello 1
 62
   250
370
    15
100
AcDb2dPolyline
 66
     1
 10
0.0
 20
0.0
 30
0.0
  0
VERTEX
  5
89
330
88
100
AcDbEntity
  8
Livello 1
 62
   250
370
    15
100
AcDbVertex
100
AcDb2dVertex
 10
4.533559169100894
 20
15.48423303000187
 30
0.0
  0
VERTEX
  5
8A
330
88
100
AcDbEntity
  8
Livello 1
 62
   250
370
    15
100
AcDbVertex
100
AcDb2dVertex
 10
4.533559169100894
 20
15.3854620772811
 30
0.0
  0
SEQEND
  5
8B
330
88
100
AcDbEntity
  8
Livello 1
370
    15
  0
POLYLINE
  5
8C
330
5A
100
AcDbEntity
  8
Livello 1
 62
   250
370
    15
100
AcDb2dPolyline
 66
     1
 10
0.0
 20
0.0
 30
0.0
  0
VERTEX
  5
8D
330
8C
100
AcDbEntity
  8
Livello 1
 62
   250
370
    15
100
AcDbVertex
100
AcDb2dVertex
 10
4.548045805173123
 20
15.48025394209142
 30
0.0
  0
VERTEX
  5
8E
330
8C
100
AcDbEntity
  8
Livello 1
 62
   250
370
    15
100
AcDbVertex
100
AcDb2dVertex
 10
4.548045805173123
 20
15.29716422174455
 30
0.0
  0
SEQEND
  5
8F
330
8C
100
AcDbEntity
  8
Livello 1
370
    15
  0
POLYLINE
  5
90
330
5A
100
AcDbEntity
  8
Livello 1
 62
   250
370
    15
100
AcDb2dPolyline
 66
     1
 10
0.0
 20
0.0
 30
0.0
  0
VERTEX
  5
91
330
90
100
AcDbEntity
  8
Livello 1
 62
   250
370
    15
100
AcDbVertex
100
AcDb2dVertex
 10
4.372742005759243
 20
15.12186042233066
 30
0.0
  0
VERTEX
  5
92
330
90
100
AcDbEntity
  8
Livello 1
 62
   250
370
    15
100
AcDbVertex
100
AcDb2dVertex
 10
11.2514825716374
 20
15.12186042233066
 30
0.0
  0
SEQEND
  5
93
330
90
100
AcDbEntity
  8
Livello 1
370
    15
  0
POLYLINE
  5
94
330
5A
100
AcDbEntity
  8
Livello 1
 62
   250
370
    15
100
AcDb2dPolyline
 66
     1
 10
0.0
 20
0.0
 30
0.0
  0
VERTEX
  5
95
330
94
100
AcDbEntity
  8
Livello 1
 62
   250
370
    15
100
AcDbVertex
100
AcDb2dVertex
 10
11.25017343448937
 20
15.12316955947869
 30
0.0
  0
VERTEX
  5
96
330
94
100
AcDbEntity
  8
Livello 1
 62
   250
370
    15
100
AcDbVertex
100
AcDb2dVertex
 10
4.374051142907268
 20
15.12316955947869
 30
0.0
  0
SEQEND
  5
97
330
94
100
AcDbEntity
  8
Livello 1
370
    15
  0
POLYLINE
  5
98
330
5A
100
AcDbEntity
  8
Livello 1
 62
   250
370
    15
100
AcDb2dPolyline
 66
     1
 10
0.0
 20
0.0
 30
0.0
  0
VERTEX
  5
99
330
98
100
AcDbEntity
  8
Livello 1
 62
   250
370
    15
100
AcDbVertex
100
AcDb2dVertex
 10
11.25017343448937
 20
15.13765619555092
 30
0.0
  0
VERTEX
  5
9A
330
98
100
AcDbEntity
  8
Livello 1
 62
   250
370
    15
100
AcDbVertex
100
AcDb2dVertex
 10
4.374051142907268
 20
15.13765619555092
 30
0.0
  0
SEQEND
  5
9B
330
98
100
AcDbEntity
  8
Livello 1
370
    15
  0
POLYLINE
  5
9C
330
5A
100
AcDbEntity
  8
Livello 1
 62
   250
370
    15
100
AcDb2dPolyline
 66
     1
 10
0.0
 20
0.0
 30
0.0
  0
VERTEX
  5
9D
330
9C
100
AcDbEntity
  8
Livello 1
 62
   250
370
    15
100
AcDbVertex
100
AcDb2dVertex
 10
4.547994128706754
 20
15.29187599668608
 30
0.0
  0
VERTEX
  5
9E
330
9C
100
AcDbEntity
  8
Livello 1
 62
   250
370
    15
100
AcDbVertex
100
AcDb2dVertex
 10
11.07750513486033
 20
15.29187599668608
 30
0.0
  0
SEQEND
  5
9F
330
9C
100
AcDbEntity
  8
Livello 1
370
    15
  0
POLYLINE
  5
A0
330
5A
100
AcDbEntity
  8
Livello 1
 62
   250
370
    15
100
AcDb2dPolyline
 66
     1
 10
0.0
 20
0.0
 30
0.0
  0
VERTEX
  5
A1
330
A0
100
AcDbEntity
  8
Livello 1
 62
   250
370
    15
100
AcDbVertex
100
AcDb2dVertex
 10
4.547994128706754
 20
15.29716422174455
 30
0.0
  0
VERTEX
  5
A2
330
A0
100
AcDbEntity
  8
Livello 1
 62
   250
370
    15
100
AcDbVertex
100
AcDb2dVertex
 10
11.07750513486033
 20
15.29716422174455
 30
0.0
  0
SEQEND
  5
A3
330
A0
100
AcDbEntity
  8
Livello 1
370
    15
  0
POLYLINE
  5
A4
330
5A
100
AcDbEntity
  8
Livello 1
 62
   250
370
    15
100
AcDb2dPolyline
 66
     1
 10
0.0
 20
0.0
 30
0.0
  0
VERTEX
  5
A5
330
A4
100
AcDbEntity
  8
Livello 1
 62
   250
370
    15
100
AcDbVertex
100
AcDb2dVertex
 10
4.547994128706754
 20
15.480288393069
 30
0.0
  0
VERTEX
  5
A6
330
A4
100
AcDbEntity
  8
Livello 1
 62
   250
370
    15
100
AcDbVertex
100
AcDb2dVertex
 10
11.07612709575715
 20
15.480288393069
 30
0.0
  0
SEQEND
  5
A7
330
A4
100
AcDbEntity
  8
Livello 1
370
    15
  0
POLYLINE
  5
A8
330
5A
100
AcDbEntity
  8
Livello 1
 62
   250
370
    15
100
AcDb2dPolyline
 66
     1
 10
0.0
 20
0.0
 30
0.0
  0
VERTEX
  5
A9
330
A8
100
AcDbEntity
  8
Livello 1
 62
   250
370
    15
100
AcDbVertex
100
AcDb2dVertex
 10
4.549354942321148
 20
15.49083039220836
 30
0.0
  0
VERTEX
  5
AA
330
A8
100
AcDbEntity
  8
Livello 1
 62
   250
370
    15
100
AcDbVertex
100
AcDb2dVertex
 10
11.07612709575715
 20
15.49083039220836
 30
0.0
  0
SEQEND
  5
AB
330
A8
100
AcDbEntity
  8
Livello 1
370
    15
  0
POLYLINE
  5
AC
330
5A
100
AcDbEntity
  8
Livello 1
 62
   250
370
    15
100
AcDb2dPolyline
 66
     1
 10
0.0
 20
0.0
 30
0.0
  0
VERTEX
  5
AD
330
AC
100
AcDbEntity
  8
Livello 1
 62
   250
370
    15
100
AcDbVertex
100
AcDb2dVertex
 10
11.07361217439384
 20
15.49350034297078
 30
0.0
  0
VERTEX
  5
AE
330
AC
100
AcDbEntity
  8
Livello 1
 62
   250
370
    15
100
AcDbVertex
100
AcDb2dVertex
 10
4.550664079469174
 20
15.49350034297078
 30
0.0
  0
SEQEND
  5
AF
330
AC
100
AcDbEntity
  8
Livello 1
370
    15
  0
POLYLINE
  5
B0
330
5A
100
AcDbEntity
  8
Livello 1
 62
   250
370
    15
100
AcDb2dPolyline
 66
     1
 10
0.0
 20
0.0
 30
0.0
  0
VERTEX
  5
B1
330
B0
100
AcDbEntity
  8
Livello 1
 62
   250
370
    15
100
AcDbVertex
100
AcDb2dVertex
 10
4.343699831659626
 20
15.15216005711194
 30
0.0
  0
VERTEX
  5
B2
330
B0
100
AcDbEntity
  8
Livello 1
 62
   250
370
    15
100
AcDbVertex
100
AcDb2dVertex
 10
4.3450950962516
 20
15.15348641974875
 30
0.0
  0
SEQEND
  5
B3
330
B0
100
AcDbEntity
  8
Livello 1
370
    15
  0
POLYLINE
  5
B4
330
5A
100
AcDbEntity
  8
Livello 1
 62
   250
370
    15
100
AcDb2dPolyline
 66
     1
 10
0.0
 20
0.0
 30
0.0
  0
VERTEX
  5
B5
330
B4
100
AcDbEntity
  8
Livello 1
 62
   250
370
    15
100
AcDbVertex
100
AcDb2dVertex
 10
4.372742005759243
 20
15.12186042233066
 30
0.0
  0
VERTEX
  5
B6
330
B4
100
AcDbEntity
  8
Livello 1
 62
   250
370
    15
100
AcDbVertex
100
AcDb2dVertex
 10
4.374051142907268
 20
15.12316955947869
 30
0.0
  0
SEQEND
  5
B7
330
B4
100
AcDbEntity
  8
Livello 1
370
    15
  0
POLYLINE
  5
B8
330
5A
100
AcDbEntity
  8
Livello 1
 62
   250
370
    15
100
AcDb2dPolyline
 66
     1
 10
0.0
 20
0.0
 30
0.0
  0
VERTEX
  5
B9
330
B8
100
AcDbEntity
  8
Livello 1
 62
   250
370
    15
100
AcDbVertex
100
AcDb2dVertex
 10
4.536142992419365
 20
15.50793530257664
 30
0.0
  0
VERTEX
  5
BA
330
B8
100
AcDbEntity
  8
Livello 1
 62
   250
370
    15
100
AcDbVertex
100
AcDb2dVertex
 10
4.533524718123314
 20
15.50535147925817
 30
0.0
  0
SEQEND
  5
BB
330
B8
100
AcDbEntity
  8
Livello 1
370
    15
  0
POLYLINE
  5
BC
330
5A
100
AcDbEntity
  8
Livello 1
 62
   250
370
    15
100
AcDb2dPolyline
 66
     1
 10
0.0
 20
0.0
 30
0.0
  0
VERTEX
  5
BD
330
BC
100
AcDbEntity
  8
Livello 1
 62
   250
370
    15
100
AcDbVertex
100
AcDb2dVertex
 10
4.550664079469174
 20
15.49350034297078
 30
0.0
  0
VERTEX
  5
BE
330
BC
100
AcDbEntity
  8
Livello 1
 62
   250
370
    15
100
AcDbVertex
100
AcDb2dVertex
 10
4.549354942321148
 20
15.49083039220836
 30
0.0
  0
SEQEND
  5
BF
330
BC
100
AcDbEntity
  8
Livello 1
370
    15
  0
POLYLINE
  5
C0
330
5A
100
AcDbEntity
  8
Livello 1
 62
   250
370
    15
100
AcDb2dPolyline
 66
     1
 10
0.0
 20
0.0
 30
0.0
  0
VERTEX
  5
C1
330
C0
100
AcDbEntity
  8
Livello 1
 62
   250
370
    15
100
AcDbVertex
100
AcDb2dVertex
 10
4.536142992419365
 20
20.42982589095498
 30
0.0
  0
VERTEX
  5
C2
330
C0
100
AcDbEntity
  8
Livello 1
 62
   250
370
    15
100
AcDbVertex
100
AcDb2dVertex
 10
4.533524718123314
 20
20.43240971427345
 30
0.0
  0
SEQEND
  5
C3
330
C0
100
AcDbEntity
  8
Livello 1
370
    15
  0
POLYLINE
  5
C4
330
5A
100
AcDbEntity
  8
Livello 1
 62
   250
370
    15
100
AcDb2dPolyline
 66
     1
 10
0.0
 20
0.0
 30
0.0
  0
VERTEX
  5
C5
330
C4
100
AcDbEntity
  8
Livello 1
 62
   250
370
    15
100
AcDbVertex
100
AcDb2dVertex
 10
4.550664079469174
 20
20.44431252702721
 30
0.0
  0
VERTEX
  5
C6
330
C4
100
AcDbEntity
  8
Livello 1
 62
   250
370
    15
100
AcDbVertex
100
AcDb2dVertex
 10
4.549354942321148
 20
20.44693080132326
 30
0.0
  0
SEQEND
  5
C7
330
C4
100
AcDbEntity
  8
Livello 1
370
    15
  0
POLYLINE
  5
C8
330
5A
100
AcDbEntity
  8
Livello 1
 62
   250
370
    15
100
AcDb2dPolyline
 66
     1
 10
0.0
 20
0.0
 30
0.0
  0
VERTEX
  5
C9
330
C8
100
AcDbEntity
  8
Livello 1
 62
   250
370
    15
100
AcDbVertex
100
AcDb2dVertex
 10
4.3450950962516
 20
20.78432645024924
 30
0.0
  0
VERTEX
  5
CA
330
C8
100
AcDbEntity
  8
Livello 1
 62
   250
370
    15
100
AcDbVertex
100
AcDb2dVertex
 10
4.343699831659626
 20
20.78560113641968
 30
0.0
  0
SEQEND
  5
CB
330
C8
100
AcDbEntity
  8
Livello 1
370
    15
  0
POLYLINE
  5
CC
330
5A
100
AcDbEntity
  8
Livello 1
 62
   250
370
    15
100
AcDb2dPolyline
 66
     1
 10
0.0
 20
0.0
 30
0.0
  0
VERTEX
  5
CD
330
CC
100
AcDbEntity
  8
Livello 1
 62
   250
370
    15
100
AcDbVertex
100
AcDb2dVertex
 10
4.374051142907268
 20
20.8132824969049
 30
0.0
  0
VERTEX
  5
CE
330
CC
100
AcDbEntity
  8
Livello 1
 62
   250
370
    15
100
AcDbVertex
100
AcDb2dVertex
 10
4.372742005759243
 20
20.81459163405293
 30
0.0
  0
SEQEND
  5
CF
330
CC
100
AcDbEntity
  8
Livello 1
370
    15
  0
POLYLINE
  5
D0
330
5A
100
AcDbEntity
  8
Livello 1
 62
   250
370
    15
100
AcDb2dPolyline
 66
     1
 10
0.0
 20
0.0
 30
0.0
  0
VERTEX
  5
D1
330
D0
100
AcDbEntity
  8
Livello 1
 62
   250
370
    15
100
AcDbVertex
100
AcDb2dVertex
 10
11.2514825716374
 20
20.81459163405293
 30
0.0
  0
VERTEX
  5
D2
330
D0
100
AcDbEntity
  8
Livello 1
 62
   250
370
    15
100
AcDbVertex
100
AcDb2dVertex
 10
11.25017343448937
 20
20.8132824969049
 30
0.0
  0
SEQEND
  5
D3
330
D0
100
AcDbEntity
  8
Livello 1
370
    15
  0
POLYLINE
  5
D4
330
5A
100
AcDbEntity
  8
Livello 1
 62
   250
370
    15
100
AcDb2dPolyline
 66
     1
 10
0.0
 20
0.0
 30
0.0
  0
VERTEX
  5
D5
330
D4
100
AcDbEntity
  8
Livello 1
 62
   250
370
    15
100
AcDbVertex
100
AcDb2dVertex
 10
11.28166162799714
 20
20.78560113641968
 30
0.0
  0
VERTEX
  5
D6
330
D4
100
AcDbEntity
  8
Livello 1
 62
   250
370
    15
100
AcDbVertex
100
AcDb2dVertex
 10
11.28045584378185
 20
20.78432645024924
 30
0.0
  0
SEQEND
  5
D7
330
D4
100
AcDbEntity
  8
Livello 1
370
    15
  0
POLYLINE
  5
D8
330
5A
100
AcDbEntity
  8
Livello 1
 62
   250
370
    15
100
AcDb2dPolyline
 66
     1
 10
0.0
 20
0.0
 30
0.0
  0
VERTEX
  5
D9
330
D8
100
AcDbEntity
  8
Livello 1
 62
   250
370
    15
100
AcDbVertex
100
AcDb2dVertex
 10
11.25017343448937
 20
15.12316955947869
 30
0.0
  0
VERTEX
  5
DA
330
D8
100
AcDbEntity
  8
Livello 1
 62
   250
370
    15
100
AcDbVertex
100
AcDb2dVertex
 10
11.2514825716374
 20
15.12186042233066
 30
0.0
  0
SEQEND
  5
DB
330
D8
100
AcDbEntity
  8
Livello 1
370
    15
  0
POLYLINE
  5
DC
330
5A
100
AcDbEntity
  8
Livello 1
 62
   250
370
    15
100
AcDb2dPolyline
 66
     1
 10
0.0
 20
0.0
 30
0.0
  0
VERTEX
  5
DD
330
DC
100
AcDbEntity
  8
Livello 1
 62
   250
370
    15
100
AcDbVertex
100
AcDb2dVertex
 10
11.28045584378185
 20
15.15348641974875
 30
0.0
  0
VERTEX
  5
DE
330
DC
100
AcDbEntity
  8
Livello 1
 62
   250
370
    15
100
AcDbVertex
100
AcDb2dVertex
 10
11.28166162799714
 20
15.15216005711194
 30
0.0
  0
SEQEND
  5
DF
330
DC
100
AcDbEntity
  8
Livello 1
370
    15
  0
POLYLINE
  5
E0
330
5A
100
AcDbEntity
  8
Livello 1
 62
   250
370
    15
100
AcDb2dPolyline
 66
     1
 10
0.0
 20
0.0
 30
0.0
  0
VERTEX
  5
E1
330
E0
100
AcDbEntity
  8
Livello 1
 62
   250
370
    15
100
AcDbVertex
100
AcDb2dVertex
 10
11.07361217439384
 20
20.44431252702721
 30
0.0
  0
VERTEX
  5
E2
330
E0
100
AcDbEntity
  8
Livello 1
 62
   250
370
    15
100
AcDbVertex
100
AcDb2dVertex
 10
11.07612709575715
 20
20.44693080132326
 30
0.0
  0
SEQEND
  5
E3
330
E0
100
AcDbEntity
  8
Livello 1
370
    15
  0
POLYLINE
  5
E4
330
5A
100
AcDbEntity
  8
Livello 1
 62
   250
370
    15
100
AcDb2dPolyline
 66
     1
 10
0.0
 20
0.0
 30
0.0
  0
VERTEX
  5
E5
330
E4
100
AcDbEntity
  8
Livello 1
 62
   250
370
    15
100
AcDbVertex
100
AcDb2dVertex
 10
11.08808158497727
 20
20.42982589095498
 30
0.0
  0
VERTEX
  5
E6
330
E4
100
AcDbEntity
  8
Livello 1
 62
   250
370
    15
100
AcDbVertex
100
AcDb2dVertex
 10
11.09066540829575
 20
20.43240971427345
 30
0.0
  0
SEQEND
  5
E7
330
E4
100
AcDbEntity
  8
Livello 1
370
    15
  0
POLYLINE
  5
E8
330
5A
100
AcDbEntity
  8
Livello 1
 62
   250
370
    15
100
AcDb2dPolyline
 66
     1
 10
0.0
 20
0.0
 30
0.0
  0
VERTEX
  5
E9
330
E8
100
AcDbEntity
  8
Livello 1
 62
   250
370
    15
100
AcDbVertex
100
AcDb2dVertex
 10
11.07361217439384
 20
15.49350034297078
 30
0.0
  0
VERTEX
  5
EA
330
E8
100
AcDbEntity
  8
Livello 1
 62
   250
370
    15
100
AcDbVertex
100
AcDb2dVertex
 10
11.07612709575715
 20
15.49083039220836
 30
0.0
  0
SEQEND
  5
EB
330
E8
100
AcDbEntity
  8
Livello 1
370
    15
  0
POLYLINE
  5
EC
330
5A
100
AcDbEntity
  8
Livello 1
 62
   250
370
    15
100
AcDb2dPolyline
 66
     1
 10
0.0
 20
0.0
 30
0.0
  0
VERTEX
  5
ED
330
EC
100
AcDbEntity
  8
Livello 1
 62
   250
370
    15
100
AcDbVertex
100
AcDb2dVertex
 10
11.08808158497727
 20
15.50793530257664
 30
0.0
  0
VERTEX
  5
EE
330
EC
100
AcDbEntity
  8
Livello 1
 62
   250
370
    15
100
AcDbVertex
100
AcDb2dVertex
 10
11.09066540829575
 20
15.50535147925817
 30
0.0
  0
SEQEND
  5
EF
330
EC
100
AcDbEntity
  8
Livello 1
370
    15
  0
POLYLINE
  5
F0
330
5A
100
AcDbEntity
  8
Livello 1
 62
   250
370
    15
100
AcDb2dPolyline
 66
     1
 10
0.0
 20
0.0
 30
0.0
  0
VERTEX
  5
F1
330
F0
100
AcDbEntity
  8
Livello 1
 62
   250
370
    15
100
AcDbVertex
100
AcDb2dVertex
 10
4.550664079469174
 20
20.44431252702721
 30
0.0
  0
VERTEX
  5
F2
330
F0
100
AcDbEntity
  8
Livello 1
 62
   250
370
    15
100
AcDbVertex
100
AcDb2dVertex
 10
11.07361217439384
 20
20.44431252702721
 30
0.0
  0
SEQEND
  5
F3
330
F0
100
AcDbEntity
  8
Livello 1
370
    15
  0
POLYLINE
  5
F4
330
5A
100
AcDbEntity
  8
Livello 1
 62
   250
370
    15
100
AcDb2dPolyline
 66
     1
 10
0.0
 20
0.0
 30
0.0
  0
VERTEX
  5
F5
330
F4
100
AcDbEntity
  8
Livello 1
 62
   250
370
    15
100
AcDbVertex
100
AcDb2dVertex
 10
11.07612709575715
 20
20.44693080132326
 30
0.0
  0
VERTEX
  5
F6
330
F4
100
AcDbEntity
  8
Livello 1
 62
   250
370
    15
100
AcDbVertex
100
AcDb2dVertex
 10
4.549354942321148
 20
20.44693080132326
 30
0.0
  0
SEQEND
  5
F7
330
F4
100
AcDbEntity
  8
Livello 1
370
    15
  0
POLYLINE
  5
F8
330
5A
100
AcDbEntity
  8
Livello 1
 62
   250
370
    15
100
AcDb2dPolyline
 66
     1
 10
0.0
 20
0.0
 30
0.0
  0
VERTEX
  5
F9
330
F8
100
AcDbEntity
  8
Livello 1
 62
   250
370
    15
100
AcDbVertex
100
AcDb2dVertex
 10
11.07612709575715
 20
20.45747280046262
 30
0.0
  0
VERTEX
  5
FA
330
F8
100
AcDbEntity
  8
Livello 1
 62
   250
370
    15
100
AcDbVertex
100
AcDb2dVertex
 10
4.547994128706754
 20
20.45747280046262
 30
0.0
  0
SEQEND
  5
FB
330
F8
100
AcDbEntity
  8
Livello 1
370
    15
  0
POLYLINE
  5
FC
330
5A
100
AcDbEntity
  8
Livello 1
 62
   250
370
    15
100
AcDb2dPolyline
 66
     1
 10
0.0
 20
0.0
 30
0.0
  0
VERTEX
  5
FD
330
FC
100
AcDbEntity
  8
Livello 1
 62
   250
370
    15
100
AcDbVertex
100
AcDb2dVertex
 10
11.07750513486033
 20
20.64068309923102
 30
0.0
  0
VERTEX
  5
FE
330
FC
100
AcDbEntity
  8
Livello 1
 62
   250
370
    15
100
AcDbVertex
100
AcDb2dVertex
 10
4.547994128706754
 20
20.64068309923102
 30
0.0
  0
SEQEND
  5
FF
330
FC
100
AcDbEntity
  8
Livello 1
370
    15
  0
POLYLINE
  5
100
330
5A
100
AcDbEntity
  8
Livello 1
 62
   250
370
    15
100
AcDb2dPolyline
 66
     1
 10
0.0
 20
0.0
 30
0.0
  0
VERTEX
  5
101
330
100
100
AcDbEntity
  8
Livello 1
 62
   250
370
    15
100
AcDbVertex
100
AcDb2dVertex
 10
11.07750513486033
 20
20.64590242233433
 30
0.0
  0
VERTEX
  5
102
330
100
100
AcDbEntity
  8
Livello 1
 62
   250
370
    15
100
AcDbVertex
100
AcDb2dVertex
 10
4.547994128706754
 20
20.64590242233433
 30
0.0
  0
SEQEND
  5
103
330
100
100
AcDbEntity
  8
Livello 1
370
    15
  0
POLYLINE
  5
104
330
5A
100
AcDbEntity
  8
Livello 1
 62
   250
370
    15
100
AcDb2dPolyline
 66
     1
 10
0.0
 20
0.0
 30
0.0
  0
VERTEX
  5
105
330
104
100
AcDbEntity
  8
Livello 1
 62
   250
370
    15
100
AcDbVertex
100
AcDb2dVertex
 10
4.374051142907268
 20
20.80012222346949
 30
0.0
  0
VERTEX
  5
106
330
104
100
AcDbEntity
  8
Livello 1
 62
   250
370
    15
100
AcDbVertex
100
AcDb2dVertex
 10
11.25017343448937
 20
20.80012222346949
 30
0.0
  0
SEQEND
  5
107
330
104
100
AcDbEntity
  8
Livello 1
370
    15
  0
POLYLINE
  5
108
330
5A
100
AcDbEntity
  8
Livello 1
 62
   250
370
    15
100
AcDb2dPolyline
 66
     1
 10
0.0
 20
0.0
 30
0.0
  0
VERTEX
  5
109
330
108
100
AcDbEntity
  8
Livello 1
 62
   250
370
    15
100
AcDbVertex
100
AcDb2dVertex
 10
4.374051142907268
 20
20.8132824969049
 30
0.0
  0
VERTEX
  5
10A
330
108
100
AcDbEntity
  8
Livello 1
 62
   250
370
    15
100
AcDbVertex
100
AcDb2dVertex
 10
11.25017343448937
 20
20.8132824969049
 30
0.0
  0
SEQEND
  5
10B
330
108
100
AcDbEntity
  8
Livello 1
370
    15
  0
POLYLINE
  5
10C
330
5A
100
AcDbEntity
  8
Livello 1
 62
   250
370
    15
100
AcDb2dPolyline
 66
     1
 10
0.0
 20
0.0
 30
0.0
  0
VERTEX
  5
10D
330
10C
100
AcDbEntity
  8
Livello 1
 62
   250
370
    15
100
AcDbVertex
100
AcDb2dVertex
 10
4.372742005759243
 20
20.81459163405293
 30
0.0
  0
VERTEX
  5
10E
330
10C
100
AcDbEntity
  8
Livello 1
 62
   250
370
    15
100
AcDbVertex
100
AcDb2dVertex
 10
11.2514825716374
 20
20.81459163405293
 30
0.0
  0
SEQEND
  5
10F
330
10C
100
AcDbEntity
  8
Livello 1
370
    15
  0
POLYLINE
  5
110
330
5A
100
AcDbEntity
  8
Livello 1
 62
   250
370
    15
100
AcDb2dPolyline
 66
     1
 10
0.0
 20
0.0
 30
0.0
  0
VERTEX
  5
111
330
110
100
AcDbEntity
  8
Livello 1
 62
   250
370
    15
100
AcDbVertex
100
AcDb2dVertex
 10
11.07612709575715
 20
15.480288393069
 30
0.0
  0
VERTEX
  5
112
330
110
100
AcDbEntity
  8
Livello 1
 62
   250
370
    15
100
AcDbVertex
100
AcDb2dVertex
 10
11.07750513486033
 20
15.29716422174455
 30
0.0
  0
SEQEND
  5
113
330
110
100
AcDbEntity
  8
Livello 1
370
    15
  0
POLYLINE
  5
114
330
5A
100
AcDbEntity
  8
Livello 1
 62
   250
370
    15
100
AcDb2dPolyline
 66
     1
 10
0.0
 20
0.0
 30
0.0
  0
VERTEX
  5
115
330
114
100
AcDbEntity
  8
Livello 1
 62
   250
370
    15
100
AcDbVertex
100
AcDb2dVertex
 10
11.09066540829575
 20
15.48423303000187
 30
0.0
  0
VERTEX
  5
116
330
114
100
AcDbEntity
  8
Livello 1
 62
   250
370
    15
100
AcDbVertex
100
AcDb2dVertex
 10
11.09194009446619
 20
15.38537594983715
 30
0.0
  0
SEQEND
  5
117
330
114
100
AcDbEntity
  8
Livello 1
370
    15
  0
POLYLINE
  5
118
330
5A
100
AcDbEntity
  8
Livello 1
 62
   250
370
    15
100
AcDb2dPolyline
 66
     1
 10
0.0
 20
0.0
 30
0.0
  0
VERTEX
  5
119
330
118
100
AcDbEntity
  8
Livello 1
 62
   250
370
    15
100
AcDbVertex
100
AcDb2dVertex
 10
11.07750513486033
 20
20.64068309923102
 30
0.0
  0
VERTEX
  5
11A
330
118
100
AcDbEntity
  8
Livello 1
 62
   250
370
    15
100
AcDbVertex
100
AcDb2dVertex
 10
11.07750513486033
 20
20.64590242233433
 30
0.0
  0
SEQEND
  5
11B
330
118
100
AcDbEntity
  8
Livello 1
370
    15
  0
POLYLINE
  5
11C
330
5A
100
AcDbEntity
  8
Livello 1
 62
   250
370
    15
100
AcDb2dPolyline
 66
     1
 10
0.0
 20
0.0
 30
0.0
  0
VERTEX
  5
11D
330
11C
100
AcDbEntity
  8
Livello 1
 62
   250
370
    15
100
AcDbVertex
100
AcDb2dVertex
 10
11.08808158497727
 20
20.42982589095498
 30
0.0
  0
VERTEX
  5
11E
330
11C
100
AcDbEntity
  8
Livello 1
 62
   250
370
    15
100
AcDbVertex
100
AcDb2dVertex
 10
11.08808158497727
 20
15.50793530257664
 30
0.0
  0
SEQEND
  5
11F
330
11C
100
AcDbEntity
  8
Livello 1
370
    15
  0
POLYLINE
  5
120
330
5A
100
AcDbEntity
  8
Livello 1
 62
   250
370
    15
100
AcDb2dPolyline
 66
     1
 10
0.0
 20
0.0
 30
0.0
  0
VERTEX
  5
121
330
120
100
AcDbEntity
  8
Livello 1
 62
   250
370
    15
100
AcDbVertex
100
AcDb2dVertex
 10
11.25017343448937
 20
20.8132824969049
 30
0.0
  0
VERTEX
  5
122
330
120
100
AcDbEntity
  8
Livello 1
 62
   250
370
    15
100
AcDbVertex
100
AcDb2dVertex
 10
11.25017343448937
 20
20.80012222346949
 30
0.0
  0
SEQEND
  5
123
330
120
100
AcDbEntity
  8
Livello 1
370
    15
  0
POLYLINE
  5
124
330
5A
100
AcDbEntity
  8
Livello 1
 62
   250
370
    15
100
AcDb2dPolyline
 66
     1
 10
0.0
 20
0.0
 30
0.0
  0
VERTEX
  5
125
330
124
100
AcDbEntity
  8
Livello 1
 62
   250
370
    15
100
AcDbVertex
100
AcDb2dVertex
 10
11.25017343448937
 20
15.12316955947869
 30
0.0
  0
VERTEX
  5
126
330
124
100
AcDbEntity
  8
Livello 1
 62
   250
370
    15
100
AcDbVertex
100
AcDb2dVertex
 10
11.25017343448937
 20
15.13765619555092
 30
0.0
  0
SEQEND
  5
127
330
124
100
AcDbEntity
  8
Livello 1
370
    15
  0
POLYLINE
  5
128
330
5A
100
AcDbEntity
  8
Livello 1
 62
   250
370
    15
100
AcDb2dPolyline
 66
     1
 10
0.0
 20
0.0
 30
0.0
  0
VERTEX
  5
129
330
128
100
AcDbEntity
  8
Livello 1
 62
   250
370
    15
100
AcDbVertex
100
AcDb2dVertex
 10
11.26464284507281
 20
20.78560113641968
 30
0.0
  0
VERTEX
  5
12A
330
128
100
AcDbEntity
  8
Livello 1
 62
   250
370
    15
100
AcDbVertex
100
AcDb2dVertex
 10
11.26464284507281
 20
15.15216005711194
 30
0.0
  0
SEQEND
  5
12B
330
128
100
AcDbEntity
  8
Livello 1
370
    15
  0
POLYLINE
  5
12C
330
5A
100
AcDbEntity
  8
Livello 1
 62
   250
370
    15
100
AcDb2dPolyline
 66
     1
 10
0.0
 20
0.0
 30
0.0
  0
VERTEX
  5
12D
330
12C
100
AcDbEntity
  8
Livello 1
 62
   250
370
    15
100
AcDbVertex
100
AcDb2dVertex
 10
11.07612709575715
 20
20.45747280046262
 30
0.0
  0
VERTEX
  5
12E
330
12C
100
AcDbEntity
  8
Livello 1
 62
   250
370
    15
100
AcDbVertex
100
AcDb2dVertex
 10
11.07750513486033
 20
20.64068309923102
 30
0.0
  0
SEQEND
  5
12F
330
12C
100
AcDbEntity
  8
Livello 1
370
    15
  0
POLYLINE
  5
130
330
5A
100
AcDbEntity
  8
Livello 1
 62
   250
370
    15
100
AcDb2dPolyline
 66
     1
 10
0.0
 20
0.0
 30
0.0
  0
VERTEX
  5
131
330
130
100
AcDbEntity
  8
Livello 1
 62
   250
370
    15
100
AcDbVertex
100
AcDb2dVertex
 10
11.09066540829575
 20
20.45352816352975
 30
0.0
  0
VERTEX
  5
132
330
130
100
AcDbEntity
  8
Livello 1
 62
   250
370
    15
100
AcDbVertex
100
AcDb2dVertex
 10
11.09194009446619
 20
20.55238524369446
 30
0.0
  0
SEQEND
  5
133
330
130
100
AcDbEntity
  8
Livello 1
370
    15
  0
POLYLINE
  5
134
330
5A
100
AcDbEntity
  8
Livello 1
 62
   250
370
    15
100
AcDb2dPolyline
 66
     1
 10
0.0
 20
0.0
 30
0.0
  0
VERTEX
  5
135
330
134
100
AcDbEntity
  8
Livello 1
 62
   250
370
    15
100
AcDbVertex
100
AcDb2dVertex
 10
3.056318475975712
 20
21.74228755831685
 30
0.0
  0
VERTEX
  5
136
330
134
100
AcDbEntity
  8
Livello 1
 62
   250
370
    15
100
AcDbVertex
100
AcDb2dVertex
 10
12.56785442495456
 20
21.74228755831685
 30
0.0
  0
SEQEND
  5
137
330
134
100
AcDbEntity
  8
Livello 1
370
    15
  0
POLYLINE
  5
138
330
5A
100
AcDbEntity
  8
Livello 1
 62
   250
370
    15
100
AcDb2dPolyline
 66
     1
 10
0.0
 20
0.0
 30
0.0
  0
VERTEX
  5
139
330
138
100
AcDbEntity
  8
Livello 1
 62
   250
370
    15
100
AcDbVertex
100
AcDb2dVertex
 10
12.5982057362022
 20
21.71197069804679
 30
0.0
  0
VERTEX
  5
13A
330
138
100
AcDbEntity
  8
Livello 1
 62
   250
370
    15
100
AcDbVertex
100
AcDb2dVertex
 10
12.5982057362022
 20
14.22570436804088
 30
0.0
  0
SEQEND
  5
13B
330
138
100
AcDbEntity
  8
Livello 1
370
    15
  0
ENDBLK
  5
5D
330
5A
100
AcDbEntity
  8
0
100
AcDbBlockEnd
  0
BLOCK
  5
13E
330
13C
100
AcDbEntity
  8
0
100
AcDbBlockBegin
  2
block 6
 70
     0
 71
     0
 10
0.0
 20
0.0
 30
0.0
  3
block 6
  1

  0
POLYLINE
  5
140
330
13C
100
AcDbEntity
  8
Livello 1
370
     0
100
AcDb2dPolyline
 66
     1
 10
0.0
 20
0.0
 30
0.0
  0
VERTEX
  5
141
330
140
100
AcDbEntity
  8
Livello 1
370
     0
100
AcDbVertex
100
AcDb2dVertex
 10
20.98887912962821
 20
0.0112310186909551
 30
0.0
  0
VERTEX
  5
142
330
140
100
AcDbEntity
  8
Livello 1
370
     0
100
AcDbVertex
100
AcDb2dVertex
 10
20.98887912962821
 20
29.69550243843689
 30
0.0
  0
VERTEX
  5
143
330
140
100
AcDbEntity
  8
Livello 1
370
     0
100
AcDbVertex
100
AcDb2dVertex
 10
0.0
 20
29.69550243843689
 30
0.0
  0
VERTEX
  5
144
330
140
100
AcDbEntity
  8
Livello 1
370
     0
100
AcDbVertex
100
AcDb2dVertex
 10
0.0
 20
0.0112310186909551
 30
0.0
  0
SEQEND
  5
145
330
140
100
AcDbEntity
  8
Livello 1
370
     0
  0
POLYLINE
  5
146
330
13C
100
AcDbEntity
  8
Livello 1
 62
   250
370
    15
100
AcDb2dPolyline
 66
     1
 10
0.0
 20
0.0
 30
0.0
  0
VERTEX
  5
147
330
146
100
AcDbEntity
  8
Livello 1
 62
   250
370
    15
100
AcDbVertex
100
AcDb2dVertex
 10
4.343785959103575
 20
15.15216005711194
 30
0.0
  0
VERTEX
  5
148
330
146
100
AcDbEntity
  8
Livello 1
 62
   250
370
    15
100
AcDbVertex
100
AcDb2dVertex
 10
4.343785959103575
 20
20.78560113641968
 30
0.0
  0
SEQEND
  5
149
330
146
100
AcDbEntity
  8
Livello 1
370
    15
  0
POLYLINE
  5
14A
330
13C
100
AcDbEntity
  8
Livello 1
 62
   250
370
    15
100
AcDb2dPolyline
 66
     1
 10
0.0
 20
0.0
 30
0.0
  0
VERTEX
  5
14B
330
14A
100
AcDbEntity
  8
Livello 1
 62
   250
370
    15
100
AcDbVertex
100
AcDb2dVertex
 10
11.28183388288504
 20
15.15216005711194
 30
0.0
  0
VERTEX
  5
14C
330
14A
100
AcDbEntity
  8
Livello 1
 62
   250
370
    15
100
AcDbVertex
100
AcDb2dVertex
 10
11.28183388288504
 20
20.78560113641968
 30
0.0
  0
SEQEND
  5
14D
330
14A
100
AcDbEntity
  8
Livello 1
370
    15
  0
POLYLINE
  5
14E
330
13C
100
AcDbEntity
  8
Livello 1
 62
   250
370
    15
100
AcDb2dPolyline
 66
     1
 10
0.0
 20
0.0
 30
0.0
  0
VERTEX
  5
14F
330
14E
100
AcDbEntity
  8
Livello 1
 62
   250
370
    15
100
AcDbVertex
100
AcDb2dVertex
 10
4.536194668885734
 20
15.50798697904301
 30
0.0
  0
VERTEX
  5
150
330
14E
100
AcDbEntity
  8
Livello 1
 62
   250
370
    15
100
AcDbVertex
100
AcDb2dVertex
 10
4.536194668885734
 20
15.50535147925817
 30
0.0
  0
VERTEX
  5
151
330
14E
100
AcDbEntity
  8
Livello 1
 62
   250
370
    15
100
AcDbVertex
100
AcDb2dVertex
 10
4.53750380603376
 20
15.50268152849575
 30
0.0
  0
VERTEX
  5
152
330
14E
100
AcDbEntity
  8
Livello 1
 62
   250
370
    15
100
AcDbVertex
100
AcDb2dVertex
 10
4.538778492204206
 20
15.5000632541997
 30
0.0
  0
VERTEX
  5
153
330
14E
100
AcDbEntity
  8
Livello 1
 62
   250
370
    15
100
AcDbVertex
100
AcDb2dVertex
 10
4.540122080329811
 20
15.49744497990365
 30
0.0
  0
VERTEX
  5
154
330
14E
100
AcDbEntity
  8
Livello 1
 62
   250
370
    15
100
AcDbVertex
100
AcDb2dVertex
 10
4.542757580114651
 20
15.49611861726683
 30
0.0
  0
VERTEX
  5
155
330
14E
100
AcDbEntity
  8
Livello 1
 62
   250
370
    15
100
AcDbVertex
100
AcDb2dVertex
 10
4.545375854410702
 20
15.49480948011881
 30
0.0
  0
VERTEX
  5
156
330
14E
100
AcDbEntity
  8
Livello 1
 62
   250
370
    15
100
AcDbVertex
100
AcDb2dVertex
 10
4.548080256150702
 20
15.49350034297078
 30
0.0
  0
VERTEX
  5
157
330
14E
100
AcDbEntity
  8
Livello 1
 62
   250
370
    15
100
AcDbVertex
100
AcDb2dVertex
 10
4.550664079469174
 20
15.49350034297078
 30
0.0
  0
SEQEND
  5
158
330
14E
100
AcDbEntity
  8
Livello 1
370
    15
  0
POLYLINE
  5
159
330
13C
100
AcDbEntity
  8
Livello 1
 62
   250
370
    15
100
AcDb2dPolyline
 66
     1
 10
0.0
 20
0.0
 30
0.0
  0
VERTEX
  5
15A
330
159
100
AcDbEntity
  8
Livello 1
 62
   250
370
    15
100
AcDbVertex
100
AcDb2dVertex
 10
11.07361217439384
 20
15.49350034297078
 30
0.0
  0
VERTEX
  5
15B
330
159
100
AcDbEntity
  8
Livello 1
 62
   250
370
    15
100
AcDbVertex
100
AcDb2dVertex
 10
11.07626489966746
 20
15.49350034297078
 30
0.0
  0
VERTEX
  5
15C
330
159
100
AcDbEntity
  8
Livello 1
 62
   250
370
    15
100
AcDbVertex
100
AcDb2dVertex
 10
11.08019231111154
 20
15.49480948011881
 30
0.0
  0
VERTEX
  5
15D
330
159
100
AcDbEntity
  8
Livello 1
 62
   250
370
    15
100
AcDbVertex
100
AcDb2dVertex
 10
11.08150144825957
 20
15.49611861726683
 30
0.0
  0
VERTEX
  5
15E
330
159
100
AcDbEntity
  8
Livello 1
 62
   250
370
    15
100
AcDbVertex
100
AcDb2dVertex
 10
11.0841541735332
 20
15.49744497990365
 30
0.0
  0
VERTEX
  5
15F
330
159
100
AcDbEntity
  8
Livello 1
 62
   250
370
    15
100
AcDbVertex
100
AcDb2dVertex
 10
11.08677244782925
 20
15.5000632541997
 30
0.0
  0
VERTEX
  5
160
330
159
100
AcDbEntity
  8
Livello 1
 62
   250
370
    15
100
AcDbVertex
100
AcDb2dVertex
 10
11.08808158497727
 20
15.50268152849575
 30
0.0
  0
VERTEX
  5
161
330
159
100
AcDbEntity
  8
Livello 1
 62
   250
370
    15
100
AcDbVertex
100
AcDb2dVertex
 10
11.08808158497727
 20
15.50798697904301
 30
0.0
  0
SEQEND
  5
162
330
159
100
AcDbEntity
  8
Livello 1
370
    15
  0
POLYLINE
  5
163
330
13C
100
AcDbEntity
  8
Livello 1
 62
   250
370
    15
100
AcDb2dPolyline
 66
     1
 10
0.0
 20
0.0
 30
0.0
  0
VERTEX
  5
164
330
163
100
AcDbEntity
  8
Livello 1
 62
   250
370
    15
100
AcDbVertex
100
AcDb2dVertex
 10
11.08808158497727
 20
20.42987756742135
 30
0.0
  0
VERTEX
  5
165
330
163
100
AcDbEntity
  8
Livello 1
 62
   250
370
    15
100
AcDbVertex
100
AcDb2dVertex
 10
11.08808158497727
 20
20.43511411601345
 30
0.0
  0
VERTEX
  5
166
330
163
100
AcDbEntity
  8
Livello 1
 62
   250
370
    15
100
AcDbVertex
100
AcDb2dVertex
 10
11.08677244782925
 20
20.43769793933192
 30
0.0
  0
VERTEX
  5
167
330
163
100
AcDbEntity
  8
Livello 1
 62
   250
370
    15
100
AcDbVertex
100
AcDb2dVertex
 10
11.0841541735332
 20
20.44045401753829
 30
0.0
  0
VERTEX
  5
168
330
163
100
AcDbEntity
  8
Livello 1
 62
   250
370
    15
100
AcDbVertex
100
AcDb2dVertex
 10
11.08150144825957
 20
20.44164257626479
 30
0.0
  0
VERTEX
  5
169
330
163
100
AcDbEntity
  8
Livello 1
 62
   250
370
    15
100
AcDbVertex
100
AcDb2dVertex
 10
11.08019231111154
 20
20.44295171341281
 30
0.0
  0
VERTEX
  5
16A
330
163
100
AcDbEntity
  8
Livello 1
 62
   250
370
    15
100
AcDbVertex
100
AcDb2dVertex
 10
11.07626489966746
 20
20.44426085056084
 30
0.0
  0
VERTEX
  5
16B
330
163
100
AcDbEntity
  8
Livello 1
 62
   250
370
    15
100
AcDbVertex
100
AcDb2dVertex
 10
11.07361217439384
 20
20.44426085056084
 30
0.0
  0
SEQEND
  5
16C
330
163
100
AcDbEntity
  8
Livello 1
370
    15
  0
POLYLINE
  5
16D
330
13C
100
AcDbEntity
  8
Livello 1
 62
   250
370
    15
100
AcDb2dPolyline
 66
     1
 10
0.0
 20
0.0
 30
0.0
  0
VERTEX
  5
16E
330
16D
100
AcDbEntity
  8
Livello 1
 62
   250
370
    15
100
AcDbVertex
100
AcDb2dVertex
 10
4.550664079469174
 20
20.44426085056084
 30
0.0
  0
VERTEX
  5
16F
330
16D
100
AcDbEntity
  8
Livello 1
 62
   250
370
    15
100
AcDbVertex
100
AcDb2dVertex
 10
4.548080256150702
 20
20.44426085056084
 30
0.0
  0
VERTEX
  5
170
330
16D
100
AcDbEntity
  8
Livello 1
 62
   250
370
    15
100
AcDbVertex
100
AcDb2dVertex
 10
4.545375854410702
 20
20.44295171341281
 30
0.0
  0
VERTEX
  5
171
330
16D
100
AcDbEntity
  8
Livello 1
 62
   250
370
    15
100
AcDbVertex
100
AcDb2dVertex
 10
4.542757580114651
 20
20.44164257626479
 30
0.0
  0
VERTEX
  5
172
330
16D
100
AcDbEntity
  8
Livello 1
 62
   250
370
    15
100
AcDbVertex
100
AcDb2dVertex
 10
4.540122080329811
 20
20.44045401753829
 30
0.0
  0
VERTEX
  5
173
330
16D
100
AcDbEntity
  8
Livello 1
 62
   250
370
    15
100
AcDbVertex
100
AcDb2dVertex
 10
4.538778492204206
 20
20.43769793933192
 30
0.0
  0
VERTEX
  5
174
330
16D
100
AcDbEntity
  8
Livello 1
 62
   250
370
    15
100
AcDbVertex
100
AcDb2dVertex
 10
4.53750380603376
 20
20.43511411601345
 30
0.0
  0
VERTEX
  5
175
330
16D
100
AcDbEntity
  8
Livello 1
 62
   250
370
    15
100
AcDbVertex
100
AcDb2dVertex
 10
4.536194668885734
 20
20.4324958417174
 30
0.0
  0
VERTEX
  5
176
330
16D
100
AcDbEntity
  8
Livello 1
 62
   250
370
    15
100
AcDbVertex
100
AcDb2dVertex
 10
4.536194668885734
 20
20.42987756742135
 30
0.0
  0
SEQEND
  5
177
330
16D
100
AcDbEntity
  8
Livello 1
370
    15
  0
POLYLINE
  5
178
330
13C
100
AcDbEntity
  8
Livello 1
 62
   250
370
    15
100
AcDb2dPolyline
 66
     1
 10
0.0
 20
0.0
 30
0.0
  0
VERTEX
  5
179
330
178
100
AcDbEntity
  8
Livello 1
 62
   250
370
    15
100
AcDbVertex
100
AcDb2dVertex
 10
4.372776456736822
 20
15.12189487330824
 30
0.0
  0
VERTEX
  5
17A
330
178
100
AcDbEntity
  8
Livello 1
 62
   250
370
    15
100
AcDbVertex
100
AcDb2dVertex
 10
4.370158182440771
 20
15.12320401045627
 30
0.0
  0
VERTEX
  5
17B
330
178
100
AcDbEntity
  8
Livello 1
 62
   250
370
    15
100
AcDbVertex
100
AcDb2dVertex
 10
4.364904408359879
 20
15.12320401045627
 30
0.0
  0
VERTEX
  5
17C
330
178
100
AcDbEntity
  8
Livello 1
 62
   250
370
    15
100
AcDbVertex
100
AcDb2dVertex
 10
4.362234457597459
 20
15.12456482407067
 30
0.0
  0
VERTEX
  5
17D
330
178
100
AcDbEntity
  8
Livello 1
 62
   250
370
    15
100
AcDbVertex
100
AcDb2dVertex
 10
4.359616183301409
 20
15.12583951024111
 30
0.0
  0
VERTEX
  5
17E
330
178
100
AcDbEntity
  8
Livello 1
 62
   250
370
    15
100
AcDbVertex
100
AcDb2dVertex
 10
4.356946232538988
 20
15.12711419641156
 30
0.0
  0
VERTEX
  5
17F
330
178
100
AcDbEntity
  8
Livello 1
 62
   250
370
    15
100
AcDbVertex
100
AcDb2dVertex
 10
4.354327958242937
 20
15.12976692168519
 30
0.0
  0
VERTEX
  5
180
330
178
100
AcDbEntity
  8
Livello 1
 62
   250
370
    15
100
AcDbVertex
100
AcDb2dVertex
 10
4.351692458458096
 20
15.131093284322
 30
0.0
  0
VERTEX
  5
181
330
178
100
AcDbEntity
  8
Livello 1
 62
   250
370
    15
100
AcDbVertex
100
AcDb2dVertex
 10
4.35043499777644
 20
15.13371155861805
 30
0.0
  0
VERTEX
  5
182
330
178
100
AcDbEntity
  8
Livello 1
 62
   250
370
    15
100
AcDbVertex
100
AcDb2dVertex
 10
4.347713370547651
 20
15.13502069576608
 30
0.0
  0
VERTEX
  5
183
330
178
100
AcDbEntity
  8
Livello 1
 62
   250
370
    15
100
AcDbVertex
100
AcDb2dVertex
 10
4.346404233399626
 20
15.13765619555092
 30
0.0
  0
VERTEX
  5
184
330
178
100
AcDbEntity
  8
Livello 1
 62
   250
370
    15
100
AcDbVertex
100
AcDb2dVertex
 10
4.3450950962516
 20
15.14030892082455
 30
0.0
  0
VERTEX
  5
185
330
178
100
AcDbEntity
  8
Livello 1
 62
   250
370
    15
100
AcDbVertex
100
AcDb2dVertex
 10
4.3450950962516
 20
15.14297887158697
 30
0.0
  0
VERTEX
  5
186
330
178
100
AcDbEntity
  8
Livello 1
 62
   250
370
    15
100
AcDbVertex
100
AcDb2dVertex
 10
4.343785959103575
 20
15.14692350851984
 30
0.0
  0
VERTEX
  5
187
330
178
100
AcDbEntity
  8
Livello 1
 62
   250
370
    15
100
AcDbVertex
100
AcDb2dVertex
 10
4.343785959103575
 20
15.15216005711194
 30
0.0
  0
SEQEND
  5
188
330
178
100
AcDbEntity
  8
Livello 1
370
    15
  0
POLYLINE
  5
189
330
13C
100
AcDbEntity
  8
Livello 1
 62
   250
370
    15
100
AcDb2dPolyline
 66
     1
 10
0.0
 20
0.0
 30
0.0
  0
VERTEX
  5
18A
330
189
100
AcDbEntity
  8
Livello 1
 62
   250
370
    15
100
AcDbVertex
100
AcDb2dVertex
 10
11.28183388288504
 20
15.15216005711194
 30
0.0
  0
VERTEX
  5
18B
330
189
100
AcDbEntity
  8
Livello 1
 62
   250
370
    15
100
AcDbVertex
100
AcDb2dVertex
 10
11.28183388288504
 20
15.14954178281589
 30
0.0
  0
VERTEX
  5
18C
330
189
100
AcDbEntity
  8
Livello 1
 62
   250
370
    15
100
AcDbVertex
100
AcDb2dVertex
 10
11.28045584378185
 20
15.14692350851984
 30
0.0
  0
VERTEX
  5
18D
330
189
100
AcDbEntity
  8
Livello 1
 62
   250
370
    15
100
AcDbVertex
100
AcDb2dVertex
 10
11.28045584378185
 20
15.14297887158697
 30
0.0
  0
VERTEX
  5
18E
330
189
100
AcDbEntity
  8
Livello 1
 62
   250
370
    15
100
AcDbVertex
100
AcDb2dVertex
 10
11.27921560858899
 20
15.14030892082455
 30
0.0
  0
VERTEX
  5
18F
330
189
100
AcDbEntity
  8
Livello 1
 62
   250
370
    15
100
AcDbVertex
100
AcDb2dVertex
 10
11.27787202046338
 20
15.13765619555092
 30
0.0
  0
VERTEX
  5
190
330
189
100
AcDbEntity
  8
Livello 1
 62
   250
370
    15
100
AcDbVertex
100
AcDb2dVertex
 10
11.27656288331536
 20
15.13502069576608
 30
0.0
  0
VERTEX
  5
191
330
189
100
AcDbEntity
  8
Livello 1
 62
   250
370
    15
100
AcDbVertex
100
AcDb2dVertex
 10
11.27515039323459
 20
15.13371155861805
 30
0.0
  0
VERTEX
  5
192
330
189
100
AcDbEntity
  8
Livello 1
 62
   250
370
    15
100
AcDbVertex
100
AcDb2dVertex
 10
11.27266992284886
 20
15.131093284322
 30
0.0
  0
VERTEX
  5
193
330
189
100
AcDbEntity
  8
Livello 1
 62
   250
370
    15
100
AcDbVertex
100
AcDb2dVertex
 10
11.27129188374568
 20
15.12976692168519
 30
0.0
  0
VERTEX
  5
194
330
189
100
AcDbEntity
  8
Livello 1
 62
   250
370
    15
100
AcDbVertex
100
AcDb2dVertex
 10
11.26867360944962
 20
15.12711419641156
 30
0.0
  0
VERTEX
  5
195
330
189
100
AcDbEntity
  8
Livello 1
 62
   250
370
    15
100
AcDbVertex
100
AcDb2dVertex
 10
11.26605533515357
 20
15.12583951024111
 30
0.0
  0
VERTEX
  5
196
330
189
100
AcDbEntity
  8
Livello 1
 62
   250
370
    15
100
AcDbVertex
100
AcDb2dVertex
 10
11.26336815890236
 20
15.12456482407067
 30
0.0
  0
VERTEX
  5
197
330
189
100
AcDbEntity
  8
Livello 1
 62
   250
370
    15
100
AcDbVertex
100
AcDb2dVertex
 10
11.26074988460631
 20
15.12320401045627
 30
0.0
  0
VERTEX
  5
198
330
189
100
AcDbEntity
  8
Livello 1
 62
   250
370
    15
100
AcDbVertex
100
AcDb2dVertex
 10
11.25416974788861
 20
15.12320401045627
 30
0.0
  0
VERTEX
  5
199
330
189
100
AcDbEntity
  8
Livello 1
 62
   250
370
    15
100
AcDbVertex
100
AcDb2dVertex
 10
11.2514825716374
 20
15.12189487330824
 30
0.0
  0
SEQEND
  5
19A
330
189
100
AcDbEntity
  8
Livello 1
370
    15
  0
POLYLINE
  5
19B
330
13C
100
AcDbEntity
  8
Livello 1
 62
   250
370
    15
100
AcDb2dPolyline
 66
     1
 10
0.0
 20
0.0
 30
0.0
  0
VERTEX
  5
19C
330
19B
100
AcDbEntity
  8
Livello 1
 62
   250
370
    15
100
AcDbVertex
100
AcDb2dVertex
 10
11.2514825716374
 20
20.81462608503051
 30
0.0
  0
VERTEX
  5
19D
330
19B
100
AcDbEntity
  8
Livello 1
 62
   250
370
    15
100
AcDbVertex
100
AcDb2dVertex
 10
11.25813161031026
 20
20.81462608503051
 30
0.0
  0
VERTEX
  5
19E
330
19B
100
AcDbEntity
  8
Livello 1
 62
   250
370
    15
100
AcDbVertex
100
AcDb2dVertex
 10
11.26074988460631
 20
20.8132824969049
 30
0.0
  0
VERTEX
  5
19F
330
19B
100
AcDbEntity
  8
Livello 1
 62
   250
370
    15
100
AcDbVertex
100
AcDb2dVertex
 10
11.26336815890236
 20
20.8132824969049
 30
0.0
  0
VERTEX
  5
1A0
330
19B
100
AcDbEntity
  8
Livello 1
 62
   250
370
    15
100
AcDbVertex
100
AcDb2dVertex
 10
11.26605533515357
 20
20.81192168329051
 30
0.0
  0
VERTEX
  5
1A1
330
19B
100
AcDbEntity
  8
Livello 1
 62
   250
370
    15
100
AcDbVertex
100
AcDb2dVertex
 10
11.26867360944962
 20
20.81066422260885
 30
0.0
  0
VERTEX
  5
1A2
330
19B
100
AcDbEntity
  8
Livello 1
 62
   250
370
    15
100
AcDbVertex
100
AcDb2dVertex
 10
11.27129188374568
 20
20.80799427184643
 30
0.0
  0
VERTEX
  5
1A3
330
19B
100
AcDbEntity
  8
Livello 1
 62
   250
370
    15
100
AcDbVertex
100
AcDb2dVertex
 10
11.27266992284886
 20
20.80666790920962
 30
0.0
  0
VERTEX
  5
1A4
330
19B
100
AcDbEntity
  8
Livello 1
 62
   250
370
    15
100
AcDbVertex
100
AcDb2dVertex
 10
11.27515039323459
 20
20.80404963491356
 30
0.0
  0
VERTEX
  5
1A5
330
19B
100
AcDbEntity
  8
Livello 1
 62
   250
370
    15
100
AcDbVertex
100
AcDb2dVertex
 10
11.27656288331536
 20
20.80143136061751
 30
0.0
  0
VERTEX
  5
1A6
330
19B
100
AcDbEntity
  8
Livello 1
 62
   250
370
    15
100
AcDbVertex
100
AcDb2dVertex
 10
11.27787202046338
 20
20.80012222346949
 30
0.0
  0
VERTEX
  5
1A7
330
19B
100
AcDbEntity
  8
Livello 1
 62
   250
370
    15
100
AcDbVertex
100
AcDb2dVertex
 10
11.27921560858899
 20
20.7974005962407
 30
0.0
  0
VERTEX
  5
1A8
330
19B
100
AcDbEntity
  8
Livello 1
 62
   250
370
    15
100
AcDbVertex
100
AcDb2dVertex
 10
11.28045584378185
 20
20.79347318479662
 30
0.0
  0
VERTEX
  5
1A9
330
19B
100
AcDbEntity
  8
Livello 1
 62
   250
370
    15
100
AcDbVertex
100
AcDb2dVertex
 10
11.28045584378185
 20
20.79085491050057
 30
0.0
  0
VERTEX
  5
1AA
330
19B
100
AcDbEntity
  8
Livello 1
 62
   250
370
    15
100
AcDbVertex
100
AcDb2dVertex
 10
11.28183388288504
 20
20.78821941071573
 30
0.0
  0
VERTEX
  5
1AB
330
19B
100
AcDbEntity
  8
Livello 1
 62
   250
370
    15
100
AcDbVertex
100
AcDb2dVertex
 10
11.28183388288504
 20
20.78560113641968
 30
0.0
  0
SEQEND
  5
1AC
330
19B
100
AcDbEntity
  8
Livello 1
370
    15
  0
POLYLINE
  5
1AD
330
13C
100
AcDbEntity
  8
Livello 1
 62
   250
370
    15
100
AcDb2dPolyline
 66
     1
 10
0.0
 20
0.0
 30
0.0
  0
VERTEX
  5
1AE
330
1AD
100
AcDbEntity
  8
Livello 1
 62
   250
370
    15
100
AcDbVertex
100
AcDb2dVertex
 10
4.343785959103575
 20
20.78560113641968
 30
0.0
  0
VERTEX
  5
1AF
330
1AD
100
AcDbEntity
  8
Livello 1
 62
   250
370
    15
100
AcDbVertex
100
AcDb2dVertex
 10
4.343785959103575
 20
20.79085491050057
 30
0.0
  0
VERTEX
  5
1B0
330
1AD
100
AcDbEntity
  8
Livello 1
 62
   250
370
    15
100
AcDbVertex
100
AcDb2dVertex
 10
4.3450950962516
 20
20.79347318479662
 30
0.0
  0
VERTEX
  5
1B1
330
1AD
100
AcDbEntity
  8
Livello 1
 62
   250
370
    15
100
AcDbVertex
100
AcDb2dVertex
 10
4.3450950962516
 20
20.7974005962407
 30
0.0
  0
VERTEX
  5
1B2
330
1AD
100
AcDbEntity
  8
Livello 1
 62
   250
370
    15
100
AcDbVertex
100
AcDb2dVertex
 10
4.346404233399626
 20
20.80012222346949
 30
0.0
  0
VERTEX
  5
1B3
330
1AD
100
AcDbEntity
  8
Livello 1
 62
   250
370
    15
100
AcDbVertex
100
AcDb2dVertex
 10
4.347713370547651
 20
20.80143136061751
 30
0.0
  0
VERTEX
  5
1B4
330
1AD
100
AcDbEntity
  8
Livello 1
 62
   250
370
    15
100
AcDbVertex
100
AcDb2dVertex
 10
4.35043499777644
 20
20.80404963491356
 30
0.0
  0
VERTEX
  5
1B5
330
1AD
100
AcDbEntity
  8
Livello 1
 62
   250
370
    15
100
AcDbVertex
100
AcDb2dVertex
 10
4.351692458458096
 20
20.80666790920962
 30
0.0
  0
VERTEX
  5
1B6
330
1AD
100
AcDbEntity
  8
Livello 1
 62
   250
370
    15
100
AcDbVertex
100
AcDb2dVertex
 10
4.354327958242937
 20
20.80799427184643
 30
0.0
  0
VERTEX
  5
1B7
330
1AD
100
AcDbEntity
  8
Livello 1
 62
   250
370
    15
100
AcDbVertex
100
AcDb2dVertex
 10
4.356946232538988
 20
20.81066422260885
 30
0.0
  0
VERTEX
  5
1B8
330
1AD
100
AcDbEntity
  8
Livello 1
 62
   250
370
    15
100
AcDbVertex
100
AcDb2dVertex
 10
4.359616183301409
 20
20.81192168329051
 30
0.0
  0
VERTEX
  5
1B9
330
1AD
100
AcDbEntity
  8
Livello 1
 62
   250
370
    15
100
AcDbVertex
100
AcDb2dVertex
 10
4.362234457597459
 20
20.8132824969049
 30
0.0
  0
VERTEX
  5
1BA
330
1AD
100
AcDbEntity
  8
Livello 1
 62
   250
370
    15
100
AcDbVertex
100
AcDb2dVertex
 10
4.364904408359879
 20
20.8132824969049
 30
0.0
  0
VERTEX
  5
1BB
330
1AD
100
AcDbEntity
  8
Livello 1
 62
   250
370
    15
100
AcDbVertex
100
AcDb2dVertex
 10
4.367488231678351
 20
20.81462608503051
 30
0.0
  0
VERTEX
  5
1BC
330
1AD
100
AcDbEntity
  8
Livello 1
 62
   250
370
    15
100
AcDbVertex
100
AcDb2dVertex
 10
4.372776456736822
 20
20.81462608503051
 30
0.0
  0
SEQEND
  5
1BD
330
1AD
100
AcDbEntity
  8
Livello 1
370
    15
  0
POLYLINE
  5
1BE
330
13C
100
AcDbEntity
  8
Livello 1
 62
   250
370
    15
100
AcDb2dPolyline
 66
     1
 10
0.0
 20
0.0
 30
0.0
  0
VERTEX
  5
1BF
330
1BE
100
AcDbEntity
  8
Livello 1
 62
   250
370
    15
100
AcDbVertex
100
AcDb2dVertex
 10
4.374137270351217
 20
15.12320401045627
 30
0.0
  0
VERTEX
  5
1C0
330
1BE
100
AcDbEntity
  8
Livello 1
 62
   250
370
    15
100
AcDbVertex
100
AcDb2dVertex
 10
4.370158182440771
 20
15.12456482407067
 30
0.0
  0
VERTEX
  5
1C1
330
1BE
100
AcDbEntity
  8
Livello 1
 62
   250
370
    15
100
AcDbVertex
100
AcDb2dVertex
 10
4.364904408359879
 20
15.12456482407067
 30
0.0
  0
VERTEX
  5
1C2
330
1BE
100
AcDbEntity
  8
Livello 1
 62
   250
370
    15
100
AcDbVertex
100
AcDb2dVertex
 10
4.360925320449434
 20
15.12711419641156
 30
0.0
  0
VERTEX
  5
1C3
330
1BE
100
AcDbEntity
  8
Livello 1
 62
   250
370
    15
100
AcDbVertex
100
AcDb2dVertex
 10
4.356946232538988
 20
15.12976692168519
 30
0.0
  0
VERTEX
  5
1C4
330
1BE
100
AcDbEntity
  8
Livello 1
 62
   250
370
    15
100
AcDbVertex
100
AcDb2dVertex
 10
4.353018821094912
 20
15.13240242147003
 30
0.0
  0
VERTEX
  5
1C5
330
1BE
100
AcDbEntity
  8
Livello 1
 62
   250
370
    15
100
AcDbVertex
100
AcDb2dVertex
 10
4.35043499777644
 20
15.1363298329141
 30
0.0
  0
VERTEX
  5
1C6
330
1BE
100
AcDbEntity
  8
Livello 1
 62
   250
370
    15
100
AcDbVertex
100
AcDb2dVertex
 10
4.347713370547651
 20
15.14030892082455
 30
0.0
  0
VERTEX
  5
1C7
330
1BE
100
AcDbEntity
  8
Livello 1
 62
   250
370
    15
100
AcDbVertex
100
AcDb2dVertex
 10
4.346404233399626
 20
15.144288008735
 30
0.0
  0
VERTEX
  5
1C8
330
1BE
100
AcDbEntity
  8
Livello 1
 62
   250
370
    15
100
AcDbVertex
100
AcDb2dVertex
 10
4.3450950962516
 20
15.14818096920149
 30
0.0
  0
VERTEX
  5
1C9
330
1BE
100
AcDbEntity
  8
Livello 1
 62
   250
370
    15
100
AcDbVertex
100
AcDb2dVertex
 10
4.3450950962516
 20
15.15343474328238
 30
0.0
  0
SEQEND
  5
1CA
330
1BE
100
AcDbEntity
  8
Livello 1
370
    15
  0
POLYLINE
  5
1CB
330
13C
100
AcDbEntity
  8
Livello 1
 62
   250
370
    15
100
AcDb2dPolyline
 66
     1
 10
0.0
 20
0.0
 30
0.0
  0
VERTEX
  5
1CC
330
1CB
100
AcDbEntity
  8
Livello 1
 62
   250
370
    15
100
AcDbVertex
100
AcDb2dVertex
 10
4.3450950962516
 20
20.78427477378287
 30
0.0
  0
VERTEX
  5
1CD
330
1CB
100
AcDbEntity
  8
Livello 1
 62
   250
370
    15
100
AcDbVertex
100
AcDb2dVertex
 10
4.3450950962516
 20
20.78821941071573
 30
0.0
  0
VERTEX
  5
1CE
330
1CB
100
AcDbEntity
  8
Livello 1
 62
   250
370
    15
100
AcDbVertex
100
AcDb2dVertex
 10
4.346404233399626
 20
20.79347318479662
 30
0.0
  0
VERTEX
  5
1CF
330
1CB
100
AcDbEntity
  8
Livello 1
 62
   250
370
    15
100
AcDbVertex
100
AcDb2dVertex
 10
4.347713370547651
 20
20.7974005962407
 30
0.0
  0
VERTEX
  5
1D0
330
1CB
100
AcDbEntity
  8
Livello 1
 62
   250
370
    15
100
AcDbVertex
100
AcDb2dVertex
 10
4.35043499777644
 20
20.80143136061751
 30
0.0
  0
VERTEX
  5
1D1
330
1CB
100
AcDbEntity
  8
Livello 1
 62
   250
370
    15
100
AcDbVertex
100
AcDb2dVertex
 10
4.353018821094912
 20
20.80541044852796
 30
0.0
  0
VERTEX
  5
1D2
330
1CB
100
AcDbEntity
  8
Livello 1
 62
   250
370
    15
100
AcDbVertex
100
AcDb2dVertex
 10
4.356946232538988
 20
20.80799427184643
 30
0.0
  0
VERTEX
  5
1D3
330
1CB
100
AcDbEntity
  8
Livello 1
 62
   250
370
    15
100
AcDbVertex
100
AcDb2dVertex
 10
4.360925320449434
 20
20.81066422260885
 30
0.0
  0
VERTEX
  5
1D4
330
1CB
100
AcDbEntity
  8
Livello 1
 62
   250
370
    15
100
AcDbVertex
100
AcDb2dVertex
 10
4.364904408359879
 20
20.81192168329051
 30
0.0
  0
VERTEX
  5
1D5
330
1CB
100
AcDbEntity
  8
Livello 1
 62
   250
370
    15
100
AcDbVertex
100
AcDb2dVertex
 10
4.370158182440771
 20
20.8132824969049
 30
0.0
  0
VERTEX
  5
1D6
330
1CB
100
AcDbEntity
  8
Livello 1
 62
   250
370
    15
100
AcDbVertex
100
AcDb2dVertex
 10
4.374137270351217
 20
20.8132824969049
 30
0.0
  0
SEQEND
  5
1D7
330
1CB
100
AcDbEntity
  8
Livello 1
370
    15
  0
POLYLINE
  5
1D8
330
13C
100
AcDbEntity
  8
Livello 1
 62
   250
370
    15
100
AcDb2dPolyline
 66
     1
 10
0.0
 20
0.0
 30
0.0
  0
VERTEX
  5
1D9
330
1D8
100
AcDbEntity
  8
Livello 1
 62
   250
370
    15
100
AcDbVertex
100
AcDb2dVertex
 10
11.28045584378185
 20
15.15343474328238
 30
0.0
  0
VERTEX
  5
1DA
330
1D8
100
AcDbEntity
  8
Livello 1
 62
   250
370
    15
100
AcDbVertex
100
AcDb2dVertex
 10
11.27921560858899
 20
15.14954178281589
 30
0.0
  0
VERTEX
  5
1DB
330
1D8
100
AcDbEntity
  8
Livello 1
 62
   250
370
    15
100
AcDbVertex
100
AcDb2dVertex
 10
11.27921560858899
 20
15.144288008735
 30
0.0
  0
VERTEX
  5
1DC
330
1D8
100
AcDbEntity
  8
Livello 1
 62
   250
370
    15
100
AcDbVertex
100
AcDb2dVertex
 10
11.27656288331536
 20
15.14030892082455
 30
0.0
  0
VERTEX
  5
1DD
330
1D8
100
AcDbEntity
  8
Livello 1
 62
   250
370
    15
100
AcDbVertex
100
AcDb2dVertex
 10
11.27391015804173
 20
15.1363298329141
 30
0.0
  0
VERTEX
  5
1DE
330
1D8
100
AcDbEntity
  8
Livello 1
 62
   250
370
    15
100
AcDbVertex
100
AcDb2dVertex
 10
11.27129188374568
 20
15.13240242147003
 30
0.0
  0
VERTEX
  5
1DF
330
1D8
100
AcDbEntity
  8
Livello 1
 62
   250
370
    15
100
AcDbVertex
100
AcDb2dVertex
 10
11.26733002132402
 20
15.12976692168519
 30
0.0
  0
VERTEX
  5
1E0
330
1D8
100
AcDbEntity
  8
Livello 1
 62
   250
370
    15
100
AcDbVertex
100
AcDb2dVertex
 10
11.26336815890236
 20
15.12711419641156
 30
0.0
  0
VERTEX
  5
1E1
330
1D8
100
AcDbEntity
  8
Livello 1
 62
   250
370
    15
100
AcDbVertex
100
AcDb2dVertex
 10
11.25940629648071
 20
15.12456482407067
 30
0.0
  0
VERTEX
  5
1E2
330
1D8
100
AcDbEntity
  8
Livello 1
 62
   250
370
    15
100
AcDbVertex
100
AcDb2dVertex
 10
11.25537553210389
 20
15.12456482407067
 30
0.0
  0
VERTEX
  5
1E3
330
1D8
100
AcDbEntity
  8
Livello 1
 62
   250
370
    15
100
AcDbVertex
100
AcDb2dVertex
 10
11.25013898351179
 20
15.12320401045627
 30
0.0
  0
SEQEND
  5
1E4
330
1D8
100
AcDbEntity
  8
Livello 1
370
    15
  0
POLYLINE
  5
1E5
330
13C
100
AcDbEntity
  8
Livello 1
 62
   250
370
    15
100
AcDb2dPolyline
 66
     1
 10
0.0
 20
0.0
 30
0.0
  0
VERTEX
  5
1E6
330
1E5
100
AcDbEntity
  8
Livello 1
 62
   250
370
    15
100
AcDbVertex
100
AcDb2dVertex
 10
11.25013898351179
 20
20.8132824969049
 30
0.0
  0
VERTEX
  5
1E7
330
1E5
100
AcDbEntity
  8
Livello 1
 62
   250
370
    15
100
AcDbVertex
100
AcDb2dVertex
 10
11.25537553210389
 20
20.8132824969049
 30
0.0
  0
VERTEX
  5
1E8
330
1E5
100
AcDbEntity
  8
Livello 1
 62
   250
370
    15
100
AcDbVertex
100
AcDb2dVertex
 10
11.25940629648071
 20
20.81192168329051
 30
0.0
  0
VERTEX
  5
1E9
330
1E5
100
AcDbEntity
  8
Livello 1
 62
   250
370
    15
100
AcDbVertex
100
AcDb2dVertex
 10
11.26336815890236
 20
20.81066422260885
 30
0.0
  0
VERTEX
  5
1EA
330
1E5
100
AcDbEntity
  8
Livello 1
 62
   250
370
    15
100
AcDbVertex
100
AcDb2dVertex
 10
11.26733002132402
 20
20.80799427184643
 30
0.0
  0
VERTEX
  5
1EB
330
1E5
100
AcDbEntity
  8
Livello 1
 62
   250
370
    15
100
AcDbVertex
100
AcDb2dVertex
 10
11.27129188374568
 20
20.80541044852796
 30
0.0
  0
VERTEX
  5
1EC
330
1E5
100
AcDbEntity
  8
Livello 1
 62
   250
370
    15
100
AcDbVertex
100
AcDb2dVertex
 10
11.27391015804173
 20
20.80143136061751
 30
0.0
  0
VERTEX
  5
1ED
330
1E5
100
AcDbEntity
  8
Livello 1
 62
   250
370
    15
100
AcDbVertex
100
AcDb2dVertex
 10
11.27656288331536
 20
20.7974005962407
 30
0.0
  0
VERTEX
  5
1EE
330
1E5
100
AcDbEntity
  8
Livello 1
 62
   250
370
    15
100
AcDbVertex
100
AcDb2dVertex
 10
11.27921560858899
 20
20.79347318479662
 30
0.0
  0
VERTEX
  5
1EF
330
1E5
100
AcDbEntity
  8
Livello 1
 62
   250
370
    15
100
AcDbVertex
100
AcDb2dVertex
 10
11.27921560858899
 20
20.78821941071573
 30
0.0
  0
VERTEX
  5
1F0
330
1E5
100
AcDbEntity
  8
Livello 1
 62
   250
370
    15
100
AcDbVertex
100
AcDb2dVertex
 10
11.28045584378185
 20
20.78427477378287
 30
0.0
  0
SEQEND
  5
1F1
330
1E5
100
AcDbEntity
  8
Livello 1
370
    15
  0
POLYLINE
  5
1F2
330
13C
100
AcDbEntity
  8
Livello 1
 62
   250
370
    15
100
AcDb2dPolyline
 66
     1
 10
0.0
 20
0.0
 30
0.0
  0
VERTEX
  5
1F3
330
1F2
100
AcDbEntity
  8
Livello 1
 62
   250
370
    15
100
AcDbVertex
100
AcDb2dVertex
 10
4.51772894490306
 20
20.55238524369446
 30
0.0
  0
VERTEX
  5
1F4
330
1F2
100
AcDbEntity
  8
Livello 1
 62
   250
370
    15
100
AcDbVertex
100
AcDb2dVertex
 10
4.51772894490306
 20
19.26095589814495
 30
0.0
  0
VERTEX
  5
1F5
330
1F2
100
AcDbEntity
  8
Livello 1
 62
   250
370
    15
100
AcDbVertex
100
AcDb2dVertex
 10
4.516419807755034
 20
17.9682174154474
 30
0.0
  0
VERTEX
  5
1F6
330
1F2
100
AcDbEntity
  8
Livello 1
 62
   250
370
    15
100
AcDbVertex
100
AcDb2dVertex
 10
4.51772894490306
 20
16.67680529538667
 30
0.0
  0
VERTEX
  5
1F7
330
1F2
100
AcDbEntity
  8
Livello 1
 62
   250
370
    15
100
AcDbVertex
100
AcDb2dVertex
 10
4.51772894490306
 20
15.38415294013308
 30
0.0
  0
VERTEX
  5
1F8
330
1F2
100
AcDbEntity
  8
Livello 1
 62
   250
370
    15
100
AcDbVertex
100
AcDb2dVertex
 10
4.519003631073506
 20
15.37230180384569
 30
0.0
  0
VERTEX
  5
1F9
330
1F2
100
AcDbEntity
  8
Livello 1
 62
   250
370
    15
100
AcDbVertex
100
AcDb2dVertex
 10
4.519003631073506
 20
15.35905540296633
 30
0.0
  0
VERTEX
  5
1FA
330
1F2
100
AcDbEntity
  8
Livello 1
 62
   250
370
    15
100
AcDbVertex
100
AcDb2dVertex
 10
4.520364444687901
 20
15.34587790404212
 30
0.0
  0
VERTEX
  5
1FB
330
1F2
100
AcDbEntity
  8
Livello 1
 62
   250
370
    15
100
AcDbVertex
100
AcDb2dVertex
 10
4.523017169961531
 20
15.33399231677716
 30
0.0
  0
VERTEX
  5
1FC
330
1F2
100
AcDbEntity
  8
Livello 1
 62
   250
370
    15
100
AcDbVertex
100
AcDb2dVertex
 10
4.525652669746372
 20
15.32083204334174
 30
0.0
  0
VERTEX
  5
1FD
330
1F2
100
AcDbEntity
  8
Livello 1
 62
   250
370
    15
100
AcDbVertex
100
AcDb2dVertex
 10
4.528236493064843
 20
15.31552659279448
 30
0.0
  0
VERTEX
  5
1FE
330
1F2
100
AcDbEntity
  8
Livello 1
 62
   250
370
    15
100
AcDbVertex
100
AcDb2dVertex
 10
4.530854767360894
 20
15.30901535803193
 30
0.0
  0
VERTEX
  5
1FF
330
1F2
100
AcDbEntity
  8
Livello 1
 62
   250
370
    15
100
AcDbVertex
100
AcDb2dVertex
 10
4.533559169100894
 20
15.30372713297346
 30
0.0
  0
VERTEX
  5
200
330
1F2
100
AcDbEntity
  8
Livello 1
 62
   250
370
    15
100
AcDbVertex
100
AcDb2dVertex
 10
4.536194668885734
 20
15.29843890791499
 30
0.0
  0
VERTEX
  5
201
330
1F2
100
AcDbEntity
  8
Livello 1
 62
   250
370
    15
100
AcDbVertex
100
AcDb2dVertex
 10
4.538778492204206
 20
15.29580340813015
 30
0.0
  0
VERTEX
  5
202
330
1F2
100
AcDbEntity
  8
Livello 1
 62
   250
370
    15
100
AcDbVertex
100
AcDb2dVertex
 10
4.541431217477837
 20
15.29444259451576
 30
0.0
  0
VERTEX
  5
203
330
1F2
100
AcDbEntity
  8
Livello 1
 62
   250
370
    15
100
AcDbVertex
100
AcDb2dVertex
 10
4.544101168240257
 20
15.29321958481168
 30
0.0
  0
VERTEX
  5
204
330
1F2
100
AcDbEntity
  8
Livello 1
 62
   250
370
    15
100
AcDbVertex
100
AcDb2dVertex
 10
4.548080256150702
 20
15.29187599668608
 30
0.0
  0
SEQEND
  5
205
330
1F2
100
AcDbEntity
  8
Livello 1
370
    15
  0
POLYLINE
  5
206
330
13C
100
AcDbEntity
  8
Livello 1
 62
   250
370
    15
100
AcDb2dPolyline
 66
     1
 10
0.0
 20
0.0
 30
0.0
  0
VERTEX
  5
207
330
206
100
AcDbEntity
  8
Livello 1
 62
   250
370
    15
100
AcDbVertex
100
AcDb2dVertex
 10
4.3450950962516
 20
15.15343474328238
 30
0.0
  0
VERTEX
  5
208
330
206
100
AcDbEntity
  8
Livello 1
 62
   250
370
    15
100
AcDbVertex
100
AcDb2dVertex
 10
4.3450950962516
 20
20.78427477378287
 30
0.0
  0
SEQEND
  5
209
330
206
100
AcDbEntity
  8
Livello 1
370
    15
  0
POLYLINE
  5
20A
330
13C
100
AcDbEntity
  8
Livello 1
 62
   250
370
    15
100
AcDb2dPolyline
 66
     1
 10
0.0
 20
0.0
 30
0.0
  0
VERTEX
  5
20B
330
20A
100
AcDbEntity
  8
Livello 1
 62
   250
370
    15
100
AcDbVertex
100
AcDb2dVertex
 10
4.533559169100894
 20
20.55238524369446
 30
0.0
  0
VERTEX
  5
20C
330
20A
100
AcDbEntity
  8
Livello 1
 62
   250
370
    15
100
AcDbVertex
100
AcDb2dVertex
 10
4.532215580975289
 20
19.26095589814495
 30
0.0
  0
VERTEX
  5
20D
330
20A
100
AcDbEntity
  8
Livello 1
 62
   250
370
    15
100
AcDbVertex
100
AcDb2dVertex
 10
4.532215580975289
 20
16.67680529538667
 30
0.0
  0
VERTEX
  5
20E
330
20A
100
AcDbEntity
  8
Livello 1
 62
   250
370
    15
100
AcDbVertex
100
AcDb2dVertex
 10
4.533559169100894
 20
15.38542762630352
 30
0.0
  0
SEQEND
  5
20F
330
20A
100
AcDbEntity
  8
Livello 1
370
    15
  0
POLYLINE
  5
210
330
13C
100
AcDbEntity
  8
Livello 1
 62
   250
370
    15
100
AcDb2dPolyline
 66
     1
 10
0.0
 20
0.0
 30
0.0
  0
VERTEX
  5
211
330
210
100
AcDbEntity
  8
Livello 1
 62
   250
370
    15
100
AcDbVertex
100
AcDb2dVertex
 10
4.533559169100894
 20
20.4324958417174
 30
0.0
  0
VERTEX
  5
212
330
210
100
AcDbEntity
  8
Livello 1
 62
   250
370
    15
100
AcDbVertex
100
AcDb2dVertex
 10
4.533559169100894
 20
20.45352816352975
 30
0.0
  0
SEQEND
  5
213
330
210
100
AcDbEntity
  8
Livello 1
370
    15
  0
POLYLINE
  5
214
330
13C
100
AcDbEntity
  8
Livello 1
 62
   250
370
    15
100
AcDb2dPolyline
 66
     1
 10
0.0
 20
0.0
 30
0.0
  0
VERTEX
  5
215
330
214
100
AcDbEntity
  8
Livello 1
 62
   250
370
    15
100
AcDbVertex
100
AcDb2dVertex
 10
4.533559169100894
 20
15.50535147925817
 30
0.0
  0
VERTEX
  5
216
330
214
100
AcDbEntity
  8
Livello 1
 62
   250
370
    15
100
AcDbVertex
100
AcDb2dVertex
 10
4.533559169100894
 20
15.48423303000187
 30
0.0
  0
SEQEND
  5
217
330
214
100
AcDbEntity
  8
Livello 1
370
    15
  0
POLYLINE
  5
218
330
13C
100
AcDbEntity
  8
Livello 1
 62
   250
370
    15
100
AcDb2dPolyline
 66
     1
 10
0.0
 20
0.0
 30
0.0
  0
VERTEX
  5
219
330
218
100
AcDbEntity
  8
Livello 1
 62
   250
370
    15
100
AcDbVertex
100
AcDb2dVertex
 10
11.09200899642135
 20
15.38542762630352
 30
0.0
  0
VERTEX
  5
21A
330
218
100
AcDbEntity
  8
Livello 1
 62
   250
370
    15
100
AcDbVertex
100
AcDb2dVertex
 10
11.0932836825918
 20
16.67680529538667
 30
0.0
  0
VERTEX
  5
21B
330
218
100
AcDbEntity
  8
Livello 1
 62
   250
370
    15
100
AcDbVertex
100
AcDb2dVertex
 10
11.0932836825918
 20
19.26095589814495
 30
0.0
  0
VERTEX
  5
21C
330
218
100
AcDbEntity
  8
Livello 1
 62
   250
370
    15
100
AcDbVertex
100
AcDb2dVertex
 10
11.09200899642135
 20
20.55238524369446
 30
0.0
  0
SEQEND
  5
21D
330
218
100
AcDbEntity
  8
Livello 1
370
    15
  0
POLYLINE
  5
21E
330
13C
100
AcDbEntity
  8
Livello 1
 62
   250
370
    15
100
AcDb2dPolyline
 66
     1
 10
0.0
 20
0.0
 30
0.0
  0
VERTEX
  5
21F
330
21E
100
AcDbEntity
  8
Livello 1
 62
   250
370
    15
100
AcDbVertex
100
AcDb2dVertex
 10
11.09066540829575
 20
15.50535147925817
 30
0.0
  0
VERTEX
  5
220
330
21E
100
AcDbEntity
  8
Livello 1
 62
   250
370
    15
100
AcDbVertex
100
AcDb2dVertex
 10
11.09066540829575
 20
15.48423303000187
 30
0.0
  0
SEQEND
  5
221
330
21E
100
AcDbEntity
  8
Livello 1
370
    15
  0
POLYLINE
  5
222
330
13C
100
AcDbEntity
  8
Livello 1
 62
   250
370
    15
100
AcDb2dPolyline
 66
     1
 10
0.0
 20
0.0
 30
0.0
  0
VERTEX
  5
223
330
222
100
AcDbEntity
  8
Livello 1
 62
   250
370
    15
100
AcDbVertex
100
AcDb2dVertex
 10
11.09066540829575
 20
20.4324958417174
 30
0.0
  0
VERTEX
  5
224
330
222
100
AcDbEntity
  8
Livello 1
 62
   250
370
    15
100
AcDbVertex
100
AcDb2dVertex
 10
11.09066540829575
 20
20.45352816352975
 30
0.0
  0
SEQEND
  5
225
330
222
100
AcDbEntity
  8
Livello 1
370
    15
  0
POLYLINE
  5
226
330
13C
100
AcDbEntity
  8
Livello 1
 62
   250
370
    15
100
AcDb2dPolyline
 66
     1
 10
0.0
 20
0.0
 30
0.0
  0
VERTEX
  5
227
330
226
100
AcDbEntity
  8
Livello 1
 62
   250
370
    15
100
AcDbVertex
100
AcDb2dVertex
 10
4.533559169100894
 20
20.55238524369446
 30
0.0
  0
VERTEX
  5
228
330
226
100
AcDbEntity
  8
Livello 1
 62
   250
370
    15
100
AcDbVertex
100
AcDb2dVertex
 10
4.51772894490306
 20
20.55238524369446
 30
0.0
  0
SEQEND
  5
229
330
226
100
AcDbEntity
  8
Livello 1
370
    15
  0
POLYLINE
  5
22A
330
13C
100
AcDbEntity
  8
Livello 1
 62
   250
370
    15
100
AcDb2dPolyline
 66
     1
 10
0.0
 20
0.0
 30
0.0
  0
VERTEX
  5
22B
330
22A
100
AcDbEntity
  8
Livello 1
 62
   250
370
    15
100
AcDbVertex
100
AcDb2dVertex
 10
4.548080256150702
 20
20.64064864825344
 30
0.0
  0
VERTEX
  5
22C
330
22A
100
AcDbEntity
  8
Livello 1
 62
   250
370
    15
100
AcDbVertex
100
AcDb2dVertex
 10
4.548080256150702
 20
20.64590242233433
 30
0.0
  0
SEQEND
  5
22D
330
22A
100
AcDbEntity
  8
Livello 1
370
    15
  0
POLYLINE
  5
22E
330
13C
100
AcDbEntity
  8
Livello 1
 62
   250
370
    15
100
AcDb2dPolyline
 66
     1
 10
0.0
 20
0.0
 30
0.0
  0
VERTEX
  5
22F
330
22E
100
AcDbEntity
  8
Livello 1
 62
   250
370
    15
100
AcDbVertex
100
AcDb2dVertex
 10
11.09200899642135
 20
20.55238524369446
 30
0.0
  0
VERTEX
  5
230
330
22E
100
AcDbEntity
  8
Livello 1
 62
   250
370
    15
100
AcDbVertex
100
AcDb2dVertex
 10
11.10644395602721
 20
20.55238524369446
 30
0.0
  0
SEQEND
  5
231
330
22E
100
AcDbEntity
  8
Livello 1
370
    15
  0
POLYLINE
  5
232
330
13C
100
AcDbEntity
  8
Livello 1
 62
   250
370
    15
100
AcDb2dPolyline
 66
     1
 10
0.0
 20
0.0
 30
0.0
  0
VERTEX
  5
233
330
232
100
AcDbEntity
  8
Livello 1
 62
   250
370
    15
100
AcDbVertex
100
AcDb2dVertex
 10
11.09200899642135
 20
15.38542762630352
 30
0.0
  0
VERTEX
  5
234
330
232
100
AcDbEntity
  8
Livello 1
 62
   250
370
    15
100
AcDbVertex
100
AcDb2dVertex
 10
11.09603976079817
 20
15.38542762630352
 30
0.0
  0
VERTEX
  5
235
330
232
100
AcDbEntity
  8
Livello 1
 62
   250
370
    15
100
AcDbVertex
100
AcDb2dVertex
 10
11.0985202311839
 20
15.38415294013308
 30
0.0
  0
VERTEX
  5
236
330
232
100
AcDbEntity
  8
Livello 1
 62
   250
370
    15
100
AcDbVertex
100
AcDb2dVertex
 10
11.10644395602721
 20
15.38415294013308
 30
0.0
  0
SEQEND
  5
237
330
232
100
AcDbEntity
  8
Livello 1
370
    15
  0
POLYLINE
  5
238
330
13C
100
AcDbEntity
  8
Livello 1
 62
   250
370
    15
100
AcDb2dPolyline
 66
     1
 10
0.0
 20
0.0
 30
0.0
  0
VERTEX
  5
239
330
238
100
AcDbEntity
  8
Livello 1
 62
   250
370
    15
100
AcDbVertex
100
AcDb2dVertex
 10
11.07750513486033
 20
15.29716422174455
 30
0.0
  0
VERTEX
  5
23A
330
238
100
AcDbEntity
  8
Livello 1
 62
   250
370
    15
100
AcDbVertex
100
AcDb2dVertex
 10
11.07750513486033
 20
15.29187599668608
 30
0.0
  0
SEQEND
  5
23B
330
238
100
AcDbEntity
  8
Livello 1
370
    15
  0
POLYLINE
  5
23C
330
13C
100
AcDbEntity
  8
Livello 1
 62
   250
370
    15
100
AcDb2dPolyline
 66
     1
 10
0.0
 20
0.0
 30
0.0
  0
VERTEX
  5
23D
330
23C
100
AcDbEntity
  8
Livello 1
 62
   250
370
    15
100
AcDbVertex
100
AcDb2dVertex
 10
4.533559169100894
 20
15.38542762630352
 30
0.0
  0
VERTEX
  5
23E
330
23C
100
AcDbEntity
  8
Livello 1
 62
   250
370
    15
100
AcDbVertex
100
AcDb2dVertex
 10
4.529580081190448
 20
15.38542762630352
 30
0.0
  0
VERTEX
  5
23F
330
23C
100
AcDbEntity
  8
Livello 1
 62
   250
370
    15
100
AcDbVertex
100
AcDb2dVertex
 10
4.525652669746372
 20
15.38415294013308
 30
0.0
  0
VERTEX
  5
240
330
23C
100
AcDbEntity
  8
Livello 1
 62
   250
370
    15
100
AcDbVertex
100
AcDb2dVertex
 10
4.51772894490306
 20
15.38415294013308
 30
0.0
  0
SEQEND
  5
241
330
23C
100
AcDbEntity
  8
Livello 1
370
    15
  0
POLYLINE
  5
242
330
13C
100
AcDbEntity
  8
Livello 1
 62
   250
370
    15
100
AcDb2dPolyline
 66
     1
 10
0.0
 20
0.0
 30
0.0
  0
VERTEX
  5
243
330
242
100
AcDbEntity
  8
Livello 1
 62
   250
370
    15
100
AcDbVertex
100
AcDb2dVertex
 10
4.533559169100894
 20
15.50535147925817
 30
0.0
  0
VERTEX
  5
244
330
242
100
AcDbEntity
  8
Livello 1
 62
   250
370
    15
100
AcDbVertex
100
AcDb2dVertex
 10
4.533559169100894
 20
15.50268152849575
 30
0.0
  0
VERTEX
  5
245
330
242
100
AcDbEntity
  8
Livello 1
 62
   250
370
    15
100
AcDbVertex
100
AcDb2dVertex
 10
4.53483385527134
 20
15.5000632541997
 30
0.0
  0
VERTEX
  5
246
330
242
100
AcDbEntity
  8
Livello 1
 62
   250
370
    15
100
AcDbVertex
100
AcDb2dVertex
 10
4.536194668885734
 20
15.49744497990365
 30
0.0
  0
VERTEX
  5
247
330
242
100
AcDbEntity
  8
Livello 1
 62
   250
370
    15
100
AcDbVertex
100
AcDb2dVertex
 10
4.538778492204206
 20
15.49480948011881
 30
0.0
  0
VERTEX
  5
248
330
242
100
AcDbEntity
  8
Livello 1
 62
   250
370
    15
100
AcDbVertex
100
AcDb2dVertex
 10
4.540122080329811
 20
15.49350034297078
 30
0.0
  0
VERTEX
  5
249
330
242
100
AcDbEntity
  8
Livello 1
 62
   250
370
    15
100
AcDbVertex
100
AcDb2dVertex
 10
4.542757580114651
 20
15.49213952935639
 30
0.0
  0
VERTEX
  5
24A
330
242
100
AcDbEntity
  8
Livello 1
 62
   250
370
    15
100
AcDbVertex
100
AcDb2dVertex
 10
4.545375854410702
 20
15.49083039220836
 30
0.0
  0
VERTEX
  5
24B
330
242
100
AcDbEntity
  8
Livello 1
 62
   250
370
    15
100
AcDbVertex
100
AcDb2dVertex
 10
4.549354942321148
 20
15.49083039220836
 30
0.0
  0
SEQEND
  5
24C
330
242
100
AcDbEntity
  8
Livello 1
370
    15
  0
POLYLINE
  5
24D
330
13C
100
AcDbEntity
  8
Livello 1
 62
   250
370
    15
100
AcDb2dPolyline
 66
     1
 10
0.0
 20
0.0
 30
0.0
  0
VERTEX
  5
24E
330
24D
100
AcDbEntity
  8
Livello 1
 62
   250
370
    15
100
AcDbVertex
100
AcDb2dVertex
 10
4.533559169100894
 20
15.48423303000187
 30
0.0
  0
VERTEX
  5
24F
330
24D
100
AcDbEntity
  8
Livello 1
 62
   250
370
    15
100
AcDbVertex
100
AcDb2dVertex
 10
4.533559169100894
 20
15.48295834383142
 30
0.0
  0
VERTEX
  5
250
330
24D
100
AcDbEntity
  8
Livello 1
 62
   250
370
    15
100
AcDbVertex
100
AcDb2dVertex
 10
4.53483385527134
 20
15.48161475570581
 30
0.0
  0
VERTEX
  5
251
330
24D
100
AcDbEntity
  8
Livello 1
 62
   250
370
    15
100
AcDbVertex
100
AcDb2dVertex
 10
4.536194668885734
 20
15.48161475570581
 30
0.0
  0
VERTEX
  5
252
330
24D
100
AcDbEntity
  8
Livello 1
 62
   250
370
    15
100
AcDbVertex
100
AcDb2dVertex
 10
4.540122080329811
 20
15.48025394209142
 30
0.0
  0
VERTEX
  5
253
330
24D
100
AcDbEntity
  8
Livello 1
 62
   250
370
    15
100
AcDbVertex
100
AcDb2dVertex
 10
4.548080256150702
 20
15.48025394209142
 30
0.0
  0
SEQEND
  5
254
330
24D
100
AcDbEntity
  8
Livello 1
370
    15
  0
POLYLINE
  5
255
330
13C
100
AcDbEntity
  8
Livello 1
 62
   250
370
    15
100
AcDb2dPolyline
 66
     1
 10
0.0
 20
0.0
 30
0.0
  0
VERTEX
  5
256
330
255
100
AcDbEntity
  8
Livello 1
 62
   250
370
    15
100
AcDbVertex
100
AcDb2dVertex
 10
4.533559169100894
 20
15.38542762630352
 30
0.0
  0
VERTEX
  5
257
330
255
100
AcDbEntity
  8
Livello 1
 62
   250
370
    15
100
AcDbVertex
100
AcDb2dVertex
 10
4.533559169100894
 20
15.35113167812302
 30
0.0
  0
VERTEX
  5
258
330
255
100
AcDbEntity
  8
Livello 1
 62
   250
370
    15
100
AcDbVertex
100
AcDb2dVertex
 10
4.53483385527134
 20
15.33928054183563
 30
0.0
  0
VERTEX
  5
259
330
255
100
AcDbEntity
  8
Livello 1
 62
   250
370
    15
100
AcDbVertex
100
AcDb2dVertex
 10
4.536194668885734
 20
15.32873854269626
 30
0.0
  0
VERTEX
  5
25A
330
255
100
AcDbEntity
  8
Livello 1
 62
   250
370
    15
100
AcDbVertex
100
AcDb2dVertex
 10
4.53750380603376
 20
15.31692185738646
 30
0.0
  0
VERTEX
  5
25B
330
255
100
AcDbEntity
  8
Livello 1
 62
   250
370
    15
100
AcDbVertex
100
AcDb2dVertex
 10
4.538778492204206
 20
15.31159918135041
 30
0.0
  0
VERTEX
  5
25C
330
255
100
AcDbEntity
  8
Livello 1
 62
   250
370
    15
100
AcDbVertex
100
AcDb2dVertex
 10
4.541431217477837
 20
15.30634540726951
 30
0.0
  0
VERTEX
  5
25D
330
255
100
AcDbEntity
  8
Livello 1
 62
   250
370
    15
100
AcDbVertex
100
AcDb2dVertex
 10
4.542757580114651
 20
15.30109163318862
 30
0.0
  0
VERTEX
  5
25E
330
255
100
AcDbEntity
  8
Livello 1
 62
   250
370
    15
100
AcDbVertex
100
AcDb2dVertex
 10
4.545375854410702
 20
15.29843890791499
 30
0.0
  0
VERTEX
  5
25F
330
255
100
AcDbEntity
  8
Livello 1
 62
   250
370
    15
100
AcDbVertex
100
AcDb2dVertex
 10
4.545375854410702
 20
15.29716422174455
 30
0.0
  0
VERTEX
  5
260
330
255
100
AcDbEntity
  8
Livello 1
 62
   250
370
    15
100
AcDbVertex
100
AcDb2dVertex
 10
4.548080256150702
 20
15.29716422174455
 30
0.0
  0
SEQEND
  5
261
330
255
100
AcDbEntity
  8
Livello 1
370
    15
  0
POLYLINE
  5
262
330
13C
100
AcDbEntity
  8
Livello 1
 62
   250
370
    15
100
AcDb2dPolyline
 66
     1
 10
0.0
 20
0.0
 30
0.0
  0
VERTEX
  5
263
330
262
100
AcDbEntity
  8
Livello 1
 62
   250
370
    15
100
AcDbVertex
100
AcDb2dVertex
 10
11.28045584378185
 20
20.78427477378287
 30
0.0
  0
VERTEX
  5
264
330
262
100
AcDbEntity
  8
Livello 1
 62
   250
370
    15
100
AcDbVertex
100
AcDb2dVertex
 10
11.28045584378185
 20
15.15343474328238
 30
0.0
  0
SEQEND
  5
265
330
262
100
AcDbEntity
  8
Livello 1
370
    15
  0
POLYLINE
  5
266
330
13C
100
AcDbEntity
  8
Livello 1
 62
   250
370
    15
100
AcDb2dPolyline
 66
     1
 10
0.0
 20
0.0
 30
0.0
  0
VERTEX
  5
267
330
266
100
AcDbEntity
  8
Livello 1
 62
   250
370
    15
100
AcDbVertex
100
AcDb2dVertex
 10
11.07626489966746
 20
15.49083039220836
 30
0.0
  0
VERTEX
  5
268
330
266
100
AcDbEntity
  8
Livello 1
 62
   250
370
    15
100
AcDbVertex
100
AcDb2dVertex
 10
11.07895207591868
 20
15.49083039220836
 30
0.0
  0
VERTEX
  5
269
330
266
100
AcDbEntity
  8
Livello 1
 62
   250
370
    15
100
AcDbVertex
100
AcDb2dVertex
 10
11.08150144825957
 20
15.49213952935639
 30
0.0
  0
VERTEX
  5
26A
330
266
100
AcDbEntity
  8
Livello 1
 62
   250
370
    15
100
AcDbVertex
100
AcDb2dVertex
 10
11.0841541735332
 20
15.49350034297078
 30
0.0
  0
VERTEX
  5
26B
330
266
100
AcDbEntity
  8
Livello 1
 62
   250
370
    15
100
AcDbVertex
100
AcDb2dVertex
 10
11.08677244782925
 20
15.49480948011881
 30
0.0
  0
VERTEX
  5
26C
330
266
100
AcDbEntity
  8
Livello 1
 62
   250
370
    15
100
AcDbVertex
100
AcDb2dVertex
 10
11.08808158497727
 20
15.49744497990365
 30
0.0
  0
VERTEX
  5
26D
330
266
100
AcDbEntity
  8
Livello 1
 62
   250
370
    15
100
AcDbVertex
100
AcDb2dVertex
 10
11.0893907221253
 20
15.5000632541997
 30
0.0
  0
VERTEX
  5
26E
330
266
100
AcDbEntity
  8
Livello 1
 62
   250
370
    15
100
AcDbVertex
100
AcDb2dVertex
 10
11.09066540829575
 20
15.50268152849575
 30
0.0
  0
VERTEX
  5
26F
330
266
100
AcDbEntity
  8
Livello 1
 62
   250
370
    15
100
AcDbVertex
100
AcDb2dVertex
 10
11.09066540829575
 20
15.50535147925817
 30
0.0
  0
SEQEND
  5
270
330
266
100
AcDbEntity
  8
Livello 1
370
    15
  0
POLYLINE
  5
271
330
13C
100
AcDbEntity
  8
Livello 1
 62
   250
370
    15
100
AcDb2dPolyline
 66
     1
 10
0.0
 20
0.0
 30
0.0
  0
VERTEX
  5
272
330
271
100
AcDbEntity
  8
Livello 1
 62
   250
370
    15
100
AcDbVertex
100
AcDb2dVertex
 10
11.07626489966746
 20
15.48025394209142
 30
0.0
  0
VERTEX
  5
273
330
271
100
AcDbEntity
  8
Livello 1
 62
   250
370
    15
100
AcDbVertex
100
AcDb2dVertex
 10
11.0841541735332
 20
15.48025394209142
 30
0.0
  0
VERTEX
  5
274
330
271
100
AcDbEntity
  8
Livello 1
 62
   250
370
    15
100
AcDbVertex
100
AcDb2dVertex
 10
11.08808158497727
 20
15.48161475570581
 30
0.0
  0
VERTEX
  5
275
330
271
100
AcDbEntity
  8
Livello 1
 62
   250
370
    15
100
AcDbVertex
100
AcDb2dVertex
 10
11.09066540829575
 20
15.48161475570581
 30
0.0
  0
VERTEX
  5
276
330
271
100
AcDbEntity
  8
Livello 1
 62
   250
370
    15
100
AcDbVertex
100
AcDb2dVertex
 10
11.09066540829575
 20
15.48423303000187
 30
0.0
  0
SEQEND
  5
277
330
271
100
AcDbEntity
  8
Livello 1
370
    15
  0
POLYLINE
  5
278
330
13C
100
AcDbEntity
  8
Livello 1
 62
   250
370
    15
100
AcDb2dPolyline
 66
     1
 10
0.0
 20
0.0
 30
0.0
  0
VERTEX
  5
279
330
278
100
AcDbEntity
  8
Livello 1
 62
   250
370
    15
100
AcDbVertex
100
AcDb2dVertex
 10
11.07750513486033
 20
15.29716422174455
 30
0.0
  0
VERTEX
  5
27A
330
278
100
AcDbEntity
  8
Livello 1
 62
   250
370
    15
100
AcDbVertex
100
AcDb2dVertex
 10
11.07895207591868
 20
15.29716422174455
 30
0.0
  0
VERTEX
  5
27B
330
278
100
AcDbEntity
  8
Livello 1
 62
   250
370
    15
100
AcDbVertex
100
AcDb2dVertex
 10
11.08019231111154
 20
15.29843890791499
 30
0.0
  0
VERTEX
  5
27C
330
278
100
AcDbEntity
  8
Livello 1
 62
   250
370
    15
100
AcDbVertex
100
AcDb2dVertex
 10
11.08150144825957
 20
15.30109163318862
 30
0.0
  0
VERTEX
  5
27D
330
278
100
AcDbEntity
  8
Livello 1
 62
   250
370
    15
100
AcDbVertex
100
AcDb2dVertex
 10
11.0841541735332
 20
15.30634540726951
 30
0.0
  0
VERTEX
  5
27E
330
278
100
AcDbEntity
  8
Livello 1
 62
   250
370
    15
100
AcDbVertex
100
AcDb2dVertex
 10
11.08542885970364
 20
15.31159918135041
 30
0.0
  0
VERTEX
  5
27F
330
278
100
AcDbEntity
  8
Livello 1
 62
   250
370
    15
100
AcDbVertex
100
AcDb2dVertex
 10
11.08677244782925
 20
15.31692185738646
 30
0.0
  0
VERTEX
  5
280
330
278
100
AcDbEntity
  8
Livello 1
 62
   250
370
    15
100
AcDbVertex
100
AcDb2dVertex
 10
11.08808158497727
 20
15.32873854269626
 30
0.0
  0
VERTEX
  5
281
330
278
100
AcDbEntity
  8
Livello 1
 62
   250
370
    15
100
AcDbVertex
100
AcDb2dVertex
 10
11.0893907221253
 20
15.33928054183563
 30
0.0
  0
VERTEX
  5
282
330
278
100
AcDbEntity
  8
Livello 1
 62
   250
370
    15
100
AcDbVertex
100
AcDb2dVertex
 10
11.09066540829575
 20
15.35113167812302
 30
0.0
  0
VERTEX
  5
283
330
278
100
AcDbEntity
  8
Livello 1
 62
   250
370
    15
100
AcDbVertex
100
AcDb2dVertex
 10
11.09200899642135
 20
15.36303449087677
 30
0.0
  0
VERTEX
  5
284
330
278
100
AcDbEntity
  8
Livello 1
 62
   250
370
    15
100
AcDbVertex
100
AcDb2dVertex
 10
11.09200899642135
 20
15.38542762630352
 30
0.0
  0
SEQEND
  5
285
330
278
100
AcDbEntity
  8
Livello 1
370
    15
  0
POLYLINE
  5
286
330
13C
100
AcDbEntity
  8
Livello 1
 62
   250
370
    15
100
AcDb2dPolyline
 66
     1
 10
0.0
 20
0.0
 30
0.0
  0
VERTEX
  5
287
330
286
100
AcDbEntity
  8
Livello 1
 62
   250
370
    15
100
AcDbVertex
100
AcDb2dVertex
 10
11.09066540829575
 20
20.4324958417174
 30
0.0
  0
VERTEX
  5
288
330
286
100
AcDbEntity
  8
Livello 1
 62
   250
370
    15
100
AcDbVertex
100
AcDb2dVertex
 10
11.09066540829575
 20
20.43511411601345
 30
0.0
  0
VERTEX
  5
289
330
286
100
AcDbEntity
  8
Livello 1
 62
   250
370
    15
100
AcDbVertex
100
AcDb2dVertex
 10
11.0893907221253
 20
20.43769793933192
 30
0.0
  0
VERTEX
  5
28A
330
286
100
AcDbEntity
  8
Livello 1
 62
   250
370
    15
100
AcDbVertex
100
AcDb2dVertex
 10
11.08808158497727
 20
20.44045401753829
 30
0.0
  0
VERTEX
  5
28B
330
286
100
AcDbEntity
  8
Livello 1
 62
   250
370
    15
100
AcDbVertex
100
AcDb2dVertex
 10
11.08677244782925
 20
20.44295171341281
 30
0.0
  0
VERTEX
  5
28C
330
286
100
AcDbEntity
  8
Livello 1
 62
   250
370
    15
100
AcDbVertex
100
AcDb2dVertex
 10
11.0841541735332
 20
20.44426085056084
 30
0.0
  0
VERTEX
  5
28D
330
286
100
AcDbEntity
  8
Livello 1
 62
   250
370
    15
100
AcDbVertex
100
AcDb2dVertex
 10
11.08150144825957
 20
20.44562166417523
 30
0.0
  0
VERTEX
  5
28E
330
286
100
AcDbEntity
  8
Livello 1
 62
   250
370
    15
100
AcDbVertex
100
AcDb2dVertex
 10
11.07895207591868
 20
20.44693080132326
 30
0.0
  0
VERTEX
  5
28F
330
286
100
AcDbEntity
  8
Livello 1
 62
   250
370
    15
100
AcDbVertex
100
AcDb2dVertex
 10
11.07626489966746
 20
20.44693080132326
 30
0.0
  0
SEQEND
  5
290
330
286
100
AcDbEntity
  8
Livello 1
370
    15
  0
POLYLINE
  5
291
330
13C
100
AcDbEntity
  8
Livello 1
 62
   250
370
    15
100
AcDb2dPolyline
 66
     1
 10
0.0
 20
0.0
 30
0.0
  0
VERTEX
  5
292
330
291
100
AcDbEntity
  8
Livello 1
 62
   250
370
    15
100
AcDbVertex
100
AcDb2dVertex
 10
11.09066540829575
 20
20.45352816352975
 30
0.0
  0
VERTEX
  5
293
330
291
100
AcDbEntity
  8
Livello 1
 62
   250
370
    15
100
AcDbVertex
100
AcDb2dVertex
 10
11.09066540829575
 20
20.4548028497002
 30
0.0
  0
VERTEX
  5
294
330
291
100
AcDbEntity
  8
Livello 1
 62
   250
370
    15
100
AcDbVertex
100
AcDb2dVertex
 10
11.08808158497727
 20
20.45619811429217
 30
0.0
  0
VERTEX
  5
295
330
291
100
AcDbEntity
  8
Livello 1
 62
   250
370
    15
100
AcDbVertex
100
AcDb2dVertex
 10
11.0841541735332
 20
20.45742112399625
 30
0.0
  0
VERTEX
  5
296
330
291
100
AcDbEntity
  8
Livello 1
 62
   250
370
    15
100
AcDbVertex
100
AcDb2dVertex
 10
11.07626489966746
 20
20.45742112399625
 30
0.0
  0
SEQEND
  5
297
330
291
100
AcDbEntity
  8
Livello 1
370
    15
  0
POLYLINE
  5
298
330
13C
100
AcDbEntity
  8
Livello 1
 62
   250
370
    15
100
AcDb2dPolyline
 66
     1
 10
0.0
 20
0.0
 30
0.0
  0
VERTEX
  5
299
330
298
100
AcDbEntity
  8
Livello 1
 62
   250
370
    15
100
AcDbVertex
100
AcDb2dVertex
 10
11.09200899642135
 20
20.55238524369446
 30
0.0
  0
VERTEX
  5
29A
330
298
100
AcDbEntity
  8
Livello 1
 62
   250
370
    15
100
AcDbVertex
100
AcDb2dVertex
 10
11.09200899642135
 20
20.57477837912122
 30
0.0
  0
VERTEX
  5
29B
330
298
100
AcDbEntity
  8
Livello 1
 62
   250
370
    15
100
AcDbVertex
100
AcDb2dVertex
 10
11.09066540829575
 20
20.5866295154086
 30
0.0
  0
VERTEX
  5
29C
330
298
100
AcDbEntity
  8
Livello 1
 62
   250
370
    15
100
AcDbVertex
100
AcDb2dVertex
 10
11.0893907221253
 20
20.59848065169599
 30
0.0
  0
VERTEX
  5
29D
330
298
100
AcDbEntity
  8
Livello 1
 62
   250
370
    15
100
AcDbVertex
100
AcDb2dVertex
 10
11.08808158497727
 20
20.60902265083535
 30
0.0
  0
VERTEX
  5
29E
330
298
100
AcDbEntity
  8
Livello 1
 62
   250
370
    15
100
AcDbVertex
100
AcDb2dVertex
 10
11.08677244782925
 20
20.62087378712274
 30
0.0
  0
VERTEX
  5
29F
330
298
100
AcDbEntity
  8
Livello 1
 62
   250
370
    15
100
AcDbVertex
100
AcDb2dVertex
 10
11.08542885970364
 20
20.62621368864759
 30
0.0
  0
VERTEX
  5
2A0
330
298
100
AcDbEntity
  8
Livello 1
 62
   250
370
    15
100
AcDbVertex
100
AcDb2dVertex
 10
11.0841541735332
 20
20.63145023723969
 30
0.0
  0
VERTEX
  5
2A1
330
298
100
AcDbEntity
  8
Livello 1
 62
   250
370
    15
100
AcDbVertex
100
AcDb2dVertex
 10
11.08150144825957
 20
20.63670401132058
 30
0.0
  0
VERTEX
  5
2A2
330
298
100
AcDbEntity
  8
Livello 1
 62
   250
370
    15
100
AcDbVertex
100
AcDb2dVertex
 10
11.08019231111154
 20
20.63933951110542
 30
0.0
  0
VERTEX
  5
2A3
330
298
100
AcDbEntity
  8
Livello 1
 62
   250
370
    15
100
AcDbVertex
100
AcDb2dVertex
 10
11.07895207591868
 20
20.64064864825344
 30
0.0
  0
VERTEX
  5
2A4
330
298
100
AcDbEntity
  8
Livello 1
 62
   250
370
    15
100
AcDbVertex
100
AcDb2dVertex
 10
11.07750513486033
 20
20.64064864825344
 30
0.0
  0
SEQEND
  5
2A5
330
298
100
AcDbEntity
  8
Livello 1
370
    15
  0
POLYLINE
  5
2A6
330
13C
100
AcDbEntity
  8
Livello 1
 62
   250
370
    15
100
AcDb2dPolyline
 66
     1
 10
0.0
 20
0.0
 30
0.0
  0
VERTEX
  5
2A7
330
2A6
100
AcDbEntity
  8
Livello 1
 62
   250
370
    15
100
AcDbVertex
100
AcDb2dVertex
 10
4.549354942321148
 20
20.44693080132326
 30
0.0
  0
VERTEX
  5
2A8
330
2A6
100
AcDbEntity
  8
Livello 1
 62
   250
370
    15
100
AcDbVertex
100
AcDb2dVertex
 10
4.545375854410702
 20
20.44693080132326
 30
0.0
  0
VERTEX
  5
2A9
330
2A6
100
AcDbEntity
  8
Livello 1
 62
   250
370
    15
100
AcDbVertex
100
AcDb2dVertex
 10
4.542757580114651
 20
20.44562166417523
 30
0.0
  0
VERTEX
  5
2AA
330
2A6
100
AcDbEntity
  8
Livello 1
 62
   250
370
    15
100
AcDbVertex
100
AcDb2dVertex
 10
4.540122080329811
 20
20.44426085056084
 30
0.0
  0
VERTEX
  5
2AB
330
2A6
100
AcDbEntity
  8
Livello 1
 62
   250
370
    15
100
AcDbVertex
100
AcDb2dVertex
 10
4.538778492204206
 20
20.44295171341281
 30
0.0
  0
VERTEX
  5
2AC
330
2A6
100
AcDbEntity
  8
Livello 1
 62
   250
370
    15
100
AcDbVertex
100
AcDb2dVertex
 10
4.536194668885734
 20
20.44045401753829
 30
0.0
  0
VERTEX
  5
2AD
330
2A6
100
AcDbEntity
  8
Livello 1
 62
   250
370
    15
100
AcDbVertex
100
AcDb2dVertex
 10
4.53483385527134
 20
20.43769793933192
 30
0.0
  0
VERTEX
  5
2AE
330
2A6
100
AcDbEntity
  8
Livello 1
 62
   250
370
    15
100
AcDbVertex
100
AcDb2dVertex
 10
4.533559169100894
 20
20.43511411601345
 30
0.0
  0
VERTEX
  5
2AF
330
2A6
100
AcDbEntity
  8
Livello 1
 62
   250
370
    15
100
AcDbVertex
100
AcDb2dVertex
 10
4.533559169100894
 20
20.4324958417174
 30
0.0
  0
SEQEND
  5
2B0
330
2A6
100
AcDbEntity
  8
Livello 1
370
    15
  0
POLYLINE
  5
2B1
330
13C
100
AcDbEntity
  8
Livello 1
 62
   250
370
    15
100
AcDb2dPolyline
 66
     1
 10
0.0
 20
0.0
 30
0.0
  0
VERTEX
  5
2B2
330
2B1
100
AcDbEntity
  8
Livello 1
 62
   250
370
    15
100
AcDbVertex
100
AcDb2dVertex
 10
4.548080256150702
 20
20.45742112399625
 30
0.0
  0
VERTEX
  5
2B3
330
2B1
100
AcDbEntity
  8
Livello 1
 62
   250
370
    15
100
AcDbVertex
100
AcDb2dVertex
 10
4.540122080329811
 20
20.45742112399625
 30
0.0
  0
VERTEX
  5
2B4
330
2B1
100
AcDbEntity
  8
Livello 1
 62
   250
370
    15
100
AcDbVertex
100
AcDb2dVertex
 10
4.536194668885734
 20
20.45619811429217
 30
0.0
  0
VERTEX
  5
2B5
330
2B1
100
AcDbEntity
  8
Livello 1
 62
   250
370
    15
100
AcDbVertex
100
AcDb2dVertex
 10
4.53483385527134
 20
20.4548028497002
 30
0.0
  0
VERTEX
  5
2B6
330
2B1
100
AcDbEntity
  8
Livello 1
 62
   250
370
    15
100
AcDbVertex
100
AcDb2dVertex
 10
4.533559169100894
 20
20.4548028497002
 30
0.0
  0
VERTEX
  5
2B7
330
2B1
100
AcDbEntity
  8
Livello 1
 62
   250
370
    15
100
AcDbVertex
100
AcDb2dVertex
 10
4.533559169100894
 20
20.45352816352975
 30
0.0
  0
SEQEND
  5
2B8
330
2B1
100
AcDbEntity
  8
Livello 1
370
    15
  0
POLYLINE
  5
2B9
330
13C
100
AcDbEntity
  8
Livello 1
 62
   250
370
    15
100
AcDb2dPolyline
 66
     1
 10
0.0
 20
0.0
 30
0.0
  0
VERTEX
  5
2BA
330
2B9
100
AcDbEntity
  8
Livello 1
 62
   250
370
    15
100
AcDbVertex
100
AcDb2dVertex
 10
4.548080256150702
 20
20.64064864825344
 30
0.0
  0
VERTEX
  5
2BB
330
2B9
100
AcDbEntity
  8
Livello 1
 62
   250
370
    15
100
AcDbVertex
100
AcDb2dVertex
 10
4.545375854410702
 20
20.64064864825344
 30
0.0
  0
VERTEX
  5
2BC
330
2B9
100
AcDbEntity
  8
Livello 1
 62
   250
370
    15
100
AcDbVertex
100
AcDb2dVertex
 10
4.545375854410702
 20
20.63933951110542
 30
0.0
  0
VERTEX
  5
2BD
330
2B9
100
AcDbEntity
  8
Livello 1
 62
   250
370
    15
100
AcDbVertex
100
AcDb2dVertex
 10
4.542757580114651
 20
20.63670401132058
 30
0.0
  0
VERTEX
  5
2BE
330
2B9
100
AcDbEntity
  8
Livello 1
 62
   250
370
    15
100
AcDbVertex
100
AcDb2dVertex
 10
4.541431217477837
 20
20.63145023723969
 30
0.0
  0
VERTEX
  5
2BF
330
2B9
100
AcDbEntity
  8
Livello 1
 62
   250
370
    15
100
AcDbVertex
100
AcDb2dVertex
 10
4.538778492204206
 20
20.62621368864759
 30
0.0
  0
VERTEX
  5
2C0
330
2B9
100
AcDbEntity
  8
Livello 1
 62
   250
370
    15
100
AcDbVertex
100
AcDb2dVertex
 10
4.53750380603376
 20
20.62087378712274
 30
0.0
  0
VERTEX
  5
2C1
330
2B9
100
AcDbEntity
  8
Livello 1
 62
   250
370
    15
100
AcDbVertex
100
AcDb2dVertex
 10
4.536194668885734
 20
20.60902265083535
 30
0.0
  0
VERTEX
  5
2C2
330
2B9
100
AcDbEntity
  8
Livello 1
 62
   250
370
    15
100
AcDbVertex
100
AcDb2dVertex
 10
4.53483385527134
 20
20.59848065169599
 30
0.0
  0
VERTEX
  5
2C3
330
2B9
100
AcDbEntity
  8
Livello 1
 62
   250
370
    15
100
AcDbVertex
100
AcDb2dVertex
 10
4.533559169100894
 20
20.5866295154086
 30
0.0
  0
VERTEX
  5
2C4
330
2B9
100
AcDbEntity
  8
Livello 1
 62
   250
370
    15
100
AcDbVertex
100
AcDb2dVertex
 10
4.533559169100894
 20
20.55238524369446
 30
0.0
  0
SEQEND
  5
2C5
330
2B9
100
AcDbEntity
  8
Livello 1
370
    15
  0
POLYLINE
  5
2C6
330
13C
100
AcDbEntity
  8
Livello 1
 62
   250
370
    15
100
AcDb2dPolyline
 66
     1
 10
0.0
 20
0.0
 30
0.0
  0
VERTEX
  5
2C7
330
2C6
100
AcDbEntity
  8
Livello 1
 62
   250
370
    15
100
AcDbVertex
100
AcDb2dVertex
 10
4.549354942321148
 20
15.49083039220836
 30
0.0
  0
VERTEX
  5
2C8
330
2C6
100
AcDbEntity
  8
Livello 1
 62
   250
370
    15
100
AcDbVertex
100
AcDb2dVertex
 10
4.548080256150702
 20
15.48554216714989
 30
0.0
  0
VERTEX
  5
2C9
330
2C6
100
AcDbEntity
  8
Livello 1
 62
   250
370
    15
100
AcDbVertex
100
AcDb2dVertex
 10
4.548080256150702
 20
15.48025394209142
 30
0.0
  0
SEQEND
  5
2CA
330
2C6
100
AcDbEntity
  8
Livello 1
370
    15
  0
POLYLINE
  5
2CB
330
13C
100
AcDbEntity
  8
Livello 1
 62
   250
370
    15
100
AcDb2dPolyline
 66
     1
 10
0.0
 20
0.0
 30
0.0
  0
VERTEX
  5
2CC
330
2CB
100
AcDbEntity
  8
Livello 1
 62
   250
370
    15
100
AcDbVertex
100
AcDb2dVertex
 10
11.07626489966746
 20
15.49083039220836
 30
0.0
  0
VERTEX
  5
2CD
330
2CB
100
AcDbEntity
  8
Livello 1
 62
   250
370
    15
100
AcDbVertex
100
AcDb2dVertex
 10
11.07626489966746
 20
15.48025394209142
 30
0.0
  0
SEQEND
  5
2CE
330
2CB
100
AcDbEntity
  8
Livello 1
370
    15
  0
POLYLINE
  5
2CF
330
13C
100
AcDbEntity
  8
Livello 1
 62
   250
370
    15
100
AcDb2dPolyline
 66
     1
 10
0.0
 20
0.0
 30
0.0
  0
VERTEX
  5
2D0
330
2CF
100
AcDbEntity
  8
Livello 1
 62
   250
370
    15
100
AcDbVertex
100
AcDb2dVertex
 10
11.26474619800555
 20
15.15216005711194
 30
0.0
  0
VERTEX
  5
2D1
330
2CF
100
AcDbEntity
  8
Livello 1
 62
   250
370
    15
100
AcDbVertex
100
AcDb2dVertex
 10
11.26474619800555
 20
15.14692350851984
 30
0.0
  0
VERTEX
  5
2D2
330
2CF
100
AcDbEntity
  8
Livello 1
 62
   250
370
    15
100
AcDbVertex
100
AcDb2dVertex
 10
11.26336815890236
 20
15.144288008735
 30
0.0
  0
VERTEX
  5
2D3
330
2CF
100
AcDbEntity
  8
Livello 1
 62
   250
370
    15
100
AcDbVertex
100
AcDb2dVertex
 10
11.26074988460631
 20
15.141583606995
 30
0.0
  0
VERTEX
  5
2D4
330
2CF
100
AcDbEntity
  8
Livello 1
 62
   250
370
    15
100
AcDbVertex
100
AcDb2dVertex
 10
11.25813161031026
 20
15.14030892082455
 30
0.0
  0
VERTEX
  5
2D5
330
2CF
100
AcDbEntity
  8
Livello 1
 62
   250
370
    15
100
AcDbVertex
100
AcDb2dVertex
 10
11.25675357120708
 20
15.13899978367652
 30
0.0
  0
VERTEX
  5
2D6
330
2CF
100
AcDbEntity
  8
Livello 1
 62
   250
370
    15
100
AcDbVertex
100
AcDb2dVertex
 10
11.25289506171816
 20
15.13765619555092
 30
0.0
  0
VERTEX
  5
2D7
330
2CF
100
AcDbEntity
  8
Livello 1
 62
   250
370
    15
100
AcDbVertex
100
AcDb2dVertex
 10
11.25013898351179
 20
15.13765619555092
 30
0.0
  0
SEQEND
  5
2D8
330
2CF
100
AcDbEntity
  8
Livello 1
370
    15
  0
POLYLINE
  5
2D9
330
13C
100
AcDbEntity
  8
Livello 1
 62
   250
370
    15
100
AcDb2dPolyline
 66
     1
 10
0.0
 20
0.0
 30
0.0
  0
VERTEX
  5
2DA
330
2D9
100
AcDbEntity
  8
Livello 1
 62
   250
370
    15
100
AcDbVertex
100
AcDb2dVertex
 10
4.374137270351217
 20
15.13765619555092
 30
0.0
  0
VERTEX
  5
2DB
330
2D9
100
AcDbEntity
  8
Livello 1
 62
   250
370
    15
100
AcDbVertex
100
AcDb2dVertex
 10
4.371467319588796
 20
15.13765619555092
 30
0.0
  0
VERTEX
  5
2DC
330
2D9
100
AcDbEntity
  8
Livello 1
 62
   250
370
    15
100
AcDbVertex
100
AcDb2dVertex
 10
4.368849045292746
 20
15.13899978367652
 30
0.0
  0
VERTEX
  5
2DD
330
2D9
100
AcDbEntity
  8
Livello 1
 62
   250
370
    15
100
AcDbVertex
100
AcDb2dVertex
 10
4.366179094530326
 20
15.14030892082455
 30
0.0
  0
VERTEX
  5
2DE
330
2D9
100
AcDbEntity
  8
Livello 1
 62
   250
370
    15
100
AcDbVertex
100
AcDb2dVertex
 10
4.363595271211854
 20
15.141583606995
 30
0.0
  0
VERTEX
  5
2DF
330
2D9
100
AcDbEntity
  8
Livello 1
 62
   250
370
    15
100
AcDbVertex
100
AcDb2dVertex
 10
4.362234457597459
 20
15.144288008735
 30
0.0
  0
VERTEX
  5
2E0
330
2D9
100
AcDbEntity
  8
Livello 1
 62
   250
370
    15
100
AcDbVertex
100
AcDb2dVertex
 10
4.360925320449434
 20
15.14692350851984
 30
0.0
  0
VERTEX
  5
2E1
330
2D9
100
AcDbEntity
  8
Livello 1
 62
   250
370
    15
100
AcDbVertex
100
AcDb2dVertex
 10
4.359616183301409
 20
15.14954178281589
 30
0.0
  0
VERTEX
  5
2E2
330
2D9
100
AcDbEntity
  8
Livello 1
 62
   250
370
    15
100
AcDbVertex
100
AcDb2dVertex
 10
4.359616183301409
 20
15.15216005711194
 30
0.0
  0
SEQEND
  5
2E3
330
2D9
100
AcDbEntity
  8
Livello 1
370
    15
  0
POLYLINE
  5
2E4
330
13C
100
AcDbEntity
  8
Livello 1
 62
   250
370
    15
100
AcDb2dPolyline
 66
     1
 10
0.0
 20
0.0
 30
0.0
  0
VERTEX
  5
2E5
330
2E4
100
AcDbEntity
  8
Livello 1
 62
   250
370
    15
100
AcDbVertex
100
AcDb2dVertex
 10
11.07626489966746
 20
20.44693080132326
 30
0.0
  0
VERTEX
  5
2E6
330
2E4
100
AcDbEntity
  8
Livello 1
 62
   250
370
    15
100
AcDbVertex
100
AcDb2dVertex
 10
11.07626489966746
 20
20.45742112399625
 30
0.0
  0
SEQEND
  5
2E7
330
2E4
100
AcDbEntity
  8
Livello 1
370
    15
  0
POLYLINE
  5
2E8
330
13C
100
AcDbEntity
  8
Livello 1
 62
   250
370
    15
100
AcDb2dPolyline
 66
     1
 10
0.0
 20
0.0
 30
0.0
  0
VERTEX
  5
2E9
330
2E8
100
AcDbEntity
  8
Livello 1
 62
   250
370
    15
100
AcDbVertex
100
AcDb2dVertex
 10
4.549354942321148
 20
20.44693080132326
 30
0.0
  0
VERTEX
  5
2EA
330
2E8
100
AcDbEntity
  8
Livello 1
 62
   250
370
    15
100
AcDbVertex
100
AcDb2dVertex
 10
4.548080256150702
 20
20.45221902638173
 30
0.0
  0
VERTEX
  5
2EB
330
2E8
100
AcDbEntity
  8
Livello 1
 62
   250
370
    15
100
AcDbVertex
100
AcDb2dVertex
 10
4.548080256150702
 20
20.45742112399625
 30
0.0
  0
SEQEND
  5
2EC
330
2E8
100
AcDbEntity
  8
Livello 1
370
    15
  0
POLYLINE
  5
2ED
330
13C
100
AcDbEntity
  8
Livello 1
 62
   250
370
    15
100
AcDb2dPolyline
 66
     1
 10
0.0
 20
0.0
 30
0.0
  0
VERTEX
  5
2EE
330
2ED
100
AcDbEntity
  8
Livello 1
 62
   250
370
    15
100
AcDbVertex
100
AcDb2dVertex
 10
4.359616183301409
 20
20.78560113641968
 30
0.0
  0
VERTEX
  5
2EF
330
2ED
100
AcDbEntity
  8
Livello 1
 62
   250
370
    15
100
AcDbVertex
100
AcDb2dVertex
 10
4.359616183301409
 20
20.78821941071573
 30
0.0
  0
VERTEX
  5
2F0
330
2ED
100
AcDbEntity
  8
Livello 1
 62
   250
370
    15
100
AcDbVertex
100
AcDb2dVertex
 10
4.360925320449434
 20
20.79085491050057
 30
0.0
  0
VERTEX
  5
2F1
330
2ED
100
AcDbEntity
  8
Livello 1
 62
   250
370
    15
100
AcDbVertex
100
AcDb2dVertex
 10
4.362234457597459
 20
20.79347318479662
 30
0.0
  0
VERTEX
  5
2F2
330
2ED
100
AcDbEntity
  8
Livello 1
 62
   250
370
    15
100
AcDbVertex
100
AcDb2dVertex
 10
4.363595271211854
 20
20.79617758653662
 30
0.0
  0
VERTEX
  5
2F3
330
2ED
100
AcDbEntity
  8
Livello 1
 62
   250
370
    15
100
AcDbVertex
100
AcDb2dVertex
 10
4.366179094530326
 20
20.7974005962407
 30
0.0
  0
VERTEX
  5
2F4
330
2ED
100
AcDbEntity
  8
Livello 1
 62
   250
370
    15
100
AcDbVertex
100
AcDb2dVertex
 10
4.368849045292746
 20
20.7987614098551
 30
0.0
  0
VERTEX
  5
2F5
330
2ED
100
AcDbEntity
  8
Livello 1
 62
   250
370
    15
100
AcDbVertex
100
AcDb2dVertex
 10
4.371467319588796
 20
20.80012222346949
 30
0.0
  0
VERTEX
  5
2F6
330
2ED
100
AcDbEntity
  8
Livello 1
 62
   250
370
    15
100
AcDbVertex
100
AcDb2dVertex
 10
4.374137270351217
 20
20.80012222346949
 30
0.0
  0
SEQEND
  5
2F7
330
2ED
100
AcDbEntity
  8
Livello 1
370
    15
  0
POLYLINE
  5
2F8
330
13C
100
AcDbEntity
  8
Livello 1
 62
   250
370
    15
100
AcDb2dPolyline
 66
     1
 10
0.0
 20
0.0
 30
0.0
  0
VERTEX
  5
2F9
330
2F8
100
AcDbEntity
  8
Livello 1
 62
   250
370
    15
100
AcDbVertex
100
AcDb2dVertex
 10
11.25013898351179
 20
20.80012222346949
 30
0.0
  0
VERTEX
  5
2FA
330
2F8
100
AcDbEntity
  8
Livello 1
 62
   250
370
    15
100
AcDbVertex
100
AcDb2dVertex
 10
11.25289506171816
 20
20.80012222346949
 30
0.0
  0
VERTEX
  5
2FB
330
2F8
100
AcDbEntity
  8
Livello 1
 62
   250
370
    15
100
AcDbVertex
100
AcDb2dVertex
 10
11.25675357120708
 20
20.7987614098551
 30
0.0
  0
VERTEX
  5
2FC
330
2F8
100
AcDbEntity
  8
Livello 1
 62
   250
370
    15
100
AcDbVertex
100
AcDb2dVertex
 10
11.25813161031026
 20
20.7974005962407
 30
0.0
  0
VERTEX
  5
2FD
330
2F8
100
AcDbEntity
  8
Livello 1
 62
   250
370
    15
100
AcDbVertex
100
AcDb2dVertex
 10
11.26074988460631
 20
20.79617758653662
 30
0.0
  0
VERTEX
  5
2FE
330
2F8
100
AcDbEntity
  8
Livello 1
 62
   250
370
    15
100
AcDbVertex
100
AcDb2dVertex
 10
11.26336815890236
 20
20.79347318479662
 30
0.0
  0
VERTEX
  5
2FF
330
2F8
100
AcDbEntity
  8
Livello 1
 62
   250
370
    15
100
AcDbVertex
100
AcDb2dVertex
 10
11.26474619800555
 20
20.79085491050057
 30
0.0
  0
VERTEX
  5
300
330
2F8
100
AcDbEntity
  8
Livello 1
 62
   250
370
    15
100
AcDbVertex
100
AcDb2dVertex
 10
11.26474619800555
 20
20.78560113641968
 30
0.0
  0
SEQEND
  5
301
330
2F8
100
AcDbEntity
  8
Livello 1
370
    15
  0
POLYLINE
  5
302
330
13C
100
AcDbEntity
  8
Livello 1
 62
   250
370
    15
100
AcDb2dPolyline
 66
     1
 10
0.0
 20
0.0
 30
0.0
  0
VERTEX
  5
303
330
302
100
AcDbEntity
  8
Livello 1
 62
   250
370
    15
100
AcDbVertex
100
AcDb2dVertex
 10
11.07750513486033
 20
15.29187599668608
 30
0.0
  0
VERTEX
  5
304
330
302
100
AcDbEntity
  8
Livello 1
 62
   250
370
    15
100
AcDbVertex
100
AcDb2dVertex
 10
11.08019231111154
 20
15.29321958481168
 30
0.0
  0
VERTEX
  5
305
330
302
100
AcDbEntity
  8
Livello 1
 62
   250
370
    15
100
AcDbVertex
100
AcDb2dVertex
 10
11.0841541735332
 20
15.29444259451576
 30
0.0
  0
VERTEX
  5
306
330
302
100
AcDbEntity
  8
Livello 1
 62
   250
370
    15
100
AcDbVertex
100
AcDb2dVertex
 10
11.08542885970364
 20
15.29580340813015
 30
0.0
  0
VERTEX
  5
307
330
302
100
AcDbEntity
  8
Livello 1
 62
   250
370
    15
100
AcDbVertex
100
AcDb2dVertex
 10
11.08808158497727
 20
15.29843890791499
 30
0.0
  0
VERTEX
  5
308
330
302
100
AcDbEntity
  8
Livello 1
 62
   250
370
    15
100
AcDbVertex
100
AcDb2dVertex
 10
11.09200899642135
 20
15.30372713297346
 30
0.0
  0
VERTEX
  5
309
330
302
100
AcDbEntity
  8
Livello 1
 62
   250
370
    15
100
AcDbVertex
100
AcDb2dVertex
 10
11.09469617267256
 20
15.30901535803193
 30
0.0
  0
VERTEX
  5
30A
330
302
100
AcDbEntity
  8
Livello 1
 62
   250
370
    15
100
AcDbVertex
100
AcDb2dVertex
 10
11.09727999599103
 20
15.31552659279448
 30
0.0
  0
VERTEX
  5
30B
330
302
100
AcDbEntity
  8
Livello 1
 62
   250
370
    15
100
AcDbVertex
100
AcDb2dVertex
 10
11.0985202311839
 20
15.32217563146735
 30
0.0
  0
VERTEX
  5
30C
330
302
100
AcDbEntity
  8
Livello 1
 62
   250
370
    15
100
AcDbVertex
100
AcDb2dVertex
 10
11.10120740743511
 20
15.33399231677716
 30
0.0
  0
VERTEX
  5
30D
330
302
100
AcDbEntity
  8
Livello 1
 62
   250
370
    15
100
AcDbVertex
100
AcDb2dVertex
 10
11.10386013270874
 20
15.34587790404212
 30
0.0
  0
VERTEX
  5
30E
330
302
100
AcDbEntity
  8
Livello 1
 62
   250
370
    15
100
AcDbVertex
100
AcDb2dVertex
 10
11.10516926985676
 20
15.35905540296633
 30
0.0
  0
VERTEX
  5
30F
330
302
100
AcDbEntity
  8
Livello 1
 62
   250
370
    15
100
AcDbVertex
100
AcDb2dVertex
 10
11.10644395602721
 20
15.37230180384569
 30
0.0
  0
VERTEX
  5
310
330
302
100
AcDbEntity
  8
Livello 1
 62
   250
370
    15
100
AcDbVertex
100
AcDb2dVertex
 10
11.10644395602721
 20
15.38415294013308
 30
0.0
  0
VERTEX
  5
311
330
302
100
AcDbEntity
  8
Livello 1
 62
   250
370
    15
100
AcDbVertex
100
AcDb2dVertex
 10
11.10782199513039
 20
16.67680529538667
 30
0.0
  0
VERTEX
  5
312
330
302
100
AcDbEntity
  8
Livello 1
 62
   250
370
    15
100
AcDbVertex
100
AcDb2dVertex
 10
11.10782199513039
 20
19.26095589814495
 30
0.0
  0
VERTEX
  5
313
330
302
100
AcDbEntity
  8
Livello 1
 62
   250
370
    15
100
AcDbVertex
100
AcDb2dVertex
 10
11.10644395602721
 20
20.55238524369446
 30
0.0
  0
VERTEX
  5
314
330
302
100
AcDbEntity
  8
Livello 1
 62
   250
370
    15
100
AcDbVertex
100
AcDb2dVertex
 10
11.10644395602721
 20
20.56554551712988
 30
0.0
  0
VERTEX
  5
315
330
302
100
AcDbEntity
  8
Livello 1
 62
   250
370
    15
100
AcDbVertex
100
AcDb2dVertex
 10
11.10516926985676
 20
20.57870579056529
 30
0.0
  0
VERTEX
  5
316
330
302
100
AcDbEntity
  8
Livello 1
 62
   250
370
    15
100
AcDbVertex
100
AcDb2dVertex
 10
11.10386013270874
 20
20.59055692685268
 30
0.0
  0
VERTEX
  5
317
330
302
100
AcDbEntity
  8
Livello 1
 62
   250
370
    15
100
AcDbVertex
100
AcDb2dVertex
 10
11.10120740743511
 20
20.60373442577689
 30
0.0
  0
VERTEX
  5
318
330
302
100
AcDbEntity
  8
Livello 1
 62
   250
370
    15
100
AcDbVertex
100
AcDb2dVertex
 10
11.0985202311839
 20
20.61562001304185
 30
0.0
  0
VERTEX
  5
319
330
302
100
AcDbEntity
  8
Livello 1
 62
   250
370
    15
100
AcDbVertex
100
AcDb2dVertex
 10
11.09727999599103
 20
20.62223460073714
 30
0.0
  0
VERTEX
  5
31A
330
302
100
AcDbEntity
  8
Livello 1
 62
   250
370
    15
100
AcDbVertex
100
AcDb2dVertex
 10
11.09469617267256
 20
20.62752282579561
 30
0.0
  0
VERTEX
  5
31B
330
302
100
AcDbEntity
  8
Livello 1
 62
   250
370
    15
100
AcDbVertex
100
AcDb2dVertex
 10
11.09200899642135
 20
20.63403406055816
 30
0.0
  0
VERTEX
  5
31C
330
302
100
AcDbEntity
  8
Livello 1
 62
   250
370
    15
100
AcDbVertex
100
AcDb2dVertex
 10
11.08808158497727
 20
20.63933951110542
 30
0.0
  0
VERTEX
  5
31D
330
302
100
AcDbEntity
  8
Livello 1
 62
   250
370
    15
100
AcDbVertex
100
AcDb2dVertex
 10
11.08542885970364
 20
20.64195778540147
 30
0.0
  0
VERTEX
  5
31E
330
302
100
AcDbEntity
  8
Livello 1
 62
   250
370
    15
100
AcDbVertex
100
AcDb2dVertex
 10
11.0841541735332
 20
20.64326692254949
 30
0.0
  0
VERTEX
  5
31F
330
302
100
AcDbEntity
  8
Livello 1
 62
   250
370
    15
100
AcDbVertex
100
AcDb2dVertex
 10
11.08019231111154
 20
20.64457605969752
 30
0.0
  0
VERTEX
  5
320
330
302
100
AcDbEntity
  8
Livello 1
 62
   250
370
    15
100
AcDbVertex
100
AcDb2dVertex
 10
11.07750513486033
 20
20.64590242233433
 30
0.0
  0
SEQEND
  5
321
330
302
100
AcDbEntity
  8
Livello 1
370
    15
  0
POLYLINE
  5
322
330
13C
100
AcDbEntity
  8
Livello 1
 62
   250
370
    15
100
AcDb2dPolyline
 66
     1
 10
0.0
 20
0.0
 30
0.0
  0
VERTEX
  5
323
330
322
100
AcDbEntity
  8
Livello 1
 62
   250
370
    15
100
AcDbVertex
100
AcDb2dVertex
 10
4.548080256150702
 20
20.64590242233433
 30
0.0
  0
VERTEX
  5
324
330
322
100
AcDbEntity
  8
Livello 1
 62
   250
370
    15
100
AcDbVertex
100
AcDb2dVertex
 10
4.544101168240257
 20
20.64457605969752
 30
0.0
  0
VERTEX
  5
325
330
322
100
AcDbEntity
  8
Livello 1
 62
   250
370
    15
100
AcDbVertex
100
AcDb2dVertex
 10
4.541431217477837
 20
20.64326692254949
 30
0.0
  0
VERTEX
  5
326
330
322
100
AcDbEntity
  8
Livello 1
 62
   250
370
    15
100
AcDbVertex
100
AcDb2dVertex
 10
4.538778492204206
 20
20.64195778540147
 30
0.0
  0
VERTEX
  5
327
330
322
100
AcDbEntity
  8
Livello 1
 62
   250
370
    15
100
AcDbVertex
100
AcDb2dVertex
 10
4.536194668885734
 20
20.63933951110542
 30
0.0
  0
VERTEX
  5
328
330
322
100
AcDbEntity
  8
Livello 1
 62
   250
370
    15
100
AcDbVertex
100
AcDb2dVertex
 10
4.533559169100894
 20
20.63403406055816
 30
0.0
  0
VERTEX
  5
329
330
322
100
AcDbEntity
  8
Livello 1
 62
   250
370
    15
100
AcDbVertex
100
AcDb2dVertex
 10
4.530854767360894
 20
20.62752282579561
 30
0.0
  0
VERTEX
  5
32A
330
322
100
AcDbEntity
  8
Livello 1
 62
   250
370
    15
100
AcDbVertex
100
AcDb2dVertex
 10
4.528236493064843
 20
20.62223460073714
 30
0.0
  0
VERTEX
  5
32B
330
322
100
AcDbEntity
  8
Livello 1
 62
   250
370
    15
100
AcDbVertex
100
AcDb2dVertex
 10
4.525652669746372
 20
20.61562001304185
 30
0.0
  0
VERTEX
  5
32C
330
322
100
AcDbEntity
  8
Livello 1
 62
   250
370
    15
100
AcDbVertex
100
AcDb2dVertex
 10
4.523017169961531
 20
20.60373442577689
 30
0.0
  0
VERTEX
  5
32D
330
322
100
AcDbEntity
  8
Livello 1
 62
   250
370
    15
100
AcDbVertex
100
AcDb2dVertex
 10
4.520364444687901
 20
20.59055692685268
 30
0.0
  0
VERTEX
  5
32E
330
322
100
AcDbEntity
  8
Livello 1
 62
   250
370
    15
100
AcDbVertex
100
AcDb2dVertex
 10
4.519003631073506
 20
20.57870579056529
 30
0.0
  0
VERTEX
  5
32F
330
322
100
AcDbEntity
  8
Livello 1
 62
   250
370
    15
100
AcDbVertex
100
AcDb2dVertex
 10
4.519003631073506
 20
20.56554551712988
 30
0.0
  0
VERTEX
  5
330
330
322
100
AcDbEntity
  8
Livello 1
 62
   250
370
    15
100
AcDbVertex
100
AcDb2dVertex
 10
4.51772894490306
 20
20.55238524369446
 30
0.0
  0
SEQEND
  5
331
330
322
100
AcDbEntity
  8
Livello 1
370
    15
  0
POLYLINE
  5
332
330
13C
100
AcDbEntity
  8
Livello 1
 62
   250
370
    15
100
AcDb2dPolyline
 66
     1
 10
0.0
 20
0.0
 30
0.0
  0
VERTEX
  5
333
330
332
100
AcDbEntity
  8
Livello 1
 62
   250
370
    15
100
AcDbVertex
100
AcDb2dVertex
 10
11.28045584378185
 20
15.15343474328238
 30
0.0
  0
VERTEX
  5
334
330
332
100
AcDbEntity
  8
Livello 1
 62
   250
370
    15
100
AcDbVertex
100
AcDb2dVertex
 10
11.27656288331536
 20
15.15343474328238
 30
0.0
  0
VERTEX
  5
335
330
332
100
AcDbEntity
  8
Livello 1
 62
   250
370
    15
100
AcDbVertex
100
AcDb2dVertex
 10
11.27266992284886
 20
15.15216005711194
 30
0.0
  0
VERTEX
  5
336
330
332
100
AcDbEntity
  8
Livello 1
 62
   250
370
    15
100
AcDbVertex
100
AcDb2dVertex
 10
11.26474619800555
 20
15.15216005711194
 30
0.0
  0
SEQEND
  5
337
330
332
100
AcDbEntity
  8
Livello 1
370
    15
  0
POLYLINE
  5
338
330
13C
100
AcDbEntity
  8
Livello 1
 62
   250
370
    15
100
AcDb2dPolyline
 66
     1
 10
0.0
 20
0.0
 30
0.0
  0
VERTEX
  5
339
330
338
100
AcDbEntity
  8
Livello 1
 62
   250
370
    15
100
AcDbVertex
100
AcDb2dVertex
 10
4.3450950962516
 20
15.15343474328238
 30
0.0
  0
VERTEX
  5
33A
330
338
100
AcDbEntity
  8
Livello 1
 62
   250
370
    15
100
AcDbVertex
100
AcDb2dVertex
 10
4.349039733184466
 20
15.15343474328238
 30
0.0
  0
VERTEX
  5
33B
330
338
100
AcDbEntity
  8
Livello 1
 62
   250
370
    15
100
AcDbVertex
100
AcDb2dVertex
 10
4.351692458458096
 20
15.15216005711194
 30
0.0
  0
VERTEX
  5
33C
330
338
100
AcDbEntity
  8
Livello 1
 62
   250
370
    15
100
AcDbVertex
100
AcDb2dVertex
 10
4.359616183301409
 20
15.15216005711194
 30
0.0
  0
SEQEND
  5
33D
330
338
100
AcDbEntity
  8
Livello 1
370
    15
  0
POLYLINE
  5
33E
330
13C
100
AcDbEntity
  8
Livello 1
 62
   250
370
    15
100
AcDb2dPolyline
 66
     1
 10
0.0
 20
0.0
 30
0.0
  0
VERTEX
  5
33F
330
33E
100
AcDbEntity
  8
Livello 1
 62
   250
370
    15
100
AcDbVertex
100
AcDb2dVertex
 10
4.3450950962516
 20
20.78427477378287
 30
0.0
  0
VERTEX
  5
340
330
33E
100
AcDbEntity
  8
Livello 1
 62
   250
370
    15
100
AcDbVertex
100
AcDb2dVertex
 10
4.349039733184466
 20
20.78427477378287
 30
0.0
  0
VERTEX
  5
341
330
33E
100
AcDbEntity
  8
Livello 1
 62
   250
370
    15
100
AcDbVertex
100
AcDb2dVertex
 10
4.351692458458096
 20
20.78560113641968
 30
0.0
  0
VERTEX
  5
342
330
33E
100
AcDbEntity
  8
Livello 1
 62
   250
370
    15
100
AcDbVertex
100
AcDb2dVertex
 10
4.359616183301409
 20
20.78560113641968
 30
0.0
  0
SEQEND
  5
343
330
33E
100
AcDbEntity
  8
Livello 1
370
    15
  0
POLYLINE
  5
344
330
13C
100
AcDbEntity
  8
Livello 1
 62
   250
370
    15
100
AcDb2dPolyline
 66
     1
 10
0.0
 20
0.0
 30
0.0
  0
VERTEX
  5
345
330
344
100
AcDbEntity
  8
Livello 1
 62
   250
370
    15
100
AcDbVertex
100
AcDb2dVertex
 10
11.28045584378185
 20
20.78427477378287
 30
0.0
  0
VERTEX
  5
346
330
344
100
AcDbEntity
  8
Livello 1
 62
   250
370
    15
100
AcDbVertex
100
AcDb2dVertex
 10
11.27656288331536
 20
20.78427477378287
 30
0.0
  0
VERTEX
  5
347
330
344
100
AcDbEntity
  8
Livello 1
 62
   250
370
    15
100
AcDbVertex
100
AcDb2dVertex
 10
11.27266992284886
 20
20.78560113641968
 30
0.0
  0
VERTEX
  5
348
330
344
100
AcDbEntity
  8
Livello 1
 62
   250
370
    15
100
AcDbVertex
100
AcDb2dVertex
 10
11.26474619800555
 20
20.78560113641968
 30
0.0
  0
SEQEND
  5
349
330
344
100
AcDbEntity
  8
Livello 1
370
    15
  0
POLYLINE
  5
34A
330
13C
100
AcDbEntity
  8
Livello 1
 62
   250
370
    15
100
AcDb2dPolyline
 66
     1
 10
0.0
 20
0.0
 30
0.0
  0
VERTEX
  5
34B
330
34A
100
AcDbEntity
  8
Livello 1
 62
   250
370
    15
100
AcDbVertex
100
AcDb2dVertex
 10
3.027327978342464
 20
14.22577326999604
 30
0.0
  0
VERTEX
  5
34C
330
34A
100
AcDbEntity
  8
Livello 1
 62
   250
370
    15
100
AcDbVertex
100
AcDb2dVertex
 10
3.027327978342464
 20
14.21919313327833
 30
0.0
  0
VERTEX
  5
34D
330
34A
100
AcDbEntity
  8
Livello 1
 62
   250
370
    15
100
AcDbVertex
100
AcDb2dVertex
 10
3.028637115490489
 20
14.21657485898228
 30
0.0
  0
VERTEX
  5
34E
330
34A
100
AcDbEntity
  8
Livello 1
 62
   250
370
    15
100
AcDbVertex
100
AcDb2dVertex
 10
3.028637115490489
 20
14.21392213370865
 30
0.0
  0
VERTEX
  5
34F
330
34A
100
AcDbEntity
  8
Livello 1
 62
   250
370
    15
100
AcDbVertex
100
AcDb2dVertex
 10
3.030015154593674
 20
14.2113038594126
 30
0.0
  0
VERTEX
  5
350
330
34A
100
AcDbEntity
  8
Livello 1
 62
   250
370
    15
100
AcDbVertex
100
AcDb2dVertex
 10
3.032598977912146
 20
14.20861668316139
 30
0.0
  0
VERTEX
  5
351
330
34A
100
AcDbEntity
  8
Livello 1
 62
   250
370
    15
100
AcDbVertex
100
AcDb2dVertex
 10
3.033942566037751
 20
14.20603285984292
 30
0.0
  0
VERTEX
  5
352
330
34A
100
AcDbEntity
  8
Livello 1
 62
   250
370
    15
100
AcDbVertex
100
AcDb2dVertex
 10
3.035251703185776
 20
14.20468927171732
 30
0.0
  0
VERTEX
  5
353
330
34A
100
AcDbEntity
  8
Livello 1
 62
   250
370
    15
100
AcDbVertex
100
AcDb2dVertex
 10
3.037904428459407
 20
14.20203654644368
 30
0.0
  0
VERTEX
  5
354
330
34A
100
AcDbEntity
  8
Livello 1
 62
   250
370
    15
100
AcDbVertex
100
AcDb2dVertex
 10
3.040539928244247
 20
14.20072740929566
 30
0.0
  0
VERTEX
  5
355
330
34A
100
AcDbEntity
  8
Livello 1
 62
   250
370
    15
100
AcDbVertex
100
AcDb2dVertex
 10
3.043192653517878
 20
14.19945272312521
 30
0.0
  0
VERTEX
  5
356
330
34A
100
AcDbEntity
  8
Livello 1
 62
   250
370
    15
100
AcDbVertex
100
AcDb2dVertex
 10
3.045793702325139
 20
14.19800578206687
 30
0.0
  0
VERTEX
  5
357
330
34A
100
AcDbEntity
  8
Livello 1
 62
   250
370
    15
100
AcDbVertex
100
AcDb2dVertex
 10
3.04841197662119
 20
14.19683444882916
 30
0.0
  0
VERTEX
  5
358
330
34A
100
AcDbEntity
  8
Livello 1
 62
   250
370
    15
100
AcDbVertex
100
AcDb2dVertex
 10
3.05106470189482
 20
14.19683444882916
 30
0.0
  0
VERTEX
  5
359
330
34A
100
AcDbEntity
  8
Livello 1
 62
   250
370
    15
100
AcDbVertex
100
AcDb2dVertex
 10
3.053700201679661
 20
14.19552531168114
 30
0.0
  0
VERTEX
  5
35A
330
34A
100
AcDbEntity
  8
Livello 1
 62
   250
370
    15
100
AcDbVertex
100
AcDb2dVertex
 10
3.056301250486922
 20
14.19552531168114
 30
0.0
  0
SEQEND
  5
35B
330
34A
100
AcDbEntity
  8
Livello 1
370
    15
  0
POLYLINE
  5
35C
330
13C
100
AcDbEntity
  8
Livello 1
 62
   250
370
    15
100
AcDb2dPolyline
 66
     1
 10
0.0
 20
0.0
 30
0.0
  0
VERTEX
  5
35D
330
35C
100
AcDbEntity
  8
Livello 1
 62
   250
370
    15
100
AcDbVertex
100
AcDb2dVertex
 10
3.056301250486922
 20
21.74228755831685
 30
0.0
  0
VERTEX
  5
35E
330
35C
100
AcDbEntity
  8
Livello 1
 62
   250
370
    15
100
AcDbVertex
100
AcDb2dVertex
 10
3.053700201679661
 20
21.74228755831685
 30
0.0
  0
VERTEX
  5
35F
330
35C
100
AcDbEntity
  8
Livello 1
 62
   250
370
    15
100
AcDbVertex
100
AcDb2dVertex
 10
3.05106470189482
 20
21.74097842116883
 30
0.0
  0
VERTEX
  5
360
330
35C
100
AcDbEntity
  8
Livello 1
 62
   250
370
    15
100
AcDbVertex
100
AcDb2dVertex
 10
3.04841197662119
 20
21.74097842116883
 30
0.0
  0
VERTEX
  5
361
330
35C
100
AcDbEntity
  8
Livello 1
 62
   250
370
    15
100
AcDbVertex
100
AcDb2dVertex
 10
3.045793702325139
 20
21.7396692840208
 30
0.0
  0
VERTEX
  5
362
330
35C
100
AcDbEntity
  8
Livello 1
 62
   250
370
    15
100
AcDbVertex
100
AcDb2dVertex
 10
3.043192653517878
 20
21.73834292138399
 30
0.0
  0
VERTEX
  5
363
330
35C
100
AcDbEntity
  8
Livello 1
 62
   250
370
    15
100
AcDbVertex
100
AcDb2dVertex
 10
3.040539928244247
 20
21.73703378423596
 30
0.0
  0
VERTEX
  5
364
330
35C
100
AcDbEntity
  8
Livello 1
 62
   250
370
    15
100
AcDbVertex
100
AcDb2dVertex
 10
3.037904428459407
 20
21.73569019611035
 30
0.0
  0
VERTEX
  5
365
330
35C
100
AcDbEntity
  8
Livello 1
 62
   250
370
    15
100
AcDbVertex
100
AcDb2dVertex
 10
3.035251703185776
 20
21.73310637279188
 30
0.0
  0
VERTEX
  5
366
330
35C
100
AcDbEntity
  8
Livello 1
 62
   250
370
    15
100
AcDbVertex
100
AcDb2dVertex
 10
3.033942566037751
 20
21.73043642202946
 30
0.0
  0
VERTEX
  5
367
330
35C
100
AcDbEntity
  8
Livello 1
 62
   250
370
    15
100
AcDbVertex
100
AcDb2dVertex
 10
3.032598977912146
 20
21.72912728488144
 30
0.0
  0
VERTEX
  5
368
330
35C
100
AcDbEntity
  8
Livello 1
 62
   250
370
    15
100
AcDbVertex
100
AcDb2dVertex
 10
3.030015154593674
 20
21.72645733411902
 30
0.0
  0
VERTEX
  5
369
330
35C
100
AcDbEntity
  8
Livello 1
 62
   250
370
    15
100
AcDbVertex
100
AcDb2dVertex
 10
3.028637115490489
 20
21.72382183433418
 30
0.0
  0
VERTEX
  5
36A
330
35C
100
AcDbEntity
  8
Livello 1
 62
   250
370
    15
100
AcDbVertex
100
AcDb2dVertex
 10
3.028637115490489
 20
21.72120356003813
 30
0.0
  0
VERTEX
  5
36B
330
35C
100
AcDbEntity
  8
Livello 1
 62
   250
370
    15
100
AcDbVertex
100
AcDb2dVertex
 10
3.027327978342464
 20
21.71858528574208
 30
0.0
  0
VERTEX
  5
36C
330
35C
100
AcDbEntity
  8
Livello 1
 62
   250
370
    15
100
AcDbVertex
100
AcDb2dVertex
 10
3.027327978342464
 20
21.71197069804679
 30
0.0
  0
SEQEND
  5
36D
330
35C
100
AcDbEntity
  8
Livello 1
370
    15
  0
POLYLINE
  5
36E
330
13C
100
AcDbEntity
  8
Livello 1
 62
   250
370
    15
100
AcDb2dPolyline
 66
     1
 10
0.0
 20
0.0
 30
0.0
  0
VERTEX
  5
36F
330
36E
100
AcDbEntity
  8
Livello 1
 62
   250
370
    15
100
AcDbVertex
100
AcDb2dVertex
 10
12.59824018717978
 20
21.71197069804679
 30
0.0
  0
VERTEX
  5
370
330
36E
100
AcDbEntity
  8
Livello 1
 62
   250
370
    15
100
AcDbVertex
100
AcDb2dVertex
 10
12.59824018717978
 20
21.71460619783163
 30
0.0
  0
VERTEX
  5
371
330
36E
100
AcDbEntity
  8
Livello 1
 62
   250
370
    15
100
AcDbVertex
100
AcDb2dVertex
 10
12.59693105003175
 20
21.71858528574208
 30
0.0
  0
VERTEX
  5
372
330
36E
100
AcDbEntity
  8
Livello 1
 62
   250
370
    15
100
AcDbVertex
100
AcDb2dVertex
 10
12.59693105003175
 20
21.72120356003813
 30
0.0
  0
VERTEX
  5
373
330
36E
100
AcDbEntity
  8
Livello 1
 62
   250
370
    15
100
AcDbVertex
100
AcDb2dVertex
 10
12.59565636386131
 20
21.72382183433418
 30
0.0
  0
VERTEX
  5
374
330
36E
100
AcDbEntity
  8
Livello 1
 62
   250
370
    15
100
AcDbVertex
100
AcDb2dVertex
 10
12.5943127757357
 20
21.72645733411902
 30
0.0
  0
VERTEX
  5
375
330
36E
100
AcDbEntity
  8
Livello 1
 62
   250
370
    15
100
AcDbVertex
100
AcDb2dVertex
 10
12.59293473663252
 20
21.72912728488144
 30
0.0
  0
VERTEX
  5
376
330
36E
100
AcDbEntity
  8
Livello 1
 62
   250
370
    15
100
AcDbVertex
100
AcDb2dVertex
 10
12.59166005046207
 20
21.73043642202946
 30
0.0
  0
VERTEX
  5
377
330
36E
100
AcDbEntity
  8
Livello 1
 62
   250
370
    15
100
AcDbVertex
100
AcDb2dVertex
 10
12.58904177616602
 20
21.73310637279188
 30
0.0
  0
VERTEX
  5
378
330
36E
100
AcDbEntity
  8
Livello 1
 62
   250
370
    15
100
AcDbVertex
100
AcDb2dVertex
 10
12.58638905089239
 20
21.73569019611035
 30
0.0
  0
VERTEX
  5
379
330
36E
100
AcDbEntity
  8
Livello 1
 62
   250
370
    15
100
AcDbVertex
100
AcDb2dVertex
 10
12.58504546276679
 20
21.73703378423596
 30
0.0
  0
VERTEX
  5
37A
330
36E
100
AcDbEntity
  8
Livello 1
 62
   250
370
    15
100
AcDbVertex
100
AcDb2dVertex
 10
12.58235828651558
 20
21.73834292138399
 30
0.0
  0
VERTEX
  5
37B
330
36E
100
AcDbEntity
  8
Livello 1
 62
   250
370
    15
100
AcDbVertex
100
AcDb2dVertex
 10
12.57987781612984
 20
21.7396692840208
 30
0.0
  0
VERTEX
  5
37C
330
36E
100
AcDbEntity
  8
Livello 1
 62
   250
370
    15
100
AcDbVertex
100
AcDb2dVertex
 10
12.57712173792348
 20
21.74097842116883
 30
0.0
  0
VERTEX
  5
37D
330
36E
100
AcDbEntity
  8
Livello 1
 62
   250
370
    15
100
AcDbVertex
100
AcDb2dVertex
 10
12.57450346362742
 20
21.74097842116883
 30
0.0
  0
VERTEX
  5
37E
330
36E
100
AcDbEntity
  8
Livello 1
 62
   250
370
    15
100
AcDbVertex
100
AcDb2dVertex
 10
12.57054160120577
 20
21.74228755831685
 30
0.0
  0
VERTEX
  5
37F
330
36E
100
AcDbEntity
  8
Livello 1
 62
   250
370
    15
100
AcDbVertex
100
AcDb2dVertex
 10
12.5679577778873
 20
21.74228755831685
 30
0.0
  0
SEQEND
  5
380
330
36E
100
AcDbEntity
  8
Livello 1
370
    15
  0
POLYLINE
  5
381
330
13C
100
AcDbEntity
  8
Livello 1
 62
   250
370
    15
100
AcDb2dPolyline
 66
     1
 10
0.0
 20
0.0
 30
0.0
  0
VERTEX
  5
382
330
381
100
AcDbEntity
  8
Livello 1
 62
   250
370
    15
100
AcDbVertex
100
AcDb2dVertex
 10
12.5679577778873
 20
14.19552531168114
 30
0.0
  0
VERTEX
  5
383
330
381
100
AcDbEntity
  8
Livello 1
 62
   250
370
    15
100
AcDbVertex
100
AcDb2dVertex
 10
12.57054160120577
 20
14.19552531168114
 30
0.0
  0
VERTEX
  5
384
330
381
100
AcDbEntity
  8
Livello 1
 62
   250
370
    15
100
AcDbVertex
100
AcDb2dVertex
 10
12.57450346362742
 20
14.19683444882916
 30
0.0
  0
VERTEX
  5
385
330
381
100
AcDbEntity
  8
Livello 1
 62
   250
370
    15
100
AcDbVertex
100
AcDb2dVertex
 10
12.57712173792348
 20
14.19683444882916
 30
0.0
  0
VERTEX
  5
386
330
381
100
AcDbEntity
  8
Livello 1
 62
   250
370
    15
100
AcDbVertex
100
AcDb2dVertex
 10
12.57987781612984
 20
14.19800578206687
 30
0.0
  0
VERTEX
  5
387
330
381
100
AcDbEntity
  8
Livello 1
 62
   250
370
    15
100
AcDbVertex
100
AcDb2dVertex
 10
12.58235828651558
 20
14.19945272312521
 30
0.0
  0
VERTEX
  5
388
330
381
100
AcDbEntity
  8
Livello 1
 62
   250
370
    15
100
AcDbVertex
100
AcDb2dVertex
 10
12.58504546276679
 20
14.20072740929566
 30
0.0
  0
VERTEX
  5
389
330
381
100
AcDbEntity
  8
Livello 1
 62
   250
370
    15
100
AcDbVertex
100
AcDb2dVertex
 10
12.58638905089239
 20
14.20203654644368
 30
0.0
  0
VERTEX
  5
38A
330
381
100
AcDbEntity
  8
Livello 1
 62
   250
370
    15
100
AcDbVertex
100
AcDb2dVertex
 10
12.58904177616602
 20
14.20468927171732
 30
0.0
  0
VERTEX
  5
38B
330
381
100
AcDbEntity
  8
Livello 1
 62
   250
370
    15
100
AcDbVertex
100
AcDb2dVertex
 10
12.59166005046207
 20
14.20603285984292
 30
0.0
  0
VERTEX
  5
38C
330
381
100
AcDbEntity
  8
Livello 1
 62
   250
370
    15
100
AcDbVertex
100
AcDb2dVertex
 10
12.59293473663252
 20
14.20861668316139
 30
0.0
  0
VERTEX
  5
38D
330
381
100
AcDbEntity
  8
Livello 1
 62
   250
370
    15
100
AcDbVertex
100
AcDb2dVertex
 10
12.5943127757357
 20
14.2113038594126
 30
0.0
  0
VERTEX
  5
38E
330
381
100
AcDbEntity
  8
Livello 1
 62
   250
370
    15
100
AcDbVertex
100
AcDb2dVertex
 10
12.59565636386131
 20
14.21392213370865
 30
0.0
  0
VERTEX
  5
38F
330
381
100
AcDbEntity
  8
Livello 1
 62
   250
370
    15
100
AcDbVertex
100
AcDb2dVertex
 10
12.59693105003175
 20
14.21657485898228
 30
0.0
  0
VERTEX
  5
390
330
381
100
AcDbEntity
  8
Livello 1
 62
   250
370
    15
100
AcDbVertex
100
AcDb2dVertex
 10
12.59693105003175
 20
14.21919313327833
 30
0.0
  0
VERTEX
  5
391
330
381
100
AcDbEntity
  8
Livello 1
 62
   250
370
    15
100
AcDbVertex
100
AcDb2dVertex
 10
12.59824018717978
 20
14.22184585855196
 30
0.0
  0
VERTEX
  5
392
330
381
100
AcDbEntity
  8
Livello 1
 62
   250
370
    15
100
AcDbVertex
100
AcDb2dVertex
 10
12.59824018717978
 20
14.22577326999604
 30
0.0
  0
SEQEND
  5
393
330
381
100
AcDbEntity
  8
Livello 1
370
    15
  0
ENDBLK
  5
13F
330
13C
100
AcDbEntity
  8
0
100
AcDbBlockEnd
  0
BLOCK
  5
396
330
394
100
AcDbEntity
  8
0
100
AcDbBlockBegin
  2
block 7
 70
     0
 71
     0
 10
0.0
 20
0.0
 30
0.0
  3
block 7
  1

  0
POLYLINE
  5
398
330
394
100
AcDbEntity
  8
Livello 1
370
     0
100
AcDb2dPolyline
 66
     1
 10
0.0
 20
0.0
 30
0.0
  0
VERTEX
  5
399
330
398
100
AcDbEntity
  8
Livello 1
370
     0
100
AcDbVertex
100
AcDb2dVertex
 10
20.98887912962821
 20
0.0112310186909551
 30
0.0
  0
VERTEX
  5
39A
330
398
100
AcDbEntity
  8
Livello 1
370
     0
100
AcDbVertex
100
AcDb2dVertex
 10
20.98887912962821
 20
29.69550243843689
 30
0.0
  0
VERTEX
  5
39B
330
398
100
AcDbEntity
  8
Livello 1
370
     0
100
AcDbVertex
100
AcDb2dVertex
 10
0.0
 20
29.69550243843689
 30
0.0
  0
VERTEX
  5
39C
330
398
100
AcDbEntity
  8
Livello 1
370
     0
100
AcDbVertex
100
AcDb2dVertex
 10
0.0
 20
0.0112310186909551
 30
0.0
  0
SEQEND
  5
39D
330
398
100
AcDbEntity
  8
Livello 1
370
     0
  0
ENDBLK
  5
397
330
394
100
AcDbEntity
  8
0
100
AcDbBlockEnd
  0
BLOCK
  5
3A0
330
39E
100
AcDbEntity
  8
0
100
AcDbBlockBegin
  2
block 8
 70
     0
 71
     0
 10
0.0
 20
0.0
 30
0.0
  3
block 8
  1

  0
POLYLINE
  5
3A2
330
39E
100
AcDbEntity
  8
Livello 1
370
     0
100
AcDb2dPolyline
 66
     1
 10
0.0
 20
0.0
 30
0.0
  0
VERTEX
  5
3A3
330
3A2
100
AcDbEntity
  8
Livello 1
370
     0
100
AcDbVertex
100
AcDb2dVertex
 10
20.98887912962821
 20
0.0112310186909551
 30
0.0
  0
VERTEX
  5
3A4
330
3A2
100
AcDbEntity
  8
Livello 1
370
     0
100
AcDbVertex
100
AcDb2dVertex
 10
20.98887912962821
 20
29.69550243843689
 30
0.0
  0
VERTEX
  5
3A5
330
3A2
100
AcDbEntity
  8
Livello 1
370
     0
100
AcDbVertex
100
AcDb2dVertex
 10
0.0
 20
29.69550243843689
 30
0.0
  0
VERTEX
  5
3A6
330
3A2
100
AcDbEntity
  8
Livello 1
370
     0
100
AcDbVertex
100
AcDb2dVertex
 10
0.0
 20
0.0112310186909551
 30
0.0
  0
SEQEND
  5
3A7
330
3A2
100
AcDbEntity
  8
Livello 1
370
     0
  0
ENDBLK
  5
3A1
330
39E
100
AcDbEntity
  8
0
100
AcDbBlockEnd
  0
ENDSEC
  0
SECTION
  2
ENTITIES
  0
INSERT
  5
3D
330
1F
100
AcDbEntity
  8
Livello 1
100
AcDbBlockReference
  2
block 2
 10
0.0
 20
0.0
 30
0.0
  0
INSERT
  5
47
330
1F
100
AcDbEntity
  8
Livello 1
100
AcDbBlockReference
  2
block 3
 10
0.0
 20
0.0
 30
0.0
  0
INSERT
  5
51
330
1F
100
AcDbEntity
  8
Livello 1
100
AcDbBlockReference
  2
block 4
 10
0.0
 20
0.0
 30
0.0
  0
INSERT
  5
5B
330
1F
100
AcDbEntity
  8
Livello 1
100
AcDbBlockReference
  2
block 5
 10
0.0
 20
0.0
 30
0.0
  0
INSERT
  5
13D
330
1F
100
AcDbEntity
  8
Livello 1
100
AcDbBlockReference
  2
block 6
 10
0.0
 20
0.0
 30
0.0
  0
INSERT
  5
395
330
1F
100
AcDbEntity
  8
Livello 1
100
AcDbBlockReference
  2
block 7
 10
0.0
 20
0.0
 30
0.0
  0
INSERT
  5
39F
330
1F
100
AcDbEntity
  8
Livello 1
100
AcDbBlockReference
  2
block 8
 10
0.0
 20
0.0
 30
0.0
  0
ENDSEC
  0
SECTION
  2
OBJECTS
  0
DICTIONARY
  5
C
330
0
100
AcDbDictionary
281
     1
  3
ACAD_GROUP
350
D
  3
ACAD_LAYOUT
350
1A
  3
ACAD_MLINESTYLE
350
17
  3
ACAD_PLOTSETTINGS
350
19
  3
ACAD_PLOTSTYLENAME
350
E
  3
ACAD_TABLESTYLE
350
3A8
  3
ACAD_VISUALSTYLE
350
2A
  0
DICTIONARY
  5
D
102
{ACAD_REACTORS
330
C
102
}
330
C
100
AcDbDictionary
281
     1
  0
DICTIONARY
  5
1A
102
{ACAD_REACTORS
330
C
102
}
330
C
100
AcDbDictionary
281
     1
  3
Layout1
350
1E
  3
Layout2
350
26
  3
Model
350
22
  0
DICTIONARY
  5
17
102
{ACAD_REACTORS
330
C
102
}
330
C
100
AcDbDictionary
281
     1
  3
Standard
350
18
  0
DICTIONARY
  5
19
102
{ACAD_REACTORS
330
C
102
}
330
C
100
AcDbDictionary
281
     1
  0
ACDBDICTIONARYWDFLT
  5
E
102
{ACAD_REACTORS
330
C
102
}
330
C
100
AcDbDictionary
281
     1
  3
Normal
350
F
100
AcDbDictionaryWithDefault
340
F
  0
DICTIONARY
  5
3A8
102
{ACAD_REACTORS
330
C
102
}
330
C
100
AcDbDictionary
281
     1
  0
DICTIONARY
  5
2A
102
{ACAD_REACTORS
330
C
102
}
330
C
100
AcDbDictionary
281
     1
  3
2dWireframe
350
2F
  3
3D Hidden
350
31
  3
3dWireframe
350
30
  3
Basic
350
32
  3
Brighten
350
36
  3
ColorChange
350
3A
  3
Conceptual
350
34
  3
Dim
350
35
  3
Facepattern
350
39
  3
Flat
350
2B
  3
FlatWithEdges
350
2C
  3
Gouraud
350
2D
  3
GouraudWithEdges
350
2E
  3
Linepattern
350
38
  3
Realistic
350
33
  3
Thicken
350
37
  0
LAYOUT
  5
1E
102
{ACAD_REACTORS
330
1A
102
}
330
1A
100
AcDbPlotSettings
  1

  2
none_device
  4

  6

 40
0.0
 41
0.0
 42
0.0
 43
0.0
 44
0.0
 45
0.0
 46
0.0
 47
0.0
 48
0.0
 49
0.0
140
0.0
141
0.0
142
1.0
143
1.0
 70
   688
 72
     0
 73
     0
 74
     5
  7

 75
    16
147
1.0
148
0.0
149
0.0
100
AcDbLayout
  1
Layout1
 70
     1
 71
     1
 10
0.0
 20
0.0
 11
12.0
 21
9.0
 12
0.0
 22
0.0
 32
0.0
 14
1.000000000000000E+20
 24
1.000000000000000E+20
 34
1.000000000000000E+20
 15
-1.000000000000000E+20
 25
-1.000000000000000E+20
 35
-1.000000000000000E+20
146
0.0
 13
0.0
 23
0.0
 33
0.0
 16
1.0
 26
0.0
 36
0.0
 17
0.0
 27
1.0
 37
0.0
 76
     0
330
1B
  0
LAYOUT
  5
26
102
{ACAD_REACTORS
330
1A
102
}
330
1A
100
AcDbPlotSettings
  1

  2
none_device
  4

  6

 40
0.0
 41
0.0
 42
0.0
 43
0.0
 44
0.0
 45
0.0
 46
0.0
 47
0.0
 48
0.0
 49
0.0
140
0.0
141
0.0
142
1.0
143
1.0
 70
   688
 72
     0
 73
     0
 74
     5
  7

 75
    16
147
1.0
148
0.0
149
0.0
100
AcDbLayout
  1
Layout2
 70
     1
 71
     2
 10
0.0
 20
0.0
 11
0.0
 21
0.0
 12
0.0
 22
0.0
 32
0.0
 14
0.0
 24
0.0
 34
0.0
 15
0.0
 25
0.0
 35
0.0
146
0.0
 13
0.0
 23
0.0
 33
0.0
 16
1.0
 26
0.0
 36
0.0
 17
0.0
 27
1.0
 37
0.0
 76
     0
330
23
  0
LAYOUT
  5
22
102
{ACAD_REACTORS
330
1A
102
}
330
1A
100
AcDbPlotSettings
  1

  2
none_device
  4

  6

 40
0.0
 41
0.0
 42
0.0
 43
0.0
 44
0.0
 45
0.0
 46
0.0
 47
0.0
 48
0.0
 49
0.0
140
0.0
141
0.0
142
1.0
143
1.0
 70
  1712
 72
     0
 73
     0
 74
     0
  7

 75
     0
147
1.0
148
0.0
149
0.0
100
AcDbLayout
  1
Model
 70
     1
 71
     0
 10
0.0
 20
0.0
 11
12.0
 21
9.0
 12
0.0
 22
0.0
 32
0.0
 14
1.000000000000000E+20
 24
1.000000000000000E+20
 34
1.000000000000000E+20
 15
-1.000000000000000E+20
 25
-1.000000000000000E+20
 35
-1.000000000000000E+20
146
0.0
 13
0.0
 23
0.0
 33
0.0
 16
1.0
 26
0.0
 36
0.0
 17
0.0
 27
1.0
 37
0.0
 76
     0
330
1F
331
29
  0
MLINESTYLE
  5
18
102
{ACAD_REACTORS
330
17
102
}
330
17
100
AcDbMlineStyle
  2
Standard
 70
     0
  3

 62
   256
 51
90.0
 52
90.0
 71
     2
 49
0.5
 62
   256
  6
BYLAYER
 49
-0.5
 62
   256
  6
BYLAYER
  0
ACDBPLACEHOLDER
  5
F
102
{ACAD_REACTORS
330
E
102
}
330
E
  0
VISUALSTYLE
  5
2F
102
{ACAD_REACTORS
330
2A
102
}
330
2A
100
AcDbVisualStyle
  2
2dWireframe
 70
     4
 71
     0
 72
     2
 73
     0
 90
        0
 40
-0.6
 41
-30.0
 62
     5
 63
     7
 74
     1
 91
        4
 64
     7
 65
   257
 75
     1
175
     1
 42
1.0
 92
        0
 66
   257
 43
1.0
 76
     1
 77
     6
 78
     2
 67
     7
 79
     5
170
     0
171
     0
290
     0
174
     0
 93
        1
 44
0.0
173
     0
291
     0
 45
0.0
1001
ACAD
1000
AcDbSavedByObjectVersion
1070
     0
  0
VISUALSTYLE
  5
31
102
{ACAD_REACTORS
330
2A
102
}
330
2A
100
AcDbVisualStyle
  2
3D Hidden
 70
     6
 71
     1
 72
     2
 73
     2
 90
        0
 40
-0.6
 41
-30.0
 62
     5
 63
     7
 74
     2
 91
        2
 64
     7
 65
   257
 75
     2
175
     1
 42
40.0
 92
        0
 66
   257
 43
1.0
 76
     1
 77
     6
 78
     2
 67
     7
 79
     3
170
     0
171
     0
290
     0
174
     0
 93
        1
 44
0.0
173
     0
291
     0
 45
0.0
1001
ACAD
1000
AcDbSavedByObjectVersion
1070
     0
  0
VISUALSTYLE
  5
30
102
{ACAD_REACTORS
330
2A
102
}
330
2A
100
AcDbVisualStyle
  2
3dWireframe
 70
     5
 71
     0
 72
     2
 73
     0
 90
        0
 40
-0.6
 41
-30.0
 62
     5
 63
     7
 74
     1
 91
        4
 64
     7
 65
   257
 75
     1
175
     1
 42
1.0
 92
        0
 66
   257
 43
1.0
 76
     1
 77
     6
 78
     2
 67
     7
 79
     5
170
     0
171
     0
290
     0
174
     0
 93
        1
 44
0.0
173
     0
291
     0
 45
0.0
1001
ACAD
1000
AcDbSavedByObjectVersion
1070
     0
  0
VISUALSTYLE
  5
32
102
{ACAD_REACTORS
330
2A
102
}
330
2A
100
AcDbVisualStyle
  2
Basic
 70
     7
 71
     1
 72
     0
 73
     1
 90
        0
 40
-0.6
 41
-30.0
 62
     5
 63
     7
 74
     0
 91
        4
 64
     7
 65
   257
 75
     1
175
     1
 42
1.0
 92
        8
 66
     7
 43
1.0
 76
     1
 77
     6
 78
     2
 67
     7
 79
     5
170
     0
171
     0
290
     0
174
     0
 93
        1
 44
0.0
173
     0
291
     1
 45
0.0
1001
ACAD
1000
AcDbSavedByObjectVersion
1070
     0
  0
VISUALSTYLE
  5
36
102
{ACAD_REACTORS
330
2A
102
}
330
2A
100
AcDbVisualStyle
  2
Brighten
 70
    12
 71
     2
 72
     2
 73
     0
 90
        0
 40
-0.6
 41
-30.0
 62
     5
 63
     7
 74
     1
 91
        4
 64
     7
 65
   257
 75
     1
175
     1
 42
1.0
 92
        8
 66
     7
 43
1.0
 76
     1
 77
     6
 78
     2
 67
     7
 79
     5
170
     0
171
     0
290
     0
174
     0
 93
        1
 44
50.0
173
     0
291
     1
 45
0.0
1001
ACAD
1000
AcDbSavedByObjectVersion
1070
     0
  0
VISUALSTYLE
  5
3A
102
{ACAD_REACTORS
330
2A
102
}
330
2A
100
AcDbVisualStyle
  2
ColorChange
 70
    16
 71
     2
 72
     2
 73
     3
 90
        0
 40
-0.6
 41
-30.0
 62
     5
 63
     8
 74
     1
 91
        4
 64
     7
 65
   257
 75
     1
175
     1
 42
1.0
 92
        8
 66
     8
 43
1.0
 76
     1
 77
     6
 78
     2
 67
     7
 79
     5
170
     0
171
     0
290
     0
174
     0
 93
        1
 44
0.0
173
     0
291
     1
 45
0.0
1001
ACAD
1000
AcDbSavedByObjectVersion
1070
     0
  0
VISUALSTYLE
  5
34
102
{ACAD_REACTORS
330
2A
102
}
330
2A
100
AcDbVisualStyle
  2
Conceptual
 70
     9
 71
     3
 72
     2
 73
     0
 90
        0
 40
-0.6
 41
-30.0
 62
     5
 63
     7
 74
     2
 91
        2
 64
     7
 65
   257
 75
     1
175
     1
 42
40.0
 92
        8
 66
     7
 43
1.0
 76
     1
 77
     6
 78
     2
 67
     7
 79
     3
170
     0
171
     0
290
     0
174
     0
 93
        1
 44
0.0
173
     0
291
     0
 45
0.0
1001
ACAD
1000
AcDbSavedByObjectVersion
1070
     0
  0
VISUALSTYLE
  5
35
102
{ACAD_REACTORS
330
2A
102
}
330
2A
100
AcDbVisualStyle
  2
Dim
 70
    11
 71
     2
 72
     2
 73
     0
 90
        0
 40
-0.6
 41
-30.0
 62
     5
 63
     7
 74
     1
 91
        4
 64
     7
 65
   257
 75
     1
175
     1
 42
1.0
 92
        8
 66
     7
 43
1.0
 76
     1
 77
     6
 78
     2
 67
     7
 79
     5
170
     0
171
     0
290
     0
174
     0
 93
        1
 44
-50.0
173
     0
291
     1
 45
0.0
1001
ACAD
1000
AcDbSavedByObjectVersion
1070
     0
  0
VISUALSTYLE
  5
39
102
{ACAD_REACTORS
330
2A
102
}
330
2A
100
AcDbVisualStyle
  2
Facepattern
 70
    15
 71
     2
 72
     2
 73
     0
 90
        0
 40
-0.6
 41
-30.0
 62
     5
 63
     7
 74
     1
 91
        4
 64
     7
 65
   257
 75
     1
175
     1
 42
1.0
 92
        8
 66
     7
 43
1.0
 76
     1
 77
     6
 78
     2
 67
     7
 79
     5
170
     0
171
     0
290
     0
174
     0
 93
        1
 44
0.0
173
     0
291
     1
 45
0.0
1001
ACAD
1000
AcDbSavedByObjectVersion
1070
     0
  0
VISUALSTYLE
  5
2B
102
{ACAD_REACTORS
330
2A
102
}
330
2A
100
AcDbVisualStyle
  2
Flat
 70
     0
 71
     2
 72
     1
 73
     1
 90
        2
 40
-0.6
 41
30.0
 62
     5
 63
     7
 74
     0
 91
        4
 64
     7
 65
   257
 75
     1
175
     1
 42
1.0
 92
        8
 66
     7
 43
1.0
 76
     1
 77
     6
 78
     2
 67
     7
 79
     5
170
     0
171
     0
290
     0
174
     0
 93
       13
 44
0.0
173
     0
291
     1
 45
0.0
1001
ACAD
1000
AcDbSavedByObjectVersion
1070
     0
  0
VISUALSTYLE
  5
2C
102
{ACAD_REACTORS
330
2A
102
}
330
2A
100
AcDbVisualStyle
  2
FlatWithEdges
 70
     1
 71
     2
 72
     1
 73
     1
 90
        2
 40
-0.6
 41
30.0
 62
     5
 63
     7
 74
     1
 91
        4
 64
     7
 65
   257
 75
     1
175
     1
 42
1.0
 92
        0
 66
   257
 43
1.0
 76
     1
 77
     6
 78
     2
 67
     7
 79
     5
170
     0
171
     0
290
     0
174
     0
 93
       13
 44
0.0
173
     0
291
     1
 45
0.0
1001
ACAD
1000
AcDbSavedByObjectVersion
1070
     0
  0
VISUALSTYLE
  5
2D
102
{ACAD_REACTORS
330
2A
102
}
330
2A
100
AcDbVisualStyle
  2
Gouraud
 70
     2
 71
     2
 72
     2
 73
     1
 90
        2
 40
-0.6
 41
30.0
 62
     5
 63
     7
 74
     0
 91
        4
 64
     7
 65
   257
 75
     1
175
     1
 42
1.0
 92
        0
 66
     7
 43
1.0
 76
     1
 77
     6
 78
     2
 67
     7
 79
     5
170
     0
171
     0
290
     0
174
     0
 93
       13
 44
0.0
173
     0
291
     1
 45
0.0
1001
ACAD
1000
AcDbSavedByObjectVersion
1070
     0
  0
VISUALSTYLE
  5
2E
102
{ACAD_REACTORS
330
2A
102
}
330
2A
100
AcDbVisualStyle
  2
GouraudWithEdges
 70
     3
 71
     2
 72
     2
 73
     1
 90
        2
 40
-0.6
 41
30.0
 62
     5
 63
     7
 74
     1
 91
        4
 64
     7
 65
   257
 75
     1
175
     1
 42
1.0
 92
        0
 66
   257
 43
1.0
 76
     1
 77
     6
 78
     2
 67
     7
 79
     5
170
     0
171
     0
290
     0
174
     0
 93
       13
 44
0.0
173
     0
291
     1
 45
0.0
1001
ACAD
1000
AcDbSavedByObjectVersion
1070
     0
  0
VISUALSTYLE
  5
38
102
{ACAD_REACTORS
330
2A
102
}
330
2A
100
AcDbVisualStyle
  2
Linepattern
 70
    14
 71
     2
 72
     2
 73
     0
 90
        0
 40
-0.6
 41
-30.0
 62
     5
 63
     7
 74
     1
 91
        4
 64
     7
 65
   257
 75
     7
175
     7
 42
1.0
 92
        8
 66
     7
 43
1.0
 76
     1
 77
     6
 78
     2
 67
     7
 79
     5
170
     0
171
     0
290
     0
174
     0
 93
        1
 44
0.0
173
     0
291
     1
 45
0.0
1001
ACAD
1000
AcDbSavedByObjectVersion
1070
     0
  0
VISUALSTYLE
  5
33
102
{ACAD_REACTORS
330
2A
102
}
330
2A
100
AcDbVisualStyle
  2
Realistic
 70
     8
 71
     2
 72
     2
 73
     0
 90
        0
 40
-0.6
 41
-30.0
 62
     5
 63
     7
 74
     1
 91
        0
 64
     7
 65
   257
 75
     1
175
     1
 42
1.0
 92
        8
 66
     8
 43
1.0
 76
     1
 77
     6
 78
     2
 67
     7
 79
     5
170
     0
171
     0
290
     0
174
     0
 93
       13
 44
0.0
173
     0
291
     0
 45
0.0
1001
ACAD
1000
AcDbSavedByObjectVersion
1070
     0
  0
VISUALSTYLE
  5
37
102
{ACAD_REACTORS
330
2A
102
}
330
2A
100
AcDbVisualStyle
  2
Thicken
 70
    13
 71
     2
 72
     2
 73
     0
 90
        0
 40
-0.6
 41
-30.0
 62
     5
 63
     7
 74
     1
 91
        4
 64
     7
 65
   257
 75
     1
175
     1
 42
1.0
 92
       12
 66
     7
 43
1.0
 76
     1
 77
     6
 78
     2
 67
     7
 79
     5
170
     0
171
     0
290
     0
174
     0
 93
        1
 44
0.0
173
     0
291
     1
 45
0.0
1001
ACAD
1000
AcDbSavedByObjectVersion
1070
     0
  0
ENDSEC
  0
EOF
